ISO-10303-21;
HEADER;
/* Generated by software containing ST-Developer
 * from STEP Tools, Inc. (www.steptools.com) 
 */

FILE_DESCRIPTION(
/* description */ (''),
/* implementation_level */ '2;1');

FILE_NAME(
/* name */ 
'\\\\Tske00\\w\\Work\\TOSTE\\\X2\7D99624B\X0\\\02_\X2\6EB663A5\X0\\\\X2\6EB663A5752830C130FC30BA\X0\\\
D8(R)\\D8(R) 40\X\D730.stp',
/* time_stamp */ '2022-04-12T17:38:56+09:00',
/* author */ ('3dcad-eng'),
/* organization */ (''),
/* preprocessor_version */ 'ST-DEVELOPER v18.1',
/* originating_system */ 'Autodesk Inventor 2022',
/* authorisation */ '');

FILE_SCHEMA (('AUTOMOTIVE_DESIGN { 1 0 10303 214 3 1 1 }'));
ENDSEC;

DATA;
#10=MECHANICAL_DESIGN_GEOMETRIC_PRESENTATION_REPRESENTATION('',(#13),#355);
#11=SHAPE_REPRESENTATION_RELATIONSHIP('SRR','None',#362,#12);
#12=ADVANCED_BREP_SHAPE_REPRESENTATION('',(#14),#354);
#13=STYLED_ITEM('',(#371),#14);
#14=MANIFOLD_SOLID_BREP('\X2\30BD30EA30C330C9\X0\1',#123);
#15=PLANE('',#150);
#16=PLANE('',#151);
#17=PLANE('',#155);
#18=FACE_BOUND('',#32,.T.);
#19=FACE_BOUND('',#35,.T.);
#20=FACE_BOUND('',#37,.T.);
#21=FACE_BOUND('',#39,.T.);
#22=FACE_BOUND('',#41,.T.);
#23=FACE_OUTER_BOUND('',#30,.T.);
#24=FACE_OUTER_BOUND('',#31,.T.);
#25=FACE_OUTER_BOUND('',#33,.T.);
#26=FACE_OUTER_BOUND('',#34,.T.);
#27=FACE_OUTER_BOUND('',#36,.T.);
#28=FACE_OUTER_BOUND('',#38,.T.);
#29=FACE_OUTER_BOUND('',#40,.T.);
#30=EDGE_LOOP('',(#84,#85,#86,#87,#88));
#31=EDGE_LOOP('',(#89,#90,#91,#92));
#32=EDGE_LOOP('',(#93,#94));
#33=EDGE_LOOP('',(#95,#96,#97,#98,#99));
#34=EDGE_LOOP('',(#100));
#35=EDGE_LOOP('',(#101));
#36=EDGE_LOOP('',(#102));
#37=EDGE_LOOP('',(#103));
#38=EDGE_LOOP('',(#104,#105,#106,#107));
#39=EDGE_LOOP('',(#108,#109));
#40=EDGE_LOOP('',(#110));
#41=EDGE_LOOP('',(#111));
#42=CIRCLE('',#144,36.15);
#43=CIRCLE('',#146,48.8);
#44=CIRCLE('',#147,48.8);
#45=CIRCLE('',#149,38.15);
#46=CIRCLE('',#152,50.8);
#47=CIRCLE('',#154,50.8);
#48=LINE('',#261,#52);
#49=LINE('',#267,#53);
#50=LINE('',#273,#54);
#51=LINE('',#350,#55);
#52=VECTOR('',#160,36.15);
#53=VECTOR('',#167,48.8);
#54=VECTOR('',#174,38.15);
#55=VECTOR('',#185,50.8);
#56=B_SPLINE_CURVE_WITH_KNOTS('',3,(#192,#193,#194,#195,#196,#197,#198,
#199,#200,#201,#202,#203,#204,#205,#206,#207,#208,#209,#210,#211,#212,#213,
#214,#215,#216,#217,#218,#219,#220,#221,#222,#223,#224,#225,#226,#227,#228,
#229,#230,#231,#232,#233,#234,#235,#236,#237,#238,#239,#240,#241),
 .UNSPECIFIED.,.F.,.F.,(4,2,2,2,2,2,2,2,2,2,2,2,2,2,2,2,2,2,2,2,2,2,2,2,
4),(0.,0.726210900469238,1.45242180093848,2.17863270140771,2.90484360187695,
3.6168344428819,4.32882528388686,5.04081612489181,5.75280696589676,6.46479780690172,
7.17678864790667,7.88877948891162,8.60077032991657,9.32698123038581,10.053192130855,
10.7794030313243,11.5056139317935,12.2318248322628,12.958035732732,13.6842466332012,
14.4104575336705,15.1224483746754,15.8344392156804,16.5464300566853,17.2584208976903),
 .UNSPECIFIED.);
#57=B_SPLINE_CURVE_WITH_KNOTS('',3,(#242,#243,#244,#245,#246,#247,#248,
#249,#250,#251,#252,#253,#254,#255,#256,#257,#258,#259),.UNSPECIFIED.,.F.,
 .F.,(4,2,2,2,2,2,2,2,4),(17.2584208976903,17.9704117386952,18.6824025797002,
19.3943934207051,20.1063842617101,20.8325951621793,21.5588060626486,22.2850169631178,
23.0112278635871),.UNSPECIFIED.);
#58=B_SPLINE_CURVE_WITH_KNOTS('',3,(#275,#276,#277,#278,#279,#280,#281,
#282,#283,#284,#285,#286,#287,#288,#289,#290,#291,#292),.UNSPECIFIED.,.F.,
 .F.,(4,2,2,2,2,2,2,2,4),(0.,0.768753523050549,1.5375070461011,2.30626056915165,
3.0750140922022,3.82747438517861,4.57993467815503,5.33239497113145,6.08485526410787),
 .UNSPECIFIED.);
#59=B_SPLINE_CURVE_WITH_KNOTS('',3,(#293,#294,#295,#296,#297,#298,#299,
#300,#301,#302,#303,#304,#305,#306,#307,#308,#309,#310,#311,#312,#313,#314,
#315,#316,#317,#318,#319,#320,#321,#322,#323,#324,#325,#326,#327,#328,#329,
#330,#331,#332,#333,#334,#335,#336,#337,#338,#339,#340,#341,#342),
 .UNSPECIFIED.,.F.,.F.,(4,2,2,2,2,2,2,2,2,2,2,2,2,2,2,2,2,2,2,2,2,2,2,2,
4),(6.08485526410787,6.83731555708428,7.5897758500607,8.34223614303712,
9.09469643601354,9.86344995906408,10.6322034821146,11.4009570051652,12.1697105282157,
12.9384640512663,13.7072175743168,14.4759710973674,15.2447246204179,15.9971849133943,
16.7496452063708,17.5021054993472,18.2545657923236,19.0070260853,19.7594863782764,
20.5119466712529,21.2644069642293,22.0331604872798,22.8019140103304,23.5706675333809,
24.3394210564315),.UNSPECIFIED.);
#60=VERTEX_POINT('',#190);
#61=VERTEX_POINT('',#191);
#62=VERTEX_POINT('',#260);
#63=VERTEX_POINT('',#264);
#64=VERTEX_POINT('',#266);
#65=VERTEX_POINT('',#270);
#66=VERTEX_POINT('',#272);
#67=VERTEX_POINT('',#274);
#68=VERTEX_POINT('',#345);
#69=VERTEX_POINT('',#348);
#70=EDGE_CURVE('',#60,#61,#56,.T.);
#71=EDGE_CURVE('',#61,#60,#57,.T.);
#72=EDGE_CURVE('',#61,#62,#48,.T.);
#73=EDGE_CURVE('',#62,#62,#42,.T.);
#74=EDGE_CURVE('',#63,#63,#43,.T.);
#75=EDGE_CURVE('',#63,#64,#49,.T.);
#76=EDGE_CURVE('',#64,#64,#44,.T.);
#77=EDGE_CURVE('',#65,#65,#45,.T.);
#78=EDGE_CURVE('',#65,#66,#50,.T.);
#79=EDGE_CURVE('',#67,#66,#58,.T.);
#80=EDGE_CURVE('',#66,#67,#59,.T.);
#81=EDGE_CURVE('',#68,#68,#46,.T.);
#82=EDGE_CURVE('',#69,#69,#47,.T.);
#83=EDGE_CURVE('',#69,#68,#51,.T.);
#84=ORIENTED_EDGE('',*,*,#70,.F.);
#85=ORIENTED_EDGE('',*,*,#71,.F.);
#86=ORIENTED_EDGE('',*,*,#72,.T.);
#87=ORIENTED_EDGE('',*,*,#73,.F.);
#88=ORIENTED_EDGE('',*,*,#72,.F.);
#89=ORIENTED_EDGE('',*,*,#74,.F.);
#90=ORIENTED_EDGE('',*,*,#75,.T.);
#91=ORIENTED_EDGE('',*,*,#76,.F.);
#92=ORIENTED_EDGE('',*,*,#75,.F.);
#93=ORIENTED_EDGE('',*,*,#70,.T.);
#94=ORIENTED_EDGE('',*,*,#71,.T.);
#95=ORIENTED_EDGE('',*,*,#77,.F.);
#96=ORIENTED_EDGE('',*,*,#78,.T.);
#97=ORIENTED_EDGE('',*,*,#79,.F.);
#98=ORIENTED_EDGE('',*,*,#80,.F.);
#99=ORIENTED_EDGE('',*,*,#78,.F.);
#100=ORIENTED_EDGE('',*,*,#77,.T.);
#101=ORIENTED_EDGE('',*,*,#73,.T.);
#102=ORIENTED_EDGE('',*,*,#81,.T.);
#103=ORIENTED_EDGE('',*,*,#74,.T.);
#104=ORIENTED_EDGE('',*,*,#82,.F.);
#105=ORIENTED_EDGE('',*,*,#83,.T.);
#106=ORIENTED_EDGE('',*,*,#81,.F.);
#107=ORIENTED_EDGE('',*,*,#83,.F.);
#108=ORIENTED_EDGE('',*,*,#79,.T.);
#109=ORIENTED_EDGE('',*,*,#80,.T.);
#110=ORIENTED_EDGE('',*,*,#82,.T.);
#111=ORIENTED_EDGE('',*,*,#76,.T.);
#112=CYLINDRICAL_SURFACE('',#143,36.15);
#113=CYLINDRICAL_SURFACE('',#145,48.8);
#114=CYLINDRICAL_SURFACE('',#148,38.15);
#115=CYLINDRICAL_SURFACE('',#153,50.8);
#116=ADVANCED_FACE('',(#23),#112,.F.);
#117=ADVANCED_FACE('',(#24,#18),#113,.F.);
#118=ADVANCED_FACE('',(#25),#114,.T.);
#119=ADVANCED_FACE('',(#26,#19),#15,.T.);
#120=ADVANCED_FACE('',(#27,#20),#16,.F.);
#121=ADVANCED_FACE('',(#28,#21),#115,.T.);
#122=ADVANCED_FACE('',(#29,#22),#17,.T.);
#123=CLOSED_SHELL('',(#116,#117,#118,#119,#120,#121,#122));
#124=DERIVED_UNIT_ELEMENT(#126,1.);
#125=DERIVED_UNIT_ELEMENT(#357,-3.);
#126=(
MASS_UNIT()
NAMED_UNIT(*)
SI_UNIT($,.GRAM.)
);
#127=DERIVED_UNIT((#124,#125));
#128=MEASURE_REPRESENTATION_ITEM('density measure',
POSITIVE_RATIO_MEASURE(1.),#127);
#129=PROPERTY_DEFINITION_REPRESENTATION(#134,#131);
#130=PROPERTY_DEFINITION_REPRESENTATION(#135,#132);
#131=REPRESENTATION('material name',(#133),#354);
#132=REPRESENTATION('density',(#128),#354);
#133=DESCRIPTIVE_REPRESENTATION_ITEM('\X2\4E00822C\X0\','\X2\4E00822C\X0\');
#134=PROPERTY_DEFINITION('material property','material name',#364);
#135=PROPERTY_DEFINITION('material property','density of part',#364);
#136=DATE_TIME_ROLE('creation_date');
#137=APPLIED_DATE_AND_TIME_ASSIGNMENT(#138,#136,(#364));
#138=DATE_AND_TIME(#139,#140);
#139=CALENDAR_DATE(2022,31,3);
#140=LOCAL_TIME(0,0,0.,#141);
#141=COORDINATED_UNIVERSAL_TIME_OFFSET(0,0,.BEHIND.);
#142=AXIS2_PLACEMENT_3D('placement',#188,#156,#157);
#143=AXIS2_PLACEMENT_3D('',#189,#158,#159);
#144=AXIS2_PLACEMENT_3D('',#262,#161,#162);
#145=AXIS2_PLACEMENT_3D('',#263,#163,#164);
#146=AXIS2_PLACEMENT_3D('',#265,#165,#166);
#147=AXIS2_PLACEMENT_3D('',#268,#168,#169);
#148=AXIS2_PLACEMENT_3D('',#269,#170,#171);
#149=AXIS2_PLACEMENT_3D('',#271,#172,#173);
#150=AXIS2_PLACEMENT_3D('',#343,#175,#176);
#151=AXIS2_PLACEMENT_3D('',#344,#177,#178);
#152=AXIS2_PLACEMENT_3D('',#346,#179,#180);
#153=AXIS2_PLACEMENT_3D('',#347,#181,#182);
#154=AXIS2_PLACEMENT_3D('',#349,#183,#184);
#155=AXIS2_PLACEMENT_3D('',#351,#186,#187);
#156=DIRECTION('axis',(0.,0.,1.));
#157=DIRECTION('refdir',(1.,0.,0.));
#158=DIRECTION('center_axis',(0.,0.,1.));
#159=DIRECTION('ref_axis',(1.,0.,0.));
#160=DIRECTION('',(0.,0.,1.));
#161=DIRECTION('center_axis',(0.,0.,-1.));
#162=DIRECTION('ref_axis',(1.,0.,0.));
#163=DIRECTION('center_axis',(1.,0.,0.));
#164=DIRECTION('ref_axis',(0.,1.,0.));
#165=DIRECTION('center_axis',(1.,0.,0.));
#166=DIRECTION('ref_axis',(0.,1.,0.));
#167=DIRECTION('',(1.,0.,0.));
#168=DIRECTION('center_axis',(-1.,0.,0.));
#169=DIRECTION('ref_axis',(0.,1.,0.));
#170=DIRECTION('center_axis',(0.,0.,1.));
#171=DIRECTION('ref_axis',(1.,0.,0.));
#172=DIRECTION('center_axis',(0.,0.,1.));
#173=DIRECTION('ref_axis',(1.,0.,0.));
#174=DIRECTION('',(0.,0.,-1.));
#175=DIRECTION('center_axis',(0.,0.,1.));
#176=DIRECTION('ref_axis',(1.,0.,0.));
#177=DIRECTION('center_axis',(1.,0.,0.));
#178=DIRECTION('ref_axis',(0.,0.,-1.));
#179=DIRECTION('center_axis',(-1.,0.,0.));
#180=DIRECTION('ref_axis',(0.,1.,0.));
#181=DIRECTION('center_axis',(1.,0.,0.));
#182=DIRECTION('ref_axis',(0.,1.,0.));
#183=DIRECTION('center_axis',(1.,0.,0.));
#184=DIRECTION('ref_axis',(0.,1.,0.));
#185=DIRECTION('',(-1.,0.,0.));
#186=DIRECTION('center_axis',(1.,0.,0.));
#187=DIRECTION('ref_axis',(0.,0.,-1.));
#188=CARTESIAN_POINT('',(0.,0.,0.));
#189=CARTESIAN_POINT('Origin',(0.,0.,0.));
#190=CARTESIAN_POINT('',(5.55111512312578E-16,-36.15,32.7813590322305));
#191=CARTESIAN_POINT('',(-36.15,-2.70658796364816E-16,48.8));
#192=CARTESIAN_POINT('Ctrl Pts',(5.55111512312578E-16,-36.15,32.7813590322305));
#193=CARTESIAN_POINT('Ctrl Pts',(2.42070300156413,-36.15,32.7813590322305));
#194=CARTESIAN_POINT('Ctrl Pts',(4.85447111847771,-35.9042924101977,33.0577803936984));
#195=CARTESIAN_POINT('Ctrl Pts',(9.5988816016083,-34.9363074965562,34.0791647620893));
#196=CARTESIAN_POINT('Ctrl Pts',(11.910577696957,-34.2146124841155,34.8197800002795));
#197=CARTESIAN_POINT('Ctrl Pts',(16.2990314832362,-32.3549597685602,36.5542492407812));
#198=CARTESIAN_POINT('Ctrl Pts',(18.3801764291615,-31.2153074863663,37.546967914767));
#199=CARTESIAN_POINT('Ctrl Pts',(22.2268352426697,-28.6040924026644,39.5724161395434));
#200=CARTESIAN_POINT('Ctrl Pts',(23.9921830638073,-27.1316372159801,40.6043103858301));
#201=CARTESIAN_POINT('Ctrl Pts',(27.1009001224578,-24.0229201573296,42.5159191732288));
#202=CARTESIAN_POINT('Ctrl Pts',(28.5667559598727,-22.2750260558724,43.4711363597596));
#203=CARTESIAN_POINT('Ctrl Pts',(31.1866394730775,-18.4290490992454,45.2358998085542));
#204=CARTESIAN_POINT('Ctrl Pts',(32.3407752546563,-16.3306671405867,46.0446336333198));
#205=CARTESIAN_POINT('Ctrl Pts',(34.220438855269,-11.8986576159996,47.383762605657));
#206=CARTESIAN_POINT('Ctrl Pts',(34.9475469570568,-9.56006628069747,47.9149367512772));
#207=CARTESIAN_POINT('Ctrl Pts',(35.9125365606669,-4.79746010309204,48.6232496629018));
#208=CARTESIAN_POINT('Ctrl Pts',(36.15,-2.37330280334984,48.8));
#209=CARTESIAN_POINT('Ctrl Pts',(36.15,2.37330280334984,48.8));
#210=CARTESIAN_POINT('Ctrl Pts',(35.9125365606669,4.79746010309205,48.6232496629018));
#211=CARTESIAN_POINT('Ctrl Pts',(34.9475469570568,9.56006628069747,47.9149367512772));
#212=CARTESIAN_POINT('Ctrl Pts',(34.220438855269,11.8986576159996,47.383762605657));
#213=CARTESIAN_POINT('Ctrl Pts',(32.3407752546563,16.3306671405867,46.0446336333198));
#214=CARTESIAN_POINT('Ctrl Pts',(31.1866394730775,18.4290490992454,45.2358998085542));
#215=CARTESIAN_POINT('Ctrl Pts',(28.5667559598728,22.2750260558724,43.4711363597596));
#216=CARTESIAN_POINT('Ctrl Pts',(27.1009001224578,24.0229201573296,42.5159191732288));
#217=CARTESIAN_POINT('Ctrl Pts',(23.9921830638073,27.1316372159801,40.6043103858301));
#218=CARTESIAN_POINT('Ctrl Pts',(22.2268352426697,28.6040924026644,39.5724161395434));
#219=CARTESIAN_POINT('Ctrl Pts',(18.3801764291615,31.2153074863663,37.546967914767));
#220=CARTESIAN_POINT('Ctrl Pts',(16.2990314832362,32.3549597685602,36.5542492407812));
#221=CARTESIAN_POINT('Ctrl Pts',(11.910577696957,34.2146124841155,34.8197800002795));
#222=CARTESIAN_POINT('Ctrl Pts',(9.5988816016083,34.9363074965562,34.0791647620893));
#223=CARTESIAN_POINT('Ctrl Pts',(4.85447111847772,35.9042924101977,33.0577803936984));
#224=CARTESIAN_POINT('Ctrl Pts',(2.42070300156413,36.15,32.7813590322305));
#225=CARTESIAN_POINT('Ctrl Pts',(-2.42070300156412,36.15,32.7813590322305));
#226=CARTESIAN_POINT('Ctrl Pts',(-4.85447111847771,35.9042924101978,33.0577803936984));
#227=CARTESIAN_POINT('Ctrl Pts',(-9.59888160160829,34.9363074965562,34.0791647620892));
#228=CARTESIAN_POINT('Ctrl Pts',(-11.910577696957,34.2146124841155,34.8197800002795));
#229=CARTESIAN_POINT('Ctrl Pts',(-16.2990314832362,32.3549597685602,36.5542492407812));
#230=CARTESIAN_POINT('Ctrl Pts',(-18.3801764291615,31.2153074863663,37.546967914767));
#231=CARTESIAN_POINT('Ctrl Pts',(-22.2268352426697,28.6040924026644,39.5724161395434));
#232=CARTESIAN_POINT('Ctrl Pts',(-23.9921830638073,27.1316372159801,40.6043103858301));
#233=CARTESIAN_POINT('Ctrl Pts',(-27.1009001224578,24.0229201573296,42.5159191732288));
#234=CARTESIAN_POINT('Ctrl Pts',(-28.5667559598728,22.2750260558724,43.4711363597596));
#235=CARTESIAN_POINT('Ctrl Pts',(-31.1866394730775,18.4290490992454,45.2358998085542));
#236=CARTESIAN_POINT('Ctrl Pts',(-32.3407752546563,16.3306671405867,46.0446336333198));
#237=CARTESIAN_POINT('Ctrl Pts',(-34.220438855269,11.8986576159996,47.383762605657));
#238=CARTESIAN_POINT('Ctrl Pts',(-34.9475469570568,9.56006628069746,47.9149367512772));
#239=CARTESIAN_POINT('Ctrl Pts',(-35.9125365606669,4.79746010309204,48.6232496629018));
#240=CARTESIAN_POINT('Ctrl Pts',(-36.15,2.37330280334984,48.8));
#241=CARTESIAN_POINT('Ctrl Pts',(-36.15,3.88578058618805E-15,48.8));
#242=CARTESIAN_POINT('Ctrl Pts',(-36.15,3.88578058618805E-15,48.8));
#243=CARTESIAN_POINT('Ctrl Pts',(-36.15,-2.37330280334983,48.8));
#244=CARTESIAN_POINT('Ctrl Pts',(-35.9125365606669,-4.79746010309203,48.6232496629018));
#245=CARTESIAN_POINT('Ctrl Pts',(-34.9475469570568,-9.56006628069746,47.9149367512772));
#246=CARTESIAN_POINT('Ctrl Pts',(-34.220438855269,-11.8986576159995,47.383762605657));
#247=CARTESIAN_POINT('Ctrl Pts',(-32.3407752546563,-16.3306671405867,46.0446336333198));
#248=CARTESIAN_POINT('Ctrl Pts',(-31.1866394730775,-18.4290490992454,45.2358998085542));
#249=CARTESIAN_POINT('Ctrl Pts',(-28.5667559598727,-22.2750260558724,43.4711363597596));
#250=CARTESIAN_POINT('Ctrl Pts',(-27.1009001224578,-24.0229201573296,42.5159191732288));
#251=CARTESIAN_POINT('Ctrl Pts',(-23.9921830638073,-27.1316372159801,40.6043103858301));
#252=CARTESIAN_POINT('Ctrl Pts',(-22.2268352426697,-28.6040924026644,39.5724161395434));
#253=CARTESIAN_POINT('Ctrl Pts',(-18.3801764291615,-31.2153074863663,37.546967914767));
#254=CARTESIAN_POINT('Ctrl Pts',(-16.2990314832362,-32.3549597685602,36.5542492407812));
#255=CARTESIAN_POINT('Ctrl Pts',(-11.910577696957,-34.2146124841155,34.8197800002795));
#256=CARTESIAN_POINT('Ctrl Pts',(-9.59888160160829,-34.9363074965562,34.0791647620892));
#257=CARTESIAN_POINT('Ctrl Pts',(-4.85447111847771,-35.9042924101978,33.0577803936984));
#258=CARTESIAN_POINT('Ctrl Pts',(-2.42070300156412,-36.15,32.7813590322305));
#259=CARTESIAN_POINT('Ctrl Pts',(-5.55111512312578E-16,-36.15,32.7813590322305));
#260=CARTESIAN_POINT('',(-36.15,4.42709817891768E-15,133.4));
#261=CARTESIAN_POINT('',(-36.15,-4.42709817891768E-15,0.));
#262=CARTESIAN_POINT('Origin',(0.,0.,133.4));
#263=CARTESIAN_POINT('Origin',(0.,0.,0.));
#264=CARTESIAN_POINT('',(-133.4,-48.8,-5.97627637983908E-15));
#265=CARTESIAN_POINT('Origin',(-133.4,0.,0.));
#266=CARTESIAN_POINT('',(133.4,-48.8,5.97627637983908E-15));
#267=CARTESIAN_POINT('',(0.,-48.8,-5.97627637983908E-15));
#268=CARTESIAN_POINT('Origin',(133.4,0.,0.));
#269=CARTESIAN_POINT('Origin',(0.,0.,0.));
#270=CARTESIAN_POINT('',(-38.15,-4.67202753874715E-15,133.4));
#271=CARTESIAN_POINT('Origin',(0.,0.,133.4));
#272=CARTESIAN_POINT('',(-38.15,-4.83401557478018E-15,50.8));
#273=CARTESIAN_POINT('',(-38.15,-4.67202753874715E-15,0.));
#274=CARTESIAN_POINT('',(0.,-38.15,33.5442618043683));
#275=CARTESIAN_POINT('Ctrl Pts',(0.,-38.15,33.5442618043683));
#276=CARTESIAN_POINT('Ctrl Pts',(-2.56251174350183,-38.15,33.5442618043683));
#277=CARTESIAN_POINT('Ctrl Pts',(-5.13397791825816,-37.8892649692383,33.8469268260795));
#278=CARTESIAN_POINT('Ctrl Pts',(-10.1419010086676,-36.8659189514097,34.9587595449619));
#279=CARTESIAN_POINT('Ctrl Pts',(-12.5795723894118,-36.1039031234984,35.7629989618275));
#280=CARTESIAN_POINT('Ctrl Pts',(-17.2067450957437,-34.1418461477313,37.64064338193));
#281=CARTESIAN_POINT('Ctrl Pts',(-19.4007503447992,-32.9399971811589,38.712854347111));
#282=CARTESIAN_POINT('Ctrl Pts',(-23.4572499301604,-30.1859231086204,40.8966814357865));
#283=CARTESIAN_POINT('Ctrl Pts',(-25.3195204843562,-28.6327269201774,42.0074883958627));
#284=CARTESIAN_POINT('Ctrl Pts',(-28.5976162942594,-25.3546311102742,44.0618260535692));
#285=CARTESIAN_POINT('Ctrl Pts',(-30.1431038004672,-23.5124715894347,45.0866973011298));
#286=CARTESIAN_POINT('Ctrl Pts',(-32.906772507713,-19.4573212599984,46.9793491138044));
#287=CARTESIAN_POINT('Ctrl Pts',(-34.125058439744,-17.2440083922484,47.8462866044529));
#288=CARTESIAN_POINT('Ctrl Pts',(-36.1100861674361,-12.5673059365203,49.2816987447317));
#289=CARTESIAN_POINT('Ctrl Pts',(-36.8785034482959,-10.0986426027239,49.8510328991117));
#290=CARTESIAN_POINT('Ctrl Pts',(-37.89868270306,-5.06916644425046,50.6103903872151));
#291=CARTESIAN_POINT('Ctrl Pts',(-38.15,-2.50820097658806,50.8));
#292=CARTESIAN_POINT('Ctrl Pts',(-38.15,-4.9960036108132E-15,50.8));
#293=CARTESIAN_POINT('Ctrl Pts',(-38.15,-4.9960036108132E-15,50.8));
#294=CARTESIAN_POINT('Ctrl Pts',(-38.15,2.50820097658805,50.8));
#295=CARTESIAN_POINT('Ctrl Pts',(-37.89868270306,5.06916644425045,50.6103903872151));
#296=CARTESIAN_POINT('Ctrl Pts',(-36.8785034482959,10.0986426027239,49.8510328991117));
#297=CARTESIAN_POINT('Ctrl Pts',(-36.1100861674361,12.5673059365203,49.2816987447317));
#298=CARTESIAN_POINT('Ctrl Pts',(-34.125058439744,17.2440083922484,47.8462866044529));
#299=CARTESIAN_POINT('Ctrl Pts',(-32.906772507713,19.4573212599984,46.9793491138044));
#300=CARTESIAN_POINT('Ctrl Pts',(-30.1431038004672,23.5124715894347,45.0866973011298));
#301=CARTESIAN_POINT('Ctrl Pts',(-28.5976162942594,25.3546311102742,44.0618260535692));
#302=CARTESIAN_POINT('Ctrl Pts',(-25.3195204843562,28.6327269201774,42.0074883958627));
#303=CARTESIAN_POINT('Ctrl Pts',(-23.4572499301604,30.1859231086204,40.8966814357865));
#304=CARTESIAN_POINT('Ctrl Pts',(-19.4007503447992,32.9399971811588,38.712854347111));
#305=CARTESIAN_POINT('Ctrl Pts',(-17.2067450957437,34.1418461477313,37.64064338193));
#306=CARTESIAN_POINT('Ctrl Pts',(-12.5795723894118,36.1039031234984,35.7629989618275));
#307=CARTESIAN_POINT('Ctrl Pts',(-10.1419010086676,36.8659189514097,34.9587595449619));
#308=CARTESIAN_POINT('Ctrl Pts',(-5.13397791825817,37.8892649692383,33.8469268260795));
#309=CARTESIAN_POINT('Ctrl Pts',(-2.56251174350183,38.15,33.5442618043683));
#310=CARTESIAN_POINT('Ctrl Pts',(2.56251174350182,38.15,33.5442618043683));
#311=CARTESIAN_POINT('Ctrl Pts',(5.13397791825815,37.8892649692383,33.8469268260795));
#312=CARTESIAN_POINT('Ctrl Pts',(10.1419010086676,36.8659189514097,34.9587595449619));
#313=CARTESIAN_POINT('Ctrl Pts',(12.5795723894118,36.1039031234984,35.7629989618275));
#314=CARTESIAN_POINT('Ctrl Pts',(17.2067450957437,34.1418461477313,37.64064338193));
#315=CARTESIAN_POINT('Ctrl Pts',(19.4007503447991,32.9399971811589,38.712854347111));
#316=CARTESIAN_POINT('Ctrl Pts',(23.4572499301604,30.1859231086205,40.8966814357865));
#317=CARTESIAN_POINT('Ctrl Pts',(25.3195204843561,28.6327269201774,42.0074883958627));
#318=CARTESIAN_POINT('Ctrl Pts',(28.5976162942594,25.3546311102742,44.0618260535692));
#319=CARTESIAN_POINT('Ctrl Pts',(30.1431038004671,23.5124715894347,45.0866973011298));
#320=CARTESIAN_POINT('Ctrl Pts',(32.906772507713,19.4573212599984,46.9793491138044));
#321=CARTESIAN_POINT('Ctrl Pts',(34.125058439744,17.2440083922484,47.8462866044529));
#322=CARTESIAN_POINT('Ctrl Pts',(36.1100861674361,12.5673059365203,49.2816987447317));
#323=CARTESIAN_POINT('Ctrl Pts',(36.8785034482959,10.0986426027239,49.8510328991117));
#324=CARTESIAN_POINT('Ctrl Pts',(37.89868270306,5.06916644425046,50.6103903872151));
#325=CARTESIAN_POINT('Ctrl Pts',(38.15,2.50820097658806,50.8));
#326=CARTESIAN_POINT('Ctrl Pts',(38.15,-2.50820097658804,50.8));
#327=CARTESIAN_POINT('Ctrl Pts',(37.89868270306,-5.06916644425044,50.6103903872151));
#328=CARTESIAN_POINT('Ctrl Pts',(36.8785034482959,-10.0986426027238,49.8510328991117));
#329=CARTESIAN_POINT('Ctrl Pts',(36.1100861674361,-12.5673059365203,49.2816987447317));
#330=CARTESIAN_POINT('Ctrl Pts',(34.125058439744,-17.2440083922484,47.8462866044529));
#331=CARTESIAN_POINT('Ctrl Pts',(32.906772507713,-19.4573212599984,46.9793491138044));
#332=CARTESIAN_POINT('Ctrl Pts',(30.1431038004672,-23.5124715894347,45.0866973011298));
#333=CARTESIAN_POINT('Ctrl Pts',(28.5976162942594,-25.3546311102742,44.0618260535692));
#334=CARTESIAN_POINT('Ctrl Pts',(25.3195204843562,-28.6327269201774,42.0074883958627));
#335=CARTESIAN_POINT('Ctrl Pts',(23.4572499301604,-30.1859231086204,40.8966814357865));
#336=CARTESIAN_POINT('Ctrl Pts',(19.4007503447992,-32.9399971811588,38.712854347111));
#337=CARTESIAN_POINT('Ctrl Pts',(17.2067450957438,-34.1418461477313,37.64064338193));
#338=CARTESIAN_POINT('Ctrl Pts',(12.5795723894118,-36.1039031234984,35.7629989618275));
#339=CARTESIAN_POINT('Ctrl Pts',(10.1419010086677,-36.8659189514097,34.9587595449619));
#340=CARTESIAN_POINT('Ctrl Pts',(5.13397791825818,-37.8892649692383,33.8469268260795));
#341=CARTESIAN_POINT('Ctrl Pts',(2.56251174350184,-38.15,33.5442618043683));
#342=CARTESIAN_POINT('Ctrl Pts',(0.,-38.15,33.5442618043683));
#343=CARTESIAN_POINT('Origin',(0.,0.,133.4));
#344=CARTESIAN_POINT('Origin',(-133.4,0.,0.));
#345=CARTESIAN_POINT('',(-133.4,-50.8,-6.22120573966855E-15));
#346=CARTESIAN_POINT('Origin',(-133.4,0.,0.));
#347=CARTESIAN_POINT('Origin',(0.,0.,0.));
#348=CARTESIAN_POINT('',(133.4,-50.8,-6.22120573966855E-15));
#349=CARTESIAN_POINT('Origin',(133.4,0.,0.));
#350=CARTESIAN_POINT('',(0.,-50.8,-6.22120573966855E-15));
#351=CARTESIAN_POINT('Origin',(133.4,0.,0.));
#352=UNCERTAINTY_MEASURE_WITH_UNIT(LENGTH_MEASURE(0.01),#356,
'DISTANCE_ACCURACY_VALUE',
'Maximum model space distance between geometric entities at asserted c
onnectivities');
#353=UNCERTAINTY_MEASURE_WITH_UNIT(LENGTH_MEASURE(0.01),#356,
'DISTANCE_ACCURACY_VALUE',
'Maximum model space distance between geometric entities at asserted c
onnectivities');
#354=(
GEOMETRIC_REPRESENTATION_CONTEXT(3)
GLOBAL_UNCERTAINTY_ASSIGNED_CONTEXT((#352))
GLOBAL_UNIT_ASSIGNED_CONTEXT((#356,#358,#359))
REPRESENTATION_CONTEXT('','3D')
);
#355=(
GEOMETRIC_REPRESENTATION_CONTEXT(3)
GLOBAL_UNCERTAINTY_ASSIGNED_CONTEXT((#353))
GLOBAL_UNIT_ASSIGNED_CONTEXT((#356,#358,#359))
REPRESENTATION_CONTEXT('','3D')
);
#356=(
LENGTH_UNIT()
NAMED_UNIT(*)
SI_UNIT(.MILLI.,.METRE.)
);
#357=(
LENGTH_UNIT()
NAMED_UNIT(*)
SI_UNIT(.CENTI.,.METRE.)
);
#358=(
NAMED_UNIT(*)
PLANE_ANGLE_UNIT()
SI_UNIT($,.RADIAN.)
);
#359=(
NAMED_UNIT(*)
SI_UNIT($,.STERADIAN.)
SOLID_ANGLE_UNIT()
);
#360=SHAPE_DEFINITION_REPRESENTATION(#361,#362);
#361=PRODUCT_DEFINITION_SHAPE('',$,#364);
#362=SHAPE_REPRESENTATION('',(#142),#354);
#363=PRODUCT_DEFINITION_CONTEXT('part definition',#368,'design');
#364=PRODUCT_DEFINITION('D8(R) 40\X\D730','D8(R) 40\X\D730',#365,#363);
#365=PRODUCT_DEFINITION_FORMATION('',$,#370);
#366=PRODUCT_RELATED_PRODUCT_CATEGORY('D8(R) 40\X\D730','D8(R) 40\X\D7
30',(#370));
#367=APPLICATION_PROTOCOL_DEFINITION('international standard',
'automotive_design',2009,#368);
#368=APPLICATION_CONTEXT(
'Core Data for Automotive Mechanical Design Process');
#369=PRODUCT_CONTEXT('part definition',#368,'mechanical');
#370=PRODUCT('D8(R) 40\X\D730','D8(R) 40\X\D730',$,(#369));
#371=PRESENTATION_STYLE_ASSIGNMENT((#372));
#372=SURFACE_STYLE_USAGE(.BOTH.,#375);
#373=SURFACE_STYLE_RENDERING_WITH_PROPERTIES($,#379,(#374));
#374=SURFACE_STYLE_TRANSPARENT(0.);
#375=SURFACE_SIDE_STYLE('',(#376,#373));
#376=SURFACE_STYLE_FILL_AREA(#377);
#377=FILL_AREA_STYLE('',(#378));
#378=FILL_AREA_STYLE_COLOUR('',#379);
#379=COLOUR_RGB('',0.749019607843137,0.749019607843137,0.749019607843137);
ENDSEC;
END-ISO-10303-21;
