ISO-10303-21;
HEADER;
/* Generated by software containing ST-Developer
 * from STEP Tools, Inc. (www.steptools.com) 
 */

FILE_DESCRIPTION(
/* description */ (''),
/* implementation_level */ '2;1');

FILE_NAME(
/* name */ 
'\\\\Tske00\\w\\Work\\TOSTE\\\X2\7D99624B\X0\\\02_\X2\6EB663A5\X0\\\\X2\6EB663A5752830C130FC30BA\X0\\\
D8(R)\\D8(R) 35\X\D730.stp',
/* time_stamp */ '2022-04-12T17:38:53+09:00',
/* author */ ('3dcad-eng'),
/* organization */ (''),
/* preprocessor_version */ 'ST-DEVELOPER v18.1',
/* originating_system */ 'Autodesk Inventor 2022',
/* authorisation */ '');

FILE_SCHEMA (('AUTOMOTIVE_DESIGN { 1 0 10303 214 3 1 1 }'));
ENDSEC;

DATA;
#10=MECHANICAL_DESIGN_GEOMETRIC_PRESENTATION_REPRESENTATION('',(#13),#355);
#11=SHAPE_REPRESENTATION_RELATIONSHIP('SRR','None',#362,#12);
#12=ADVANCED_BREP_SHAPE_REPRESENTATION('',(#14),#354);
#13=STYLED_ITEM('',(#371),#14);
#14=MANIFOLD_SOLID_BREP('\X2\30BD30EA30C330C9\X0\1',#123);
#15=PLANE('',#150);
#16=PLANE('',#151);
#17=PLANE('',#155);
#18=FACE_BOUND('',#32,.T.);
#19=FACE_BOUND('',#35,.T.);
#20=FACE_BOUND('',#37,.T.);
#21=FACE_BOUND('',#39,.T.);
#22=FACE_BOUND('',#41,.T.);
#23=FACE_OUTER_BOUND('',#30,.T.);
#24=FACE_OUTER_BOUND('',#31,.T.);
#25=FACE_OUTER_BOUND('',#33,.T.);
#26=FACE_OUTER_BOUND('',#34,.T.);
#27=FACE_OUTER_BOUND('',#36,.T.);
#28=FACE_OUTER_BOUND('',#38,.T.);
#29=FACE_OUTER_BOUND('',#40,.T.);
#30=EDGE_LOOP('',(#84,#85,#86,#87,#88));
#31=EDGE_LOOP('',(#89,#90,#91,#92));
#32=EDGE_LOOP('',(#93,#94));
#33=EDGE_LOOP('',(#95,#96,#97,#98,#99));
#34=EDGE_LOOP('',(#100));
#35=EDGE_LOOP('',(#101));
#36=EDGE_LOOP('',(#102));
#37=EDGE_LOOP('',(#103));
#38=EDGE_LOOP('',(#104,#105,#106,#107));
#39=EDGE_LOOP('',(#108,#109));
#40=EDGE_LOOP('',(#110));
#41=EDGE_LOOP('',(#111));
#42=CIRCLE('',#144,36.15);
#43=CIRCLE('',#146,42.55);
#44=CIRCLE('',#147,42.55);
#45=CIRCLE('',#149,38.15);
#46=CIRCLE('',#152,44.55);
#47=CIRCLE('',#154,44.55);
#48=LINE('',#261,#52);
#49=LINE('',#267,#53);
#50=LINE('',#273,#54);
#51=LINE('',#350,#55);
#52=VECTOR('',#160,36.15);
#53=VECTOR('',#167,42.55);
#54=VECTOR('',#174,38.15);
#55=VECTOR('',#185,44.55);
#56=B_SPLINE_CURVE_WITH_KNOTS('',3,(#192,#193,#194,#195,#196,#197,#198,
#199,#200,#201,#202,#203,#204,#205,#206,#207,#208,#209,#210,#211,#212,#213,
#214,#215,#216,#217,#218,#219,#220,#221,#222,#223,#224,#225,#226,#227,#228,
#229,#230,#231,#232,#233,#234,#235,#236,#237,#238,#239,#240,#241),
 .UNSPECIFIED.,.F.,.F.,(4,2,2,2,2,2,2,2,2,2,2,2,2,2,2,2,2,2,2,2,2,2,2,2,
4),(0.,0.759579926612785,1.51915985322557,2.27873977983835,3.03831970645114,
3.76261286863582,4.48690603082049,5.21119919300517,5.93549235518985,6.65978551737452,
7.3840786795592,8.10837184174387,8.83266500392855,9.59224493054134,10.3518248571541,
11.1114047837669,11.8709847103797,12.6305646369925,13.3901445636053,14.149724490218,
14.9093044168308,15.6335975790155,16.3578907412002,17.0821839033849,17.8064770655695),
 .UNSPECIFIED.);
#57=B_SPLINE_CURVE_WITH_KNOTS('',3,(#242,#243,#244,#245,#246,#247,#248,
#249,#250,#251,#252,#253,#254,#255,#256,#257,#258,#259),.UNSPECIFIED.,.F.,
 .F.,(4,2,2,2,2,2,2,2,4),(17.8064770655695,18.5307702277542,19.2550633899389,
19.9793565521236,20.7036497143082,21.463229640921,22.2228095675338,22.9823894941466,
23.7419694207594),.UNSPECIFIED.);
#58=B_SPLINE_CURVE_WITH_KNOTS('',3,(#275,#276,#277,#278,#279,#280,#281,
#282,#283,#284,#285,#286,#287,#288,#289,#290,#291,#292),.UNSPECIFIED.,.F.,
 .F.,(4,2,2,2,2,2,2,2,4),(0.,0.804850611014242,1.60970122202848,2.41455183304273,
3.21940244405697,3.98469267702363,4.7499829099903,5.51527314295697,6.28056337592363),
 .UNSPECIFIED.);
#59=B_SPLINE_CURVE_WITH_KNOTS('',3,(#293,#294,#295,#296,#297,#298,#299,
#300,#301,#302,#303,#304,#305,#306,#307,#308,#309,#310,#311,#312,#313,#314,
#315,#316,#317,#318,#319,#320,#321,#322,#323,#324,#325,#326,#327,#328,#329,
#330,#331,#332,#333,#334,#335,#336,#337,#338,#339,#340,#341,#342),
 .UNSPECIFIED.,.F.,.F.,(4,2,2,2,2,2,2,2,2,2,2,2,2,2,2,2,2,2,2,2,2,2,2,2,
4),(6.28056337592363,7.0458536088903,7.81114384185696,8.57643407482363,
9.34172430779029,10.1465749188045,10.9514255298188,11.756276140833,12.5611267518473,
13.3659773628615,14.1708279738757,14.97567858489,15.7805291959042,16.5458194288709,
17.3111096618376,18.0763998948042,18.8416901277709,19.6069803607376,20.3722705937042,
21.1375608266709,21.9028510596376,22.7077016706518,23.512552281666,24.3174028926803,
25.1222535036945),.UNSPECIFIED.);
#60=VERTEX_POINT('',#190);
#61=VERTEX_POINT('',#191);
#62=VERTEX_POINT('',#260);
#63=VERTEX_POINT('',#264);
#64=VERTEX_POINT('',#266);
#65=VERTEX_POINT('',#270);
#66=VERTEX_POINT('',#272);
#67=VERTEX_POINT('',#274);
#68=VERTEX_POINT('',#345);
#69=VERTEX_POINT('',#348);
#70=EDGE_CURVE('',#60,#61,#56,.T.);
#71=EDGE_CURVE('',#61,#60,#57,.T.);
#72=EDGE_CURVE('',#61,#62,#48,.T.);
#73=EDGE_CURVE('',#62,#62,#42,.T.);
#74=EDGE_CURVE('',#63,#63,#43,.T.);
#75=EDGE_CURVE('',#63,#64,#49,.T.);
#76=EDGE_CURVE('',#64,#64,#44,.T.);
#77=EDGE_CURVE('',#65,#65,#45,.T.);
#78=EDGE_CURVE('',#65,#66,#50,.T.);
#79=EDGE_CURVE('',#67,#66,#58,.T.);
#80=EDGE_CURVE('',#66,#67,#59,.T.);
#81=EDGE_CURVE('',#68,#68,#46,.T.);
#82=EDGE_CURVE('',#69,#69,#47,.T.);
#83=EDGE_CURVE('',#69,#68,#51,.T.);
#84=ORIENTED_EDGE('',*,*,#70,.F.);
#85=ORIENTED_EDGE('',*,*,#71,.F.);
#86=ORIENTED_EDGE('',*,*,#72,.T.);
#87=ORIENTED_EDGE('',*,*,#73,.F.);
#88=ORIENTED_EDGE('',*,*,#72,.F.);
#89=ORIENTED_EDGE('',*,*,#74,.F.);
#90=ORIENTED_EDGE('',*,*,#75,.T.);
#91=ORIENTED_EDGE('',*,*,#76,.F.);
#92=ORIENTED_EDGE('',*,*,#75,.F.);
#93=ORIENTED_EDGE('',*,*,#70,.T.);
#94=ORIENTED_EDGE('',*,*,#71,.T.);
#95=ORIENTED_EDGE('',*,*,#77,.F.);
#96=ORIENTED_EDGE('',*,*,#78,.T.);
#97=ORIENTED_EDGE('',*,*,#79,.F.);
#98=ORIENTED_EDGE('',*,*,#80,.F.);
#99=ORIENTED_EDGE('',*,*,#78,.F.);
#100=ORIENTED_EDGE('',*,*,#77,.T.);
#101=ORIENTED_EDGE('',*,*,#73,.T.);
#102=ORIENTED_EDGE('',*,*,#81,.T.);
#103=ORIENTED_EDGE('',*,*,#74,.T.);
#104=ORIENTED_EDGE('',*,*,#82,.F.);
#105=ORIENTED_EDGE('',*,*,#83,.T.);
#106=ORIENTED_EDGE('',*,*,#81,.F.);
#107=ORIENTED_EDGE('',*,*,#83,.F.);
#108=ORIENTED_EDGE('',*,*,#79,.T.);
#109=ORIENTED_EDGE('',*,*,#80,.T.);
#110=ORIENTED_EDGE('',*,*,#82,.T.);
#111=ORIENTED_EDGE('',*,*,#76,.T.);
#112=CYLINDRICAL_SURFACE('',#143,36.15);
#113=CYLINDRICAL_SURFACE('',#145,42.55);
#114=CYLINDRICAL_SURFACE('',#148,38.15);
#115=CYLINDRICAL_SURFACE('',#153,44.55);
#116=ADVANCED_FACE('',(#23),#112,.F.);
#117=ADVANCED_FACE('',(#24,#18),#113,.F.);
#118=ADVANCED_FACE('',(#25),#114,.T.);
#119=ADVANCED_FACE('',(#26,#19),#15,.T.);
#120=ADVANCED_FACE('',(#27,#20),#16,.F.);
#121=ADVANCED_FACE('',(#28,#21),#115,.T.);
#122=ADVANCED_FACE('',(#29,#22),#17,.T.);
#123=CLOSED_SHELL('',(#116,#117,#118,#119,#120,#121,#122));
#124=DERIVED_UNIT_ELEMENT(#126,1.);
#125=DERIVED_UNIT_ELEMENT(#357,-3.);
#126=(
MASS_UNIT()
NAMED_UNIT(*)
SI_UNIT($,.GRAM.)
);
#127=DERIVED_UNIT((#124,#125));
#128=MEASURE_REPRESENTATION_ITEM('density measure',
POSITIVE_RATIO_MEASURE(1.),#127);
#129=PROPERTY_DEFINITION_REPRESENTATION(#134,#131);
#130=PROPERTY_DEFINITION_REPRESENTATION(#135,#132);
#131=REPRESENTATION('material name',(#133),#354);
#132=REPRESENTATION('density',(#128),#354);
#133=DESCRIPTIVE_REPRESENTATION_ITEM('\X2\4E00822C\X0\','\X2\4E00822C\X0\');
#134=PROPERTY_DEFINITION('material property','material name',#364);
#135=PROPERTY_DEFINITION('material property','density of part',#364);
#136=DATE_TIME_ROLE('creation_date');
#137=APPLIED_DATE_AND_TIME_ASSIGNMENT(#138,#136,(#364));
#138=DATE_AND_TIME(#139,#140);
#139=CALENDAR_DATE(2022,31,3);
#140=LOCAL_TIME(0,0,0.,#141);
#141=COORDINATED_UNIVERSAL_TIME_OFFSET(0,0,.BEHIND.);
#142=AXIS2_PLACEMENT_3D('placement',#188,#156,#157);
#143=AXIS2_PLACEMENT_3D('',#189,#158,#159);
#144=AXIS2_PLACEMENT_3D('',#262,#161,#162);
#145=AXIS2_PLACEMENT_3D('',#263,#163,#164);
#146=AXIS2_PLACEMENT_3D('',#265,#165,#166);
#147=AXIS2_PLACEMENT_3D('',#268,#168,#169);
#148=AXIS2_PLACEMENT_3D('',#269,#170,#171);
#149=AXIS2_PLACEMENT_3D('',#271,#172,#173);
#150=AXIS2_PLACEMENT_3D('',#343,#175,#176);
#151=AXIS2_PLACEMENT_3D('',#344,#177,#178);
#152=AXIS2_PLACEMENT_3D('',#346,#179,#180);
#153=AXIS2_PLACEMENT_3D('',#347,#181,#182);
#154=AXIS2_PLACEMENT_3D('',#349,#183,#184);
#155=AXIS2_PLACEMENT_3D('',#351,#186,#187);
#156=DIRECTION('axis',(0.,0.,1.));
#157=DIRECTION('refdir',(1.,0.,0.));
#158=DIRECTION('center_axis',(0.,0.,1.));
#159=DIRECTION('ref_axis',(1.,0.,0.));
#160=DIRECTION('',(0.,0.,1.));
#161=DIRECTION('center_axis',(0.,0.,-1.));
#162=DIRECTION('ref_axis',(1.,0.,0.));
#163=DIRECTION('center_axis',(1.,0.,0.));
#164=DIRECTION('ref_axis',(0.,1.,0.));
#165=DIRECTION('center_axis',(1.,0.,0.));
#166=DIRECTION('ref_axis',(0.,1.,0.));
#167=DIRECTION('',(1.,0.,0.));
#168=DIRECTION('center_axis',(-1.,0.,0.));
#169=DIRECTION('ref_axis',(0.,1.,0.));
#170=DIRECTION('center_axis',(0.,0.,1.));
#171=DIRECTION('ref_axis',(1.,0.,0.));
#172=DIRECTION('center_axis',(0.,0.,1.));
#173=DIRECTION('ref_axis',(1.,0.,0.));
#174=DIRECTION('',(0.,0.,-1.));
#175=DIRECTION('center_axis',(0.,0.,1.));
#176=DIRECTION('ref_axis',(1.,0.,0.));
#177=DIRECTION('center_axis',(1.,0.,0.));
#178=DIRECTION('ref_axis',(0.,0.,-1.));
#179=DIRECTION('center_axis',(-1.,0.,0.));
#180=DIRECTION('ref_axis',(0.,1.,0.));
#181=DIRECTION('center_axis',(1.,0.,0.));
#182=DIRECTION('ref_axis',(0.,1.,0.));
#183=DIRECTION('center_axis',(1.,0.,0.));
#184=DIRECTION('ref_axis',(0.,1.,0.));
#185=DIRECTION('',(-1.,0.,0.));
#186=DIRECTION('center_axis',(1.,0.,0.));
#187=DIRECTION('ref_axis',(0.,0.,-1.));
#188=CARTESIAN_POINT('',(0.,0.,0.));
#189=CARTESIAN_POINT('Origin',(0.,0.,0.));
#190=CARTESIAN_POINT('',(0.,-36.15,22.4428162225689));
#191=CARTESIAN_POINT('',(-36.15,2.84452715947762E-16,42.55));
#192=CARTESIAN_POINT('Ctrl Pts',(0.,-36.15,22.4428162225689));
#193=CARTESIAN_POINT('Ctrl Pts',(2.53193308870928,-36.15,22.4428162225689));
#194=CARTESIAN_POINT('Ctrl Pts',(4.99325292530937,-35.885044701745,22.8812741876976));
#195=CARTESIAN_POINT('Ctrl Pts',(9.72785987890582,-34.9003975714058,24.3567524666243));
#196=CARTESIAN_POINT('Ctrl Pts',(12.0036494289744,-34.1800698528352,25.38530518542));
#197=CARTESIAN_POINT('Ctrl Pts',(16.3353106028059,-32.33454015367,27.6978056473357));
#198=CARTESIAN_POINT('Ctrl Pts',(18.3913652134011,-31.2076655847769,28.981246538295));
#199=CARTESIAN_POINT('Ctrl Pts',(22.214646991278,-28.6124127571431,31.5461706143189));
#200=CARTESIAN_POINT('Ctrl Pts',(23.9809030945455,-27.1429171852419,32.827970521544));
#201=CARTESIAN_POINT('Ctrl Pts',(27.0694705060792,-24.0543497737082,35.1489247928431));
#202=CARTESIAN_POINT('Ctrl Pts',(28.5183709674651,-22.3347893120938,36.2817202062815));
#203=CARTESIAN_POINT('Ctrl Pts',(31.1251709916791,-18.5300843885283,38.3645931483123));
#204=CARTESIAN_POINT('Ctrl Pts',(32.2830598816866,-16.4445926339597,39.314049587343));
#205=CARTESIAN_POINT('Ctrl Pts',(34.1789089031776,-12.0176051947382,40.8851604758505));
#206=CARTESIAN_POINT('Ctrl Pts',(34.9185475457154,-9.67079258799744,41.5080154471188));
#207=CARTESIAN_POINT('Ctrl Pts',(35.9043147744713,-4.86922710854625,42.3406448118509));
#208=CARTESIAN_POINT('Ctrl Pts',(36.15,-2.41431054061559,42.55));
#209=CARTESIAN_POINT('Ctrl Pts',(36.15,2.41431054061559,42.55));
#210=CARTESIAN_POINT('Ctrl Pts',(35.9043147744713,4.86922710854625,42.3406448118509));
#211=CARTESIAN_POINT('Ctrl Pts',(34.9185475457154,9.67079258799745,41.5080154471188));
#212=CARTESIAN_POINT('Ctrl Pts',(34.1789089031776,12.0176051947382,40.8851604758505));
#213=CARTESIAN_POINT('Ctrl Pts',(32.2830598816866,16.4445926339597,39.314049587343));
#214=CARTESIAN_POINT('Ctrl Pts',(31.1251709916791,18.5300843885283,38.3645931483123));
#215=CARTESIAN_POINT('Ctrl Pts',(28.5183709674651,22.3347893120938,36.2817202062815));
#216=CARTESIAN_POINT('Ctrl Pts',(27.0694705060792,24.0543497737082,35.1489247928431));
#217=CARTESIAN_POINT('Ctrl Pts',(23.9809030945455,27.1429171852419,32.827970521544));
#218=CARTESIAN_POINT('Ctrl Pts',(22.214646991278,28.6124127571431,31.5461706143189));
#219=CARTESIAN_POINT('Ctrl Pts',(18.3913652134011,31.2076655847769,28.981246538295));
#220=CARTESIAN_POINT('Ctrl Pts',(16.3353106028059,32.33454015367,27.6978056473357));
#221=CARTESIAN_POINT('Ctrl Pts',(12.0036494289744,34.1800698528352,25.38530518542));
#222=CARTESIAN_POINT('Ctrl Pts',(9.72785987890583,34.9003975714058,24.3567524666243));
#223=CARTESIAN_POINT('Ctrl Pts',(4.99325292530937,35.885044701745,22.8812741876976));
#224=CARTESIAN_POINT('Ctrl Pts',(2.53193308870928,36.15,22.4428162225689));
#225=CARTESIAN_POINT('Ctrl Pts',(-2.53193308870928,36.15,22.4428162225689));
#226=CARTESIAN_POINT('Ctrl Pts',(-4.99325292530937,35.885044701745,22.8812741876976));
#227=CARTESIAN_POINT('Ctrl Pts',(-9.72785987890583,34.9003975714058,24.3567524666243));
#228=CARTESIAN_POINT('Ctrl Pts',(-12.0036494289744,34.1800698528352,25.38530518542));
#229=CARTESIAN_POINT('Ctrl Pts',(-16.3353106028059,32.33454015367,27.6978056473357));
#230=CARTESIAN_POINT('Ctrl Pts',(-18.3913652134011,31.2076655847769,28.981246538295));
#231=CARTESIAN_POINT('Ctrl Pts',(-22.214646991278,28.6124127571431,31.5461706143189));
#232=CARTESIAN_POINT('Ctrl Pts',(-23.9809030945455,27.1429171852419,32.827970521544));
#233=CARTESIAN_POINT('Ctrl Pts',(-27.0694705060792,24.0543497737082,35.1489247928431));
#234=CARTESIAN_POINT('Ctrl Pts',(-28.5183709674651,22.3347893120938,36.2817202062815));
#235=CARTESIAN_POINT('Ctrl Pts',(-31.1251709916791,18.5300843885283,38.3645931483123));
#236=CARTESIAN_POINT('Ctrl Pts',(-32.2830598816866,16.4445926339597,39.3140495873429));
#237=CARTESIAN_POINT('Ctrl Pts',(-34.1789089031776,12.0176051947382,40.8851604758505));
#238=CARTESIAN_POINT('Ctrl Pts',(-34.9185475457154,9.67079258799747,41.5080154471188));
#239=CARTESIAN_POINT('Ctrl Pts',(-35.9043147744713,4.86922710854627,42.3406448118509));
#240=CARTESIAN_POINT('Ctrl Pts',(-36.15,2.4143105406156,42.55));
#241=CARTESIAN_POINT('Ctrl Pts',(-36.15,4.9960036108132E-15,42.55));
#242=CARTESIAN_POINT('Ctrl Pts',(-36.15,4.9960036108132E-15,42.55));
#243=CARTESIAN_POINT('Ctrl Pts',(-36.15,-2.41431054061558,42.55));
#244=CARTESIAN_POINT('Ctrl Pts',(-35.9043147744713,-4.86922710854624,42.3406448118509));
#245=CARTESIAN_POINT('Ctrl Pts',(-34.9185475457154,-9.67079258799743,41.5080154471188));
#246=CARTESIAN_POINT('Ctrl Pts',(-34.1789089031776,-12.0176051947382,40.8851604758505));
#247=CARTESIAN_POINT('Ctrl Pts',(-32.2830598816866,-16.4445926339597,39.314049587343));
#248=CARTESIAN_POINT('Ctrl Pts',(-31.1251709916791,-18.5300843885283,38.3645931483123));
#249=CARTESIAN_POINT('Ctrl Pts',(-28.5183709674651,-22.3347893120938,36.2817202062815));
#250=CARTESIAN_POINT('Ctrl Pts',(-27.0694705060792,-24.0543497737082,35.1489247928431));
#251=CARTESIAN_POINT('Ctrl Pts',(-23.9809030945455,-27.1429171852419,32.827970521544));
#252=CARTESIAN_POINT('Ctrl Pts',(-22.214646991278,-28.6124127571431,31.546170614319));
#253=CARTESIAN_POINT('Ctrl Pts',(-18.3913652134011,-31.2076655847769,28.981246538295));
#254=CARTESIAN_POINT('Ctrl Pts',(-16.3353106028059,-32.33454015367,27.6978056473357));
#255=CARTESIAN_POINT('Ctrl Pts',(-12.0036494289744,-34.1800698528352,25.38530518542));
#256=CARTESIAN_POINT('Ctrl Pts',(-9.72785987890581,-34.9003975714058,24.3567524666243));
#257=CARTESIAN_POINT('Ctrl Pts',(-4.99325292530936,-35.885044701745,22.8812741876976));
#258=CARTESIAN_POINT('Ctrl Pts',(-2.53193308870927,-36.15,22.4428162225689));
#259=CARTESIAN_POINT('Ctrl Pts',(1.11022302462516E-14,-36.15,22.4428162225689));
#260=CARTESIAN_POINT('',(-36.15,4.42709817891768E-15,100.));
#261=CARTESIAN_POINT('',(-36.15,-4.42709817891768E-15,0.));
#262=CARTESIAN_POINT('Origin',(0.,0.,100.));
#263=CARTESIAN_POINT('Origin',(0.,0.,0.));
#264=CARTESIAN_POINT('',(-100.,-42.55,-5.21087213037199E-15));
#265=CARTESIAN_POINT('Origin',(-100.,0.,0.));
#266=CARTESIAN_POINT('',(100.,-42.55,5.21087213037199E-15));
#267=CARTESIAN_POINT('',(0.,-42.55,-5.21087213037199E-15));
#268=CARTESIAN_POINT('Origin',(100.,0.,0.));
#269=CARTESIAN_POINT('Origin',(0.,0.,0.));
#270=CARTESIAN_POINT('',(-38.15,-4.67202753874715E-15,100.));
#271=CARTESIAN_POINT('Origin',(0.,0.,100.));
#272=CARTESIAN_POINT('',(-38.15,-4.2789040624676E-15,44.55));
#273=CARTESIAN_POINT('',(-38.15,-4.67202753874715E-15,0.));
#274=CARTESIAN_POINT('',(2.77555756156289E-16,-38.15,23.0060861512775));
#275=CARTESIAN_POINT('Ctrl Pts',(2.77555756156289E-16,-38.15,23.0060861512775));
#276=CARTESIAN_POINT('Ctrl Pts',(-2.68283537004747,-38.15,23.0060861512775));
#277=CARTESIAN_POINT('Ctrl Pts',(-5.28114462490007,-37.8686517055373,23.4856817487052));
#278=CARTESIAN_POINT('Ctrl Pts',(-10.2741381086921,-36.828892960121,25.0847498009732));
#279=CARTESIAN_POINT('Ctrl Pts',(-12.6715425539371,-36.0695587529846,26.1951136310591));
#280=CARTESIAN_POINT('Ctrl Pts',(-17.2376435818473,-34.1239636311819,28.6836565383198));
#281=CARTESIAN_POINT('Ctrl Pts',(-19.4058366115868,-32.9359906139616,30.0613880429689));
#282=CARTESIAN_POINT('Ctrl Pts',(-23.4403258350828,-30.1979650960491,32.8108127806574));
#283=CARTESIAN_POINT('Ctrl Pts',(-25.3055172331471,-28.6467301713865,34.1829494066251));
#284=CARTESIAN_POINT('Ctrl Pts',(-28.5646157732824,-25.3876316312512,36.6627165931904));
#285=CARTESIAN_POINT('Ctrl Pts',(-30.0923830335307,-23.5751114935335,37.8704757201848));
#286=CARTESIAN_POINT('Ctrl Pts',(-32.842432577363,-19.5630268995731,40.09048256008));
#287=CARTESIAN_POINT('Ctrl Pts',(-34.0646939898214,-17.3630942719336,41.1020906918782));
#288=CARTESIAN_POINT('Ctrl Pts',(-36.0666938211762,-12.6914967867328,42.7759848481372));
#289=CARTESIAN_POINT('Ctrl Pts',(-36.848211686212,-10.2141986143751,43.4395685539682));
#290=CARTESIAN_POINT('Ctrl Pts',(-37.8900990617834,-5.14402089623453,44.3267979736711));
#291=CARTESIAN_POINT('Ctrl Pts',(-38.15,-2.55096744322222,44.55));
#292=CARTESIAN_POINT('Ctrl Pts',(-38.15,-3.33066907387547E-15,44.55));
#293=CARTESIAN_POINT('Ctrl Pts',(-38.15,-3.88578058618805E-15,44.55));
#294=CARTESIAN_POINT('Ctrl Pts',(-38.15,2.55096744322222,44.55));
#295=CARTESIAN_POINT('Ctrl Pts',(-37.8900990617834,5.14402089623452,44.3267979736711));
#296=CARTESIAN_POINT('Ctrl Pts',(-36.848211686212,10.2141986143751,43.4395685539682));
#297=CARTESIAN_POINT('Ctrl Pts',(-36.0666938211763,12.6914967867328,42.7759848481372));
#298=CARTESIAN_POINT('Ctrl Pts',(-34.0646939898214,17.3630942719336,41.1020906918782));
#299=CARTESIAN_POINT('Ctrl Pts',(-32.842432577363,19.5630268995731,40.09048256008));
#300=CARTESIAN_POINT('Ctrl Pts',(-30.0923830335307,23.5751114935334,37.8704757201848));
#301=CARTESIAN_POINT('Ctrl Pts',(-28.5646157732824,25.3876316312512,36.6627165931904));
#302=CARTESIAN_POINT('Ctrl Pts',(-25.3055172331471,28.6467301713865,34.1829494066251));
#303=CARTESIAN_POINT('Ctrl Pts',(-23.4403258350828,30.1979650960491,32.8108127806574));
#304=CARTESIAN_POINT('Ctrl Pts',(-19.4058366115869,32.9359906139616,30.061388042969));
#305=CARTESIAN_POINT('Ctrl Pts',(-17.2376435818473,34.1239636311819,28.6836565383198));
#306=CARTESIAN_POINT('Ctrl Pts',(-12.6715425539371,36.0695587529846,26.1951136310592));
#307=CARTESIAN_POINT('Ctrl Pts',(-10.2741381086921,36.828892960121,25.0847498009732));
#308=CARTESIAN_POINT('Ctrl Pts',(-5.28114462490009,37.8686517055373,23.4856817487052));
#309=CARTESIAN_POINT('Ctrl Pts',(-2.68283537004748,38.15,23.0060861512775));
#310=CARTESIAN_POINT('Ctrl Pts',(2.68283537004747,38.15,23.0060861512775));
#311=CARTESIAN_POINT('Ctrl Pts',(5.28114462490006,37.8686517055373,23.4856817487052));
#312=CARTESIAN_POINT('Ctrl Pts',(10.2741381086921,36.828892960121,25.0847498009732));
#313=CARTESIAN_POINT('Ctrl Pts',(12.6715425539371,36.0695587529846,26.1951136310591));
#314=CARTESIAN_POINT('Ctrl Pts',(17.2376435818473,34.1239636311819,28.6836565383198));
#315=CARTESIAN_POINT('Ctrl Pts',(19.4058366115868,32.9359906139616,30.0613880429689));
#316=CARTESIAN_POINT('Ctrl Pts',(23.4403258350828,30.1979650960491,32.8108127806574));
#317=CARTESIAN_POINT('Ctrl Pts',(25.3055172331471,28.6467301713865,34.1829494066251));
#318=CARTESIAN_POINT('Ctrl Pts',(28.5646157732824,25.3876316312512,36.6627165931903));
#319=CARTESIAN_POINT('Ctrl Pts',(30.0923830335307,23.5751114935335,37.8704757201848));
#320=CARTESIAN_POINT('Ctrl Pts',(32.842432577363,19.5630268995731,40.0904825600799));
#321=CARTESIAN_POINT('Ctrl Pts',(34.0646939898214,17.3630942719336,41.1020906918781));
#322=CARTESIAN_POINT('Ctrl Pts',(36.0666938211762,12.6914967867328,42.7759848481372));
#323=CARTESIAN_POINT('Ctrl Pts',(36.848211686212,10.2141986143751,43.4395685539682));
#324=CARTESIAN_POINT('Ctrl Pts',(37.8900990617834,5.14402089623454,44.3267979736711));
#325=CARTESIAN_POINT('Ctrl Pts',(38.15,2.55096744322223,44.55));
#326=CARTESIAN_POINT('Ctrl Pts',(38.15,-2.55096744322221,44.55));
#327=CARTESIAN_POINT('Ctrl Pts',(37.8900990617834,-5.14402089623452,44.3267979736711));
#328=CARTESIAN_POINT('Ctrl Pts',(36.848211686212,-10.2141986143751,43.4395685539682));
#329=CARTESIAN_POINT('Ctrl Pts',(36.0666938211763,-12.6914967867328,42.7759848481372));
#330=CARTESIAN_POINT('Ctrl Pts',(34.0646939898214,-17.3630942719335,41.1020906918782));
#331=CARTESIAN_POINT('Ctrl Pts',(32.842432577363,-19.5630268995731,40.09048256008));
#332=CARTESIAN_POINT('Ctrl Pts',(30.0923830335307,-23.5751114935335,37.8704757201849));
#333=CARTESIAN_POINT('Ctrl Pts',(28.5646157732824,-25.3876316312512,36.6627165931904));
#334=CARTESIAN_POINT('Ctrl Pts',(25.3055172331471,-28.6467301713864,34.1829494066251));
#335=CARTESIAN_POINT('Ctrl Pts',(23.4403258350828,-30.1979650960491,32.8108127806574));
#336=CARTESIAN_POINT('Ctrl Pts',(19.4058366115869,-32.9359906139616,30.0613880429689));
#337=CARTESIAN_POINT('Ctrl Pts',(17.2376435818473,-34.1239636311819,28.6836565383198));
#338=CARTESIAN_POINT('Ctrl Pts',(12.6715425539371,-36.0695587529846,26.1951136310591));
#339=CARTESIAN_POINT('Ctrl Pts',(10.2741381086921,-36.828892960121,25.0847498009732));
#340=CARTESIAN_POINT('Ctrl Pts',(5.28114462490007,-37.8686517055373,23.4856817487052));
#341=CARTESIAN_POINT('Ctrl Pts',(2.68283537004747,-38.15,23.0060861512775));
#342=CARTESIAN_POINT('Ctrl Pts',(-7.49400541621981E-15,-38.15,23.0060861512775));
#343=CARTESIAN_POINT('Origin',(0.,0.,100.));
#344=CARTESIAN_POINT('Origin',(-100.,0.,0.));
#345=CARTESIAN_POINT('',(-100.,-44.55,-5.45580149020146E-15));
#346=CARTESIAN_POINT('Origin',(-100.,0.,0.));
#347=CARTESIAN_POINT('Origin',(0.,0.,0.));
#348=CARTESIAN_POINT('',(100.,-44.55,-5.45580149020146E-15));
#349=CARTESIAN_POINT('Origin',(100.,0.,0.));
#350=CARTESIAN_POINT('',(0.,-44.55,-5.45580149020146E-15));
#351=CARTESIAN_POINT('Origin',(100.,0.,0.));
#352=UNCERTAINTY_MEASURE_WITH_UNIT(LENGTH_MEASURE(0.01),#356,
'DISTANCE_ACCURACY_VALUE',
'Maximum model space distance between geometric entities at asserted c
onnectivities');
#353=UNCERTAINTY_MEASURE_WITH_UNIT(LENGTH_MEASURE(0.01),#356,
'DISTANCE_ACCURACY_VALUE',
'Maximum model space distance between geometric entities at asserted c
onnectivities');
#354=(
GEOMETRIC_REPRESENTATION_CONTEXT(3)
GLOBAL_UNCERTAINTY_ASSIGNED_CONTEXT((#352))
GLOBAL_UNIT_ASSIGNED_CONTEXT((#356,#358,#359))
REPRESENTATION_CONTEXT('','3D')
);
#355=(
GEOMETRIC_REPRESENTATION_CONTEXT(3)
GLOBAL_UNCERTAINTY_ASSIGNED_CONTEXT((#353))
GLOBAL_UNIT_ASSIGNED_CONTEXT((#356,#358,#359))
REPRESENTATION_CONTEXT('','3D')
);
#356=(
LENGTH_UNIT()
NAMED_UNIT(*)
SI_UNIT(.MILLI.,.METRE.)
);
#357=(
LENGTH_UNIT()
NAMED_UNIT(*)
SI_UNIT(.CENTI.,.METRE.)
);
#358=(
NAMED_UNIT(*)
PLANE_ANGLE_UNIT()
SI_UNIT($,.RADIAN.)
);
#359=(
NAMED_UNIT(*)
SI_UNIT($,.STERADIAN.)
SOLID_ANGLE_UNIT()
);
#360=SHAPE_DEFINITION_REPRESENTATION(#361,#362);
#361=PRODUCT_DEFINITION_SHAPE('',$,#364);
#362=SHAPE_REPRESENTATION('',(#142),#354);
#363=PRODUCT_DEFINITION_CONTEXT('part definition',#368,'design');
#364=PRODUCT_DEFINITION('D8(R) 35\X\D730','D8(R) 35\X\D730',#365,#363);
#365=PRODUCT_DEFINITION_FORMATION('',$,#370);
#366=PRODUCT_RELATED_PRODUCT_CATEGORY('D8(R) 35\X\D730','D8(R) 35\X\D7
30',(#370));
#367=APPLICATION_PROTOCOL_DEFINITION('international standard',
'automotive_design',2009,#368);
#368=APPLICATION_CONTEXT(
'Core Data for Automotive Mechanical Design Process');
#369=PRODUCT_CONTEXT('part definition',#368,'mechanical');
#370=PRODUCT('D8(R) 35\X\D730','D8(R) 35\X\D730',$,(#369));
#371=PRESENTATION_STYLE_ASSIGNMENT((#372));
#372=SURFACE_STYLE_USAGE(.BOTH.,#375);
#373=SURFACE_STYLE_RENDERING_WITH_PROPERTIES($,#379,(#374));
#374=SURFACE_STYLE_TRANSPARENT(0.);
#375=SURFACE_SIDE_STYLE('',(#376,#373));
#376=SURFACE_STYLE_FILL_AREA(#377);
#377=FILL_AREA_STYLE('',(#378));
#378=FILL_AREA_STYLE_COLOUR('',#379);
#379=COLOUR_RGB('',0.749019607843137,0.749019607843137,0.749019607843137);
ENDSEC;
END-ISO-10303-21;
