ISO-10303-21;
HEADER;
/* Generated by software containing ST-Developer
 * from STEP Tools, Inc. (www.steptools.com) 
 */

FILE_DESCRIPTION(
/* description */ (''),
/* implementation_level */ '2;1');

FILE_NAME(
/* name */ 
'\\\\Tske00\\w\\Work\\TOSTE\\\X2\7D99624B\X0\\\02_\X2\6EB663A5\X0\\\\X2\6EB663A5752830C130FC30BA\X0\\\
D8(R)\\D8(R) 35\X\D725.stp',
/* time_stamp */ '2022-04-12T17:38:52+09:00',
/* author */ ('3dcad-eng'),
/* organization */ (''),
/* preprocessor_version */ 'ST-DEVELOPER v18.1',
/* originating_system */ 'Autodesk Inventor 2022',
/* authorisation */ '');

FILE_SCHEMA (('AUTOMOTIVE_DESIGN { 1 0 10303 214 3 1 1 }'));
ENDSEC;

DATA;
#10=MECHANICAL_DESIGN_GEOMETRIC_PRESENTATION_REPRESENTATION('',(#13),#355);
#11=SHAPE_REPRESENTATION_RELATIONSHIP('SRR','None',#362,#12);
#12=ADVANCED_BREP_SHAPE_REPRESENTATION('',(#14),#354);
#13=STYLED_ITEM('',(#371),#14);
#14=MANIFOLD_SOLID_BREP('\X2\30BD30EA30C330C9\X0\1',#123);
#15=PLANE('',#150);
#16=PLANE('',#151);
#17=PLANE('',#155);
#18=FACE_BOUND('',#32,.T.);
#19=FACE_BOUND('',#35,.T.);
#20=FACE_BOUND('',#37,.T.);
#21=FACE_BOUND('',#39,.T.);
#22=FACE_BOUND('',#41,.T.);
#23=FACE_OUTER_BOUND('',#30,.T.);
#24=FACE_OUTER_BOUND('',#31,.T.);
#25=FACE_OUTER_BOUND('',#33,.T.);
#26=FACE_OUTER_BOUND('',#34,.T.);
#27=FACE_OUTER_BOUND('',#36,.T.);
#28=FACE_OUTER_BOUND('',#38,.T.);
#29=FACE_OUTER_BOUND('',#40,.T.);
#30=EDGE_LOOP('',(#84,#85,#86,#87,#88));
#31=EDGE_LOOP('',(#89,#90,#91,#92));
#32=EDGE_LOOP('',(#93,#94));
#33=EDGE_LOOP('',(#95,#96,#97,#98,#99));
#34=EDGE_LOOP('',(#100));
#35=EDGE_LOOP('',(#101));
#36=EDGE_LOOP('',(#102));
#37=EDGE_LOOP('',(#103));
#38=EDGE_LOOP('',(#104,#105,#106,#107));
#39=EDGE_LOOP('',(#108,#109));
#40=EDGE_LOOP('',(#110));
#41=EDGE_LOOP('',(#111));
#42=CIRCLE('',#144,29.75);
#43=CIRCLE('',#146,42.55);
#44=CIRCLE('',#147,42.55);
#45=CIRCLE('',#149,31.75);
#46=CIRCLE('',#152,44.55);
#47=CIRCLE('',#154,44.55);
#48=LINE('',#261,#52);
#49=LINE('',#267,#53);
#50=LINE('',#273,#54);
#51=LINE('',#350,#55);
#52=VECTOR('',#160,29.75);
#53=VECTOR('',#167,42.55);
#54=VECTOR('',#174,31.75);
#55=VECTOR('',#185,44.55);
#56=B_SPLINE_CURVE_WITH_KNOTS('',3,(#192,#193,#194,#195,#196,#197,#198,
#199,#200,#201,#202,#203,#204,#205,#206,#207,#208,#209,#210,#211,#212,#213,
#214,#215,#216,#217,#218,#219,#220,#221,#222,#223,#224,#225,#226,#227,#228,
#229,#230,#231,#232,#233,#234,#235,#236,#237,#238,#239,#240,#241),
 .UNSPECIFIED.,.F.,.F.,(4,2,2,2,2,2,2,2,2,2,2,2,2,2,2,2,2,2,2,2,2,2,2,2,
4),(0.,0.591096353819648,1.1821927076393,1.77328906145894,2.36438541527859,
2.94709906646021,3.52981271764183,4.11252636882344,4.69524002000506,5.27795367118668,
5.8606673223683,6.44338097354991,7.02609462473153,7.61719097855118,8.20828733237082,
8.79938368619047,9.39048004001012,9.98157639382977,10.5726727476494,11.1637691014691,
11.7548654552887,12.3375791064703,12.9202927576519,13.5030064088336,14.0857200600152),
 .UNSPECIFIED.);
#57=B_SPLINE_CURVE_WITH_KNOTS('',3,(#242,#243,#244,#245,#246,#247,#248,
#249,#250,#251,#252,#253,#254,#255,#256,#257,#258,#259),.UNSPECIFIED.,.F.,
 .F.,(4,2,2,2,2,2,2,2,4),(14.0857200600152,14.6684337111968,15.2511473623784,
15.83386101356,16.4165746647416,17.0076710185613,17.5987673723809,18.1898637262006,
18.7809600800202),.UNSPECIFIED.);
#58=B_SPLINE_CURVE_WITH_KNOTS('',3,(#275,#276,#277,#278,#279,#280,#281,
#282,#283,#284,#285,#286,#287,#288,#289,#290,#291,#292),.UNSPECIFIED.,.F.,
 .F.,(4,2,2,2,2,2,2,2,4),(0.,0.632937060701298,1.2658741214026,1.89881118210389,
2.53174824280519,3.15471689862492,3.77768555444466,4.40065421026439,5.02362286608412),
 .UNSPECIFIED.);
#59=B_SPLINE_CURVE_WITH_KNOTS('',3,(#293,#294,#295,#296,#297,#298,#299,
#300,#301,#302,#303,#304,#305,#306,#307,#308,#309,#310,#311,#312,#313,#314,
#315,#316,#317,#318,#319,#320,#321,#322,#323,#324,#325,#326,#327,#328,#329,
#330,#331,#332,#333,#334,#335,#336,#337,#338,#339,#340,#341,#342),
 .UNSPECIFIED.,.F.,.F.,(4,2,2,2,2,2,2,2,2,2,2,2,2,2,2,2,2,2,2,2,2,2,2,2,
4),(5.02362286608412,5.64659152190386,6.26956017772359,6.89252883354332,
7.51549748936306,8.14843455006435,8.78137161076565,9.41430867146695,10.0472457321682,
10.6801827928695,11.3131198535708,11.9460569142721,12.5789939749734,13.2019626307932,
13.8249312866129,14.4478999424326,15.0708685982524,15.6938372540721,16.3168059098918,
16.9397745657116,17.5627432215313,18.1956802822326,18.8286173429339,19.4615544036352,
20.0944914643365),.UNSPECIFIED.);
#60=VERTEX_POINT('',#190);
#61=VERTEX_POINT('',#191);
#62=VERTEX_POINT('',#260);
#63=VERTEX_POINT('',#264);
#64=VERTEX_POINT('',#266);
#65=VERTEX_POINT('',#270);
#66=VERTEX_POINT('',#272);
#67=VERTEX_POINT('',#274);
#68=VERTEX_POINT('',#345);
#69=VERTEX_POINT('',#348);
#70=EDGE_CURVE('',#60,#61,#56,.T.);
#71=EDGE_CURVE('',#61,#60,#57,.T.);
#72=EDGE_CURVE('',#61,#62,#48,.T.);
#73=EDGE_CURVE('',#62,#62,#42,.T.);
#74=EDGE_CURVE('',#63,#63,#43,.T.);
#75=EDGE_CURVE('',#63,#64,#49,.T.);
#76=EDGE_CURVE('',#64,#64,#44,.T.);
#77=EDGE_CURVE('',#65,#65,#45,.T.);
#78=EDGE_CURVE('',#65,#66,#50,.T.);
#79=EDGE_CURVE('',#67,#66,#58,.T.);
#80=EDGE_CURVE('',#66,#67,#59,.T.);
#81=EDGE_CURVE('',#68,#68,#46,.T.);
#82=EDGE_CURVE('',#69,#69,#47,.T.);
#83=EDGE_CURVE('',#69,#68,#51,.T.);
#84=ORIENTED_EDGE('',*,*,#70,.F.);
#85=ORIENTED_EDGE('',*,*,#71,.F.);
#86=ORIENTED_EDGE('',*,*,#72,.T.);
#87=ORIENTED_EDGE('',*,*,#73,.F.);
#88=ORIENTED_EDGE('',*,*,#72,.F.);
#89=ORIENTED_EDGE('',*,*,#74,.F.);
#90=ORIENTED_EDGE('',*,*,#75,.T.);
#91=ORIENTED_EDGE('',*,*,#76,.F.);
#92=ORIENTED_EDGE('',*,*,#75,.F.);
#93=ORIENTED_EDGE('',*,*,#70,.T.);
#94=ORIENTED_EDGE('',*,*,#71,.T.);
#95=ORIENTED_EDGE('',*,*,#77,.F.);
#96=ORIENTED_EDGE('',*,*,#78,.T.);
#97=ORIENTED_EDGE('',*,*,#79,.F.);
#98=ORIENTED_EDGE('',*,*,#80,.F.);
#99=ORIENTED_EDGE('',*,*,#78,.F.);
#100=ORIENTED_EDGE('',*,*,#77,.T.);
#101=ORIENTED_EDGE('',*,*,#73,.T.);
#102=ORIENTED_EDGE('',*,*,#81,.T.);
#103=ORIENTED_EDGE('',*,*,#74,.T.);
#104=ORIENTED_EDGE('',*,*,#82,.F.);
#105=ORIENTED_EDGE('',*,*,#83,.T.);
#106=ORIENTED_EDGE('',*,*,#81,.F.);
#107=ORIENTED_EDGE('',*,*,#83,.F.);
#108=ORIENTED_EDGE('',*,*,#79,.T.);
#109=ORIENTED_EDGE('',*,*,#80,.T.);
#110=ORIENTED_EDGE('',*,*,#82,.T.);
#111=ORIENTED_EDGE('',*,*,#76,.T.);
#112=CYLINDRICAL_SURFACE('',#143,29.75);
#113=CYLINDRICAL_SURFACE('',#145,42.55);
#114=CYLINDRICAL_SURFACE('',#148,31.75);
#115=CYLINDRICAL_SURFACE('',#153,44.55);
#116=ADVANCED_FACE('',(#23),#112,.F.);
#117=ADVANCED_FACE('',(#24,#18),#113,.F.);
#118=ADVANCED_FACE('',(#25),#114,.T.);
#119=ADVANCED_FACE('',(#26,#19),#15,.T.);
#120=ADVANCED_FACE('',(#27,#20),#16,.F.);
#121=ADVANCED_FACE('',(#28,#21),#115,.T.);
#122=ADVANCED_FACE('',(#29,#22),#17,.T.);
#123=CLOSED_SHELL('',(#116,#117,#118,#119,#120,#121,#122));
#124=DERIVED_UNIT_ELEMENT(#126,1.);
#125=DERIVED_UNIT_ELEMENT(#357,-3.);
#126=(
MASS_UNIT()
NAMED_UNIT(*)
SI_UNIT($,.GRAM.)
);
#127=DERIVED_UNIT((#124,#125));
#128=MEASURE_REPRESENTATION_ITEM('density measure',
POSITIVE_RATIO_MEASURE(1.),#127);
#129=PROPERTY_DEFINITION_REPRESENTATION(#134,#131);
#130=PROPERTY_DEFINITION_REPRESENTATION(#135,#132);
#131=REPRESENTATION('material name',(#133),#354);
#132=REPRESENTATION('density',(#128),#354);
#133=DESCRIPTIVE_REPRESENTATION_ITEM('\X2\4E00822C\X0\','\X2\4E00822C\X0\');
#134=PROPERTY_DEFINITION('material property','material name',#364);
#135=PROPERTY_DEFINITION('material property','density of part',#364);
#136=DATE_TIME_ROLE('creation_date');
#137=APPLIED_DATE_AND_TIME_ASSIGNMENT(#138,#136,(#364));
#138=DATE_AND_TIME(#139,#140);
#139=CALENDAR_DATE(2022,31,3);
#140=LOCAL_TIME(0,0,0.,#141);
#141=COORDINATED_UNIVERSAL_TIME_OFFSET(0,0,.BEHIND.);
#142=AXIS2_PLACEMENT_3D('placement',#188,#156,#157);
#143=AXIS2_PLACEMENT_3D('',#189,#158,#159);
#144=AXIS2_PLACEMENT_3D('',#262,#161,#162);
#145=AXIS2_PLACEMENT_3D('',#263,#163,#164);
#146=AXIS2_PLACEMENT_3D('',#265,#165,#166);
#147=AXIS2_PLACEMENT_3D('',#268,#168,#169);
#148=AXIS2_PLACEMENT_3D('',#269,#170,#171);
#149=AXIS2_PLACEMENT_3D('',#271,#172,#173);
#150=AXIS2_PLACEMENT_3D('',#343,#175,#176);
#151=AXIS2_PLACEMENT_3D('',#344,#177,#178);
#152=AXIS2_PLACEMENT_3D('',#346,#179,#180);
#153=AXIS2_PLACEMENT_3D('',#347,#181,#182);
#154=AXIS2_PLACEMENT_3D('',#349,#183,#184);
#155=AXIS2_PLACEMENT_3D('',#351,#186,#187);
#156=DIRECTION('axis',(0.,0.,1.));
#157=DIRECTION('refdir',(1.,0.,0.));
#158=DIRECTION('center_axis',(0.,0.,1.));
#159=DIRECTION('ref_axis',(1.,0.,0.));
#160=DIRECTION('',(0.,0.,1.));
#161=DIRECTION('center_axis',(0.,0.,-1.));
#162=DIRECTION('ref_axis',(1.,0.,0.));
#163=DIRECTION('center_axis',(1.,0.,0.));
#164=DIRECTION('ref_axis',(0.,1.,0.));
#165=DIRECTION('center_axis',(1.,0.,0.));
#166=DIRECTION('ref_axis',(0.,1.,0.));
#167=DIRECTION('',(1.,0.,0.));
#168=DIRECTION('center_axis',(-1.,0.,0.));
#169=DIRECTION('ref_axis',(0.,1.,0.));
#170=DIRECTION('center_axis',(0.,0.,1.));
#171=DIRECTION('ref_axis',(1.,0.,0.));
#172=DIRECTION('center_axis',(0.,0.,1.));
#173=DIRECTION('ref_axis',(1.,0.,0.));
#174=DIRECTION('',(0.,0.,-1.));
#175=DIRECTION('center_axis',(0.,0.,1.));
#176=DIRECTION('ref_axis',(1.,0.,0.));
#177=DIRECTION('center_axis',(1.,0.,0.));
#178=DIRECTION('ref_axis',(0.,0.,-1.));
#179=DIRECTION('center_axis',(-1.,0.,0.));
#180=DIRECTION('ref_axis',(0.,1.,0.));
#181=DIRECTION('center_axis',(1.,0.,0.));
#182=DIRECTION('ref_axis',(0.,1.,0.));
#183=DIRECTION('center_axis',(1.,0.,0.));
#184=DIRECTION('ref_axis',(0.,1.,0.));
#185=DIRECTION('',(-1.,0.,0.));
#186=DIRECTION('center_axis',(1.,0.,0.));
#187=DIRECTION('ref_axis',(0.,0.,-1.));
#188=CARTESIAN_POINT('',(0.,0.,0.));
#189=CARTESIAN_POINT('Origin',(0.,0.,0.));
#190=CARTESIAN_POINT('',(0.,-29.75,30.4210453469305));
#191=CARTESIAN_POINT('',(-29.75,-1.56327576793953E-16,42.55));
#192=CARTESIAN_POINT('Ctrl Pts',(0.,-29.75,30.4210453469305));
#193=CARTESIAN_POINT('Ctrl Pts',(1.97032117939883,-29.75,30.4210453469305));
#194=CARTESIAN_POINT('Ctrl Pts',(3.96384363471026,-29.5518067152052,30.6184277649056));
#195=CARTESIAN_POINT('Ctrl Pts',(7.86379477859873,-28.7607731416663,31.3626421712934));
#196=CARTESIAN_POINT('Ctrl Pts',(9.77083303216452,-28.1684249340668,31.9068002503759));
#197=CARTESIAN_POINT('Ctrl Pts',(13.3934663040637,-26.6372794794873,33.1957708489643));
#198=CARTESIAN_POINT('Ctrl Pts',(15.1128866235977,-25.6971463069915,33.9396903733831));
#199=CARTESIAN_POINT('Ctrl Pts',(18.288074043765,-23.5433433991161,35.4676880060277));
#200=CARTESIAN_POINT('Ctrl Pts',(19.7438206548316,-22.329032825768,36.2509052041956));
#201=CARTESIAN_POINT('Ctrl Pts',(22.3107015801554,-19.7621519004442,37.7108593304868));
#202=CARTESIAN_POINT('Ctrl Pts',(23.521401404529,-18.3164841201548,38.4446538748517));
#203=CARTESIAN_POINT('Ctrl Pts',(25.6809479321848,-15.1406349989204,39.8025900398831));
#204=CARTESIAN_POINT('Ctrl Pts',(26.6299094906145,-13.4102298987543,40.4260255883238));
#205=CARTESIAN_POINT('Ctrl Pts',(28.1727599397011,-9.76124876169454,41.4586040847009));
#206=CARTESIAN_POINT('Ctrl Pts',(28.767927462179,-7.83869941347718,41.8682766907191));
#207=CARTESIAN_POINT('Ctrl Pts',(29.5567134266644,-3.92931933172583,42.4141279665553));
#208=CARTESIAN_POINT('Ctrl Pts',(29.75,-1.94237883727206,42.55));
#209=CARTESIAN_POINT('Ctrl Pts',(29.75,1.94237883727206,42.55));
#210=CARTESIAN_POINT('Ctrl Pts',(29.5567134266644,3.92931933172583,42.4141279665553));
#211=CARTESIAN_POINT('Ctrl Pts',(28.767927462179,7.83869941347719,41.8682766907191));
#212=CARTESIAN_POINT('Ctrl Pts',(28.1727599397011,9.76124876169454,41.4586040847009));
#213=CARTESIAN_POINT('Ctrl Pts',(26.6299094906145,13.4102298987543,40.4260255883238));
#214=CARTESIAN_POINT('Ctrl Pts',(25.6809479321848,15.1406349989204,39.8025900398831));
#215=CARTESIAN_POINT('Ctrl Pts',(23.521401404529,18.3164841201548,38.4446538748517));
#216=CARTESIAN_POINT('Ctrl Pts',(22.3107015801554,19.7621519004442,37.7108593304868));
#217=CARTESIAN_POINT('Ctrl Pts',(19.7438206548316,22.329032825768,36.2509052041956));
#218=CARTESIAN_POINT('Ctrl Pts',(18.288074043765,23.5433433991161,35.4676880060277));
#219=CARTESIAN_POINT('Ctrl Pts',(15.1128866235977,25.6971463069915,33.9396903733831));
#220=CARTESIAN_POINT('Ctrl Pts',(13.3934663040637,26.6372794794873,33.1957708489643));
#221=CARTESIAN_POINT('Ctrl Pts',(9.77083303216452,28.1684249340668,31.9068002503759));
#222=CARTESIAN_POINT('Ctrl Pts',(7.86379477859873,28.7607731416663,31.3626421712934));
#223=CARTESIAN_POINT('Ctrl Pts',(3.96384363471026,29.5518067152052,30.6184277649056));
#224=CARTESIAN_POINT('Ctrl Pts',(1.97032117939883,29.75,30.4210453469305));
#225=CARTESIAN_POINT('Ctrl Pts',(-1.97032117939883,29.75,30.4210453469305));
#226=CARTESIAN_POINT('Ctrl Pts',(-3.96384363471026,29.5518067152052,30.6184277649056));
#227=CARTESIAN_POINT('Ctrl Pts',(-7.86379477859873,28.7607731416663,31.3626421712934));
#228=CARTESIAN_POINT('Ctrl Pts',(-9.77083303216452,28.1684249340668,31.9068002503759));
#229=CARTESIAN_POINT('Ctrl Pts',(-13.3934663040637,26.6372794794873,33.1957708489643));
#230=CARTESIAN_POINT('Ctrl Pts',(-15.1128866235977,25.6971463069915,33.9396903733831));
#231=CARTESIAN_POINT('Ctrl Pts',(-18.288074043765,23.5433433991161,35.4676880060277));
#232=CARTESIAN_POINT('Ctrl Pts',(-19.7438206548316,22.329032825768,36.2509052041956));
#233=CARTESIAN_POINT('Ctrl Pts',(-22.3107015801554,19.7621519004442,37.7108593304868));
#234=CARTESIAN_POINT('Ctrl Pts',(-23.521401404529,18.3164841201548,38.4446538748517));
#235=CARTESIAN_POINT('Ctrl Pts',(-25.6809479321848,15.1406349989204,39.8025900398831));
#236=CARTESIAN_POINT('Ctrl Pts',(-26.6299094906145,13.4102298987543,40.4260255883238));
#237=CARTESIAN_POINT('Ctrl Pts',(-28.1727599397011,9.76124876169453,41.4586040847009));
#238=CARTESIAN_POINT('Ctrl Pts',(-28.767927462179,7.83869941347718,41.8682766907191));
#239=CARTESIAN_POINT('Ctrl Pts',(-29.5567134266644,3.92931933172583,42.4141279665553));
#240=CARTESIAN_POINT('Ctrl Pts',(-29.75,1.94237883727206,42.55));
#241=CARTESIAN_POINT('Ctrl Pts',(-29.75,3.33066907387547E-15,42.55));
#242=CARTESIAN_POINT('Ctrl Pts',(-29.75,3.33066907387547E-15,42.55));
#243=CARTESIAN_POINT('Ctrl Pts',(-29.75,-1.94237883727205,42.55));
#244=CARTESIAN_POINT('Ctrl Pts',(-29.5567134266644,-3.92931933172583,42.4141279665553));
#245=CARTESIAN_POINT('Ctrl Pts',(-28.767927462179,-7.83869941347718,41.8682766907191));
#246=CARTESIAN_POINT('Ctrl Pts',(-28.1727599397011,-9.76124876169453,41.4586040847009));
#247=CARTESIAN_POINT('Ctrl Pts',(-26.6299094906145,-13.4102298987543,40.4260255883238));
#248=CARTESIAN_POINT('Ctrl Pts',(-25.6809479321848,-15.1406349989204,39.8025900398831));
#249=CARTESIAN_POINT('Ctrl Pts',(-23.521401404529,-18.3164841201548,38.4446538748517));
#250=CARTESIAN_POINT('Ctrl Pts',(-22.3107015801554,-19.7621519004442,37.7108593304868));
#251=CARTESIAN_POINT('Ctrl Pts',(-19.7438206548316,-22.329032825768,36.2509052041956));
#252=CARTESIAN_POINT('Ctrl Pts',(-18.288074043765,-23.5433433991161,35.4676880060277));
#253=CARTESIAN_POINT('Ctrl Pts',(-15.1128866235977,-25.6971463069915,33.9396903733831));
#254=CARTESIAN_POINT('Ctrl Pts',(-13.3934663040637,-26.6372794794873,33.1957708489643));
#255=CARTESIAN_POINT('Ctrl Pts',(-9.77083303216452,-28.1684249340668,31.9068002503759));
#256=CARTESIAN_POINT('Ctrl Pts',(-7.86379477859873,-28.7607731416663,31.3626421712934));
#257=CARTESIAN_POINT('Ctrl Pts',(-3.96384363471027,-29.5518067152052,30.6184277649055));
#258=CARTESIAN_POINT('Ctrl Pts',(-1.97032117939882,-29.75,30.4210453469305));
#259=CARTESIAN_POINT('Ctrl Pts',(1.11022302462516E-15,-29.75,30.4210453469305));
#260=CARTESIAN_POINT('',(-29.75,3.64332422746338E-15,100.));
#261=CARTESIAN_POINT('',(-29.75,-3.64332422746338E-15,0.));
#262=CARTESIAN_POINT('Origin',(0.,0.,100.));
#263=CARTESIAN_POINT('Origin',(0.,0.,0.));
#264=CARTESIAN_POINT('',(-100.,-42.55,-5.21087213037199E-15));
#265=CARTESIAN_POINT('Origin',(-100.,0.,0.));
#266=CARTESIAN_POINT('',(100.,-42.55,5.21087213037199E-15));
#267=CARTESIAN_POINT('',(0.,-42.55,-5.21087213037199E-15));
#268=CARTESIAN_POINT('Origin',(100.,0.,0.));
#269=CARTESIAN_POINT('Origin',(0.,0.,0.));
#270=CARTESIAN_POINT('',(-31.75,-3.88825358729285E-15,100.));
#271=CARTESIAN_POINT('Origin',(0.,0.,100.));
#272=CARTESIAN_POINT('',(-31.75,-4.44212859905303E-15,44.55));
#273=CARTESIAN_POINT('',(-31.75,-3.88825358729285E-15,0.));
#274=CARTESIAN_POINT('',(5.55111512312578E-16,-31.75,31.2512399753994));
#275=CARTESIAN_POINT('Ctrl Pts',(5.55111512312578E-16,-31.75,31.2512399753994));
#276=CARTESIAN_POINT('Ctrl Pts',(-2.10979020233766,-31.75,31.2512399753994));
#277=CARTESIAN_POINT('Ctrl Pts',(-4.24050252690702,-31.5371855874818,31.4715400352077));
#278=CARTESIAN_POINT('Ctrl Pts',(-8.40437802900677,-30.6910796601263,32.2972062616526));
#279=CARTESIAN_POINT('Ctrl Pts',(-10.4382695479451,-30.0583156335501,32.899436690976));
#280=CARTESIAN_POINT('Ctrl Pts',(-14.3009071953102,-28.4243581602346,34.320998192622));
#281=CARTESIAN_POINT('Ctrl Pts',(-16.133689210406,-27.4217198087222,35.1393536389889));
#282=CARTESIAN_POINT('Ctrl Pts',(-19.5190370652525,-25.1247654125842,36.8167224830943));
#283=CARTESIAN_POINT('Ctrl Pts',(-21.0715473079189,-23.8297332974269,37.6748673280107));
#284=CARTESIAN_POINT('Ctrl Pts',(-23.8080133537001,-21.0932672516457,39.2714428760085));
#285=CARTESIAN_POINT('Ctrl Pts',(-25.0986494989622,-19.552818407257,40.0724893965788));
#286=CARTESIAN_POINT('Ctrl Pts',(-27.4022038691067,-16.1670695492377,41.554096985405));
#287=CARTESIAN_POINT('Ctrl Pts',(-28.4152364097195,-14.3215226302655,42.2339159893253));
#288=CARTESIAN_POINT('Ctrl Pts',(-30.0631484563707,-10.4277905612865,43.3597841091429));
#289=CARTESIAN_POINT('Ctrl Pts',(-30.6993996208065,-8.3753264850787,43.806435685419));
#290=CARTESIAN_POINT('Ctrl Pts',(-31.5430046847538,-4.19977217310946,44.4017095945768));
#291=CARTESIAN_POINT('Ctrl Pts',(-31.75,-2.07656218606578,44.55));
#292=CARTESIAN_POINT('Ctrl Pts',(-31.75,-3.88578058618805E-15,44.55));
#293=CARTESIAN_POINT('Ctrl Pts',(-31.75,-3.88578058618805E-15,44.55));
#294=CARTESIAN_POINT('Ctrl Pts',(-31.75,2.07656218606577,44.55));
#295=CARTESIAN_POINT('Ctrl Pts',(-31.5430046847538,4.19977217310945,44.4017095945768));
#296=CARTESIAN_POINT('Ctrl Pts',(-30.6993996208065,8.37532648507869,43.806435685419));
#297=CARTESIAN_POINT('Ctrl Pts',(-30.0631484563707,10.4277905612865,43.3597841091429));
#298=CARTESIAN_POINT('Ctrl Pts',(-28.4152364097195,14.3215226302655,42.2339159893253));
#299=CARTESIAN_POINT('Ctrl Pts',(-27.4022038691067,16.1670695492377,41.554096985405));
#300=CARTESIAN_POINT('Ctrl Pts',(-25.0986494989622,19.552818407257,40.0724893965788));
#301=CARTESIAN_POINT('Ctrl Pts',(-23.8080133537001,21.0932672516457,39.2714428760085));
#302=CARTESIAN_POINT('Ctrl Pts',(-21.0715473079189,23.8297332974269,37.6748673280107));
#303=CARTESIAN_POINT('Ctrl Pts',(-19.5190370652525,25.1247654125842,36.8167224830943));
#304=CARTESIAN_POINT('Ctrl Pts',(-16.133689210406,27.4217198087222,35.1393536389889));
#305=CARTESIAN_POINT('Ctrl Pts',(-14.3009071953102,28.4243581602346,34.320998192622));
#306=CARTESIAN_POINT('Ctrl Pts',(-10.4382695479451,30.0583156335501,32.899436690976));
#307=CARTESIAN_POINT('Ctrl Pts',(-8.40437802900677,30.6910796601263,32.2972062616526));
#308=CARTESIAN_POINT('Ctrl Pts',(-4.24050252690702,31.5371855874818,31.4715400352077));
#309=CARTESIAN_POINT('Ctrl Pts',(-2.10979020233766,31.75,31.2512399753994));
#310=CARTESIAN_POINT('Ctrl Pts',(2.10979020233766,31.75,31.2512399753994));
#311=CARTESIAN_POINT('Ctrl Pts',(4.24050252690701,31.5371855874818,31.4715400352077));
#312=CARTESIAN_POINT('Ctrl Pts',(8.40437802900676,30.6910796601263,32.2972062616526));
#313=CARTESIAN_POINT('Ctrl Pts',(10.4382695479451,30.0583156335501,32.899436690976));
#314=CARTESIAN_POINT('Ctrl Pts',(14.3009071953102,28.4243581602346,34.320998192622));
#315=CARTESIAN_POINT('Ctrl Pts',(16.133689210406,27.4217198087223,35.1393536389888));
#316=CARTESIAN_POINT('Ctrl Pts',(19.5190370652524,25.1247654125842,36.8167224830943));
#317=CARTESIAN_POINT('Ctrl Pts',(21.0715473079189,23.8297332974269,37.6748673280106));
#318=CARTESIAN_POINT('Ctrl Pts',(23.8080133537001,21.0932672516457,39.2714428760084));
#319=CARTESIAN_POINT('Ctrl Pts',(25.0986494989622,19.552818407257,40.0724893965788));
#320=CARTESIAN_POINT('Ctrl Pts',(27.4022038691067,16.1670695492377,41.554096985405));
#321=CARTESIAN_POINT('Ctrl Pts',(28.4152364097195,14.3215226302655,42.2339159893253));
#322=CARTESIAN_POINT('Ctrl Pts',(30.0631484563707,10.4277905612865,43.3597841091429));
#323=CARTESIAN_POINT('Ctrl Pts',(30.6993996208065,8.37532648507871,43.806435685419));
#324=CARTESIAN_POINT('Ctrl Pts',(31.5430046847538,4.19977217310947,44.4017095945768));
#325=CARTESIAN_POINT('Ctrl Pts',(31.75,2.07656218606579,44.55));
#326=CARTESIAN_POINT('Ctrl Pts',(31.75,-2.07656218606577,44.55));
#327=CARTESIAN_POINT('Ctrl Pts',(31.5430046847538,-4.19977217310946,44.4017095945768));
#328=CARTESIAN_POINT('Ctrl Pts',(30.6993996208065,-8.3753264850787,43.806435685419));
#329=CARTESIAN_POINT('Ctrl Pts',(30.0631484563707,-10.4277905612865,43.3597841091429));
#330=CARTESIAN_POINT('Ctrl Pts',(28.4152364097195,-14.3215226302655,42.2339159893253));
#331=CARTESIAN_POINT('Ctrl Pts',(27.4022038691067,-16.1670695492377,41.554096985405));
#332=CARTESIAN_POINT('Ctrl Pts',(25.0986494989622,-19.552818407257,40.0724893965788));
#333=CARTESIAN_POINT('Ctrl Pts',(23.8080133537001,-21.0932672516457,39.2714428760085));
#334=CARTESIAN_POINT('Ctrl Pts',(21.0715473079189,-23.8297332974269,37.6748673280107));
#335=CARTESIAN_POINT('Ctrl Pts',(19.5190370652525,-25.1247654125842,36.8167224830943));
#336=CARTESIAN_POINT('Ctrl Pts',(16.133689210406,-27.4217198087222,35.1393536389889));
#337=CARTESIAN_POINT('Ctrl Pts',(14.3009071953103,-28.4243581602346,34.320998192622));
#338=CARTESIAN_POINT('Ctrl Pts',(10.4382695479451,-30.0583156335501,32.899436690976));
#339=CARTESIAN_POINT('Ctrl Pts',(8.40437802900679,-30.6910796601263,32.2972062616526));
#340=CARTESIAN_POINT('Ctrl Pts',(4.24050252690702,-31.5371855874818,31.4715400352077));
#341=CARTESIAN_POINT('Ctrl Pts',(2.10979020233766,-31.75,31.2512399753994));
#342=CARTESIAN_POINT('Ctrl Pts',(-2.22044604925031E-15,-31.75,31.2512399753994));
#343=CARTESIAN_POINT('Origin',(0.,0.,100.));
#344=CARTESIAN_POINT('Origin',(-100.,0.,0.));
#345=CARTESIAN_POINT('',(-100.,-44.55,-5.45580149020146E-15));
#346=CARTESIAN_POINT('Origin',(-100.,0.,0.));
#347=CARTESIAN_POINT('Origin',(0.,0.,0.));
#348=CARTESIAN_POINT('',(100.,-44.55,-5.45580149020146E-15));
#349=CARTESIAN_POINT('Origin',(100.,0.,0.));
#350=CARTESIAN_POINT('',(0.,-44.55,-5.45580149020146E-15));
#351=CARTESIAN_POINT('Origin',(100.,0.,0.));
#352=UNCERTAINTY_MEASURE_WITH_UNIT(LENGTH_MEASURE(0.01),#356,
'DISTANCE_ACCURACY_VALUE',
'Maximum model space distance between geometric entities at asserted c
onnectivities');
#353=UNCERTAINTY_MEASURE_WITH_UNIT(LENGTH_MEASURE(0.01),#356,
'DISTANCE_ACCURACY_VALUE',
'Maximum model space distance between geometric entities at asserted c
onnectivities');
#354=(
GEOMETRIC_REPRESENTATION_CONTEXT(3)
GLOBAL_UNCERTAINTY_ASSIGNED_CONTEXT((#352))
GLOBAL_UNIT_ASSIGNED_CONTEXT((#356,#358,#359))
REPRESENTATION_CONTEXT('','3D')
);
#355=(
GEOMETRIC_REPRESENTATION_CONTEXT(3)
GLOBAL_UNCERTAINTY_ASSIGNED_CONTEXT((#353))
GLOBAL_UNIT_ASSIGNED_CONTEXT((#356,#358,#359))
REPRESENTATION_CONTEXT('','3D')
);
#356=(
LENGTH_UNIT()
NAMED_UNIT(*)
SI_UNIT(.MILLI.,.METRE.)
);
#357=(
LENGTH_UNIT()
NAMED_UNIT(*)
SI_UNIT(.CENTI.,.METRE.)
);
#358=(
NAMED_UNIT(*)
PLANE_ANGLE_UNIT()
SI_UNIT($,.RADIAN.)
);
#359=(
NAMED_UNIT(*)
SI_UNIT($,.STERADIAN.)
SOLID_ANGLE_UNIT()
);
#360=SHAPE_DEFINITION_REPRESENTATION(#361,#362);
#361=PRODUCT_DEFINITION_SHAPE('',$,#364);
#362=SHAPE_REPRESENTATION('',(#142),#354);
#363=PRODUCT_DEFINITION_CONTEXT('part definition',#368,'design');
#364=PRODUCT_DEFINITION('D8(R) 35\X\D725','D8(R) 35\X\D725',#365,#363);
#365=PRODUCT_DEFINITION_FORMATION('',$,#370);
#366=PRODUCT_RELATED_PRODUCT_CATEGORY('D8(R) 35\X\D725','D8(R) 35\X\D7
25',(#370));
#367=APPLICATION_PROTOCOL_DEFINITION('international standard',
'automotive_design',2009,#368);
#368=APPLICATION_CONTEXT(
'Core Data for Automotive Mechanical Design Process');
#369=PRODUCT_CONTEXT('part definition',#368,'mechanical');
#370=PRODUCT('D8(R) 35\X\D725','D8(R) 35\X\D725',$,(#369));
#371=PRESENTATION_STYLE_ASSIGNMENT((#372));
#372=SURFACE_STYLE_USAGE(.BOTH.,#375);
#373=SURFACE_STYLE_RENDERING_WITH_PROPERTIES($,#379,(#374));
#374=SURFACE_STYLE_TRANSPARENT(0.);
#375=SURFACE_SIDE_STYLE('',(#376,#373));
#376=SURFACE_STYLE_FILL_AREA(#377);
#377=FILL_AREA_STYLE('',(#378));
#378=FILL_AREA_STYLE_COLOUR('',#379);
#379=COLOUR_RGB('',0.749019607843137,0.749019607843137,0.749019607843137);
ENDSEC;
END-ISO-10303-21;
