ISO-10303-21;
HEADER;
/* Generated by software containing ST-Developer
 * from STEP Tools, Inc. (www.steptools.com) 
 */

FILE_DESCRIPTION(
/* description */ (''),
/* implementation_level */ '2;1');

FILE_NAME(
/* name */ 
'\\\\Tske00\\w\\Work\\TOSTE\\\X2\7D99624B\X0\\\02_\X2\6EB663A5\X0\\\\X2\6EB663A5752830C130FC30BA\X0\\\
D8(R)\\D8(R) 30\X\D725.stp',
/* time_stamp */ '2022-04-12T17:22:27+09:00',
/* author */ ('3dcad-eng'),
/* organization */ (''),
/* preprocessor_version */ 'ST-DEVELOPER v18.1',
/* originating_system */ 'Autodesk Inventor 2022',
/* authorisation */ '');

FILE_SCHEMA (('AUTOMOTIVE_DESIGN { 1 0 10303 214 3 1 1 }'));
ENDSEC;

DATA;
#10=MECHANICAL_DESIGN_GEOMETRIC_PRESENTATION_REPRESENTATION('',(#13),#355);
#11=SHAPE_REPRESENTATION_RELATIONSHIP('SRR','None',#362,#12);
#12=ADVANCED_BREP_SHAPE_REPRESENTATION('',(#14),#354);
#13=STYLED_ITEM('',(#371),#14);
#14=MANIFOLD_SOLID_BREP('\X2\30BD30EA30C330C9\X0\1',#123);
#15=PLANE('',#150);
#16=PLANE('',#151);
#17=PLANE('',#155);
#18=FACE_BOUND('',#32,.T.);
#19=FACE_BOUND('',#35,.T.);
#20=FACE_BOUND('',#37,.T.);
#21=FACE_BOUND('',#39,.T.);
#22=FACE_BOUND('',#41,.T.);
#23=FACE_OUTER_BOUND('',#30,.T.);
#24=FACE_OUTER_BOUND('',#31,.T.);
#25=FACE_OUTER_BOUND('',#33,.T.);
#26=FACE_OUTER_BOUND('',#34,.T.);
#27=FACE_OUTER_BOUND('',#36,.T.);
#28=FACE_OUTER_BOUND('',#38,.T.);
#29=FACE_OUTER_BOUND('',#40,.T.);
#30=EDGE_LOOP('',(#84,#85,#86,#87,#88));
#31=EDGE_LOOP('',(#89,#90,#91,#92));
#32=EDGE_LOOP('',(#93,#94));
#33=EDGE_LOOP('',(#95,#96,#97,#98,#99));
#34=EDGE_LOOP('',(#100));
#35=EDGE_LOOP('',(#101));
#36=EDGE_LOOP('',(#102));
#37=EDGE_LOOP('',(#103));
#38=EDGE_LOOP('',(#104,#105,#106,#107));
#39=EDGE_LOOP('',(#108,#109));
#40=EDGE_LOOP('',(#110));
#41=EDGE_LOOP('',(#111));
#42=CIRCLE('',#144,29.75);
#43=CIRCLE('',#146,36.15);
#44=CIRCLE('',#147,36.15);
#45=CIRCLE('',#149,31.75);
#46=CIRCLE('',#152,38.15);
#47=CIRCLE('',#154,38.15);
#48=LINE('',#261,#52);
#49=LINE('',#267,#53);
#50=LINE('',#273,#54);
#51=LINE('',#350,#55);
#52=VECTOR('',#160,29.75);
#53=VECTOR('',#167,36.15);
#54=VECTOR('',#174,31.75);
#55=VECTOR('',#185,38.15);
#56=B_SPLINE_CURVE_WITH_KNOTS('',3,(#192,#193,#194,#195,#196,#197,#198,
#199,#200,#201,#202,#203,#204,#205,#206,#207,#208,#209,#210,#211,#212,#213,
#214,#215,#216,#217,#218,#219,#220,#221,#222,#223,#224,#225,#226,#227,#228,
#229,#230,#231,#232,#233,#234,#235,#236,#237,#238,#239,#240,#241),
 .UNSPECIFIED.,.F.,.F.,(4,2,2,2,2,2,2,2,2,2,2,2,2,2,2,2,2,2,2,2,2,2,2,2,
4),(0.,0.616361292753706,1.23272258550741,1.84908387826112,2.46544517101482,
3.05877864014755,3.65211210928028,4.24544557841301,4.83877904754574,5.43211251667847,
6.02544598581119,6.61877945494392,7.21211292407665,7.82847421683036,8.44483550958406,
9.06119680233777,9.67755809509147,10.2939193878452,10.9102806805989,11.5266419733526,
12.1430032661063,12.736336735239,13.3296702043718,13.9230036735045,14.5163371426372),
 .UNSPECIFIED.);
#57=B_SPLINE_CURVE_WITH_KNOTS('',3,(#242,#243,#244,#245,#246,#247,#248,
#249,#250,#251,#252,#253,#254,#255,#256,#257,#258,#259),.UNSPECIFIED.,.F.,
 .F.,(4,2,2,2,2,2,2,2,4),(14.5163371426372,15.1096706117699,15.7030040809027,
16.2963375500354,16.8896710191681,17.5060323119218,18.1223936046755,18.7387548974292,
19.3551161901829),.UNSPECIFIED.);
#58=B_SPLINE_CURVE_WITH_KNOTS('',3,(#275,#276,#277,#278,#279,#280,#281,
#282,#283,#284,#285,#286,#287,#288,#289,#290,#291,#292),.UNSPECIFIED.,.F.,
 .F.,(4,2,2,2,2,2,2,2,4),(0.,0.660832789741904,1.32166557948381,1.98249836922571,
2.64333115896761,3.27754660860133,3.91176205823504,4.54597750786875,5.18019295750246),
 .UNSPECIFIED.);
#59=B_SPLINE_CURVE_WITH_KNOTS('',3,(#293,#294,#295,#296,#297,#298,#299,
#300,#301,#302,#303,#304,#305,#306,#307,#308,#309,#310,#311,#312,#313,#314,
#315,#316,#317,#318,#319,#320,#321,#322,#323,#324,#325,#326,#327,#328,#329,
#330,#331,#332,#333,#334,#335,#336,#337,#338,#339,#340,#341,#342),
 .UNSPECIFIED.,.F.,.F.,(4,2,2,2,2,2,2,2,2,2,2,2,2,2,2,2,2,2,2,2,2,2,2,2,
4),(5.18019295750246,5.81440840713617,6.44862385676989,7.0828393064036,
7.71705475603731,8.37788754577922,9.03872033552112,9.69955312526302,10.3603859150049,
11.0212187047468,11.6820514944887,12.3428842842306,13.0037170739725,13.6379325236062,
14.27214797324,14.9063634228737,15.5405788725074,16.1747943221411,16.8090097717748,
17.4432252214085,18.0774406710422,18.7382734607841,19.399106250526,20.0599390402679,
20.7207718300098),.UNSPECIFIED.);
#60=VERTEX_POINT('',#190);
#61=VERTEX_POINT('',#191);
#62=VERTEX_POINT('',#260);
#63=VERTEX_POINT('',#264);
#64=VERTEX_POINT('',#266);
#65=VERTEX_POINT('',#270);
#66=VERTEX_POINT('',#272);
#67=VERTEX_POINT('',#274);
#68=VERTEX_POINT('',#345);
#69=VERTEX_POINT('',#348);
#70=EDGE_CURVE('',#60,#61,#56,.T.);
#71=EDGE_CURVE('',#61,#60,#57,.T.);
#72=EDGE_CURVE('',#61,#62,#48,.T.);
#73=EDGE_CURVE('',#62,#62,#42,.T.);
#74=EDGE_CURVE('',#63,#63,#43,.T.);
#75=EDGE_CURVE('',#63,#64,#49,.T.);
#76=EDGE_CURVE('',#64,#64,#44,.T.);
#77=EDGE_CURVE('',#65,#65,#45,.T.);
#78=EDGE_CURVE('',#65,#66,#50,.T.);
#79=EDGE_CURVE('',#67,#66,#58,.T.);
#80=EDGE_CURVE('',#66,#67,#59,.T.);
#81=EDGE_CURVE('',#68,#68,#46,.T.);
#82=EDGE_CURVE('',#69,#69,#47,.T.);
#83=EDGE_CURVE('',#69,#68,#51,.T.);
#84=ORIENTED_EDGE('',*,*,#70,.F.);
#85=ORIENTED_EDGE('',*,*,#71,.F.);
#86=ORIENTED_EDGE('',*,*,#72,.T.);
#87=ORIENTED_EDGE('',*,*,#73,.F.);
#88=ORIENTED_EDGE('',*,*,#72,.F.);
#89=ORIENTED_EDGE('',*,*,#74,.F.);
#90=ORIENTED_EDGE('',*,*,#75,.T.);
#91=ORIENTED_EDGE('',*,*,#76,.F.);
#92=ORIENTED_EDGE('',*,*,#75,.F.);
#93=ORIENTED_EDGE('',*,*,#70,.T.);
#94=ORIENTED_EDGE('',*,*,#71,.T.);
#95=ORIENTED_EDGE('',*,*,#77,.F.);
#96=ORIENTED_EDGE('',*,*,#78,.T.);
#97=ORIENTED_EDGE('',*,*,#79,.F.);
#98=ORIENTED_EDGE('',*,*,#80,.F.);
#99=ORIENTED_EDGE('',*,*,#78,.F.);
#100=ORIENTED_EDGE('',*,*,#77,.T.);
#101=ORIENTED_EDGE('',*,*,#73,.T.);
#102=ORIENTED_EDGE('',*,*,#81,.T.);
#103=ORIENTED_EDGE('',*,*,#74,.T.);
#104=ORIENTED_EDGE('',*,*,#82,.F.);
#105=ORIENTED_EDGE('',*,*,#83,.T.);
#106=ORIENTED_EDGE('',*,*,#81,.F.);
#107=ORIENTED_EDGE('',*,*,#83,.F.);
#108=ORIENTED_EDGE('',*,*,#79,.T.);
#109=ORIENTED_EDGE('',*,*,#80,.T.);
#110=ORIENTED_EDGE('',*,*,#82,.T.);
#111=ORIENTED_EDGE('',*,*,#76,.T.);
#112=CYLINDRICAL_SURFACE('',#143,29.75);
#113=CYLINDRICAL_SURFACE('',#145,36.15);
#114=CYLINDRICAL_SURFACE('',#148,31.75);
#115=CYLINDRICAL_SURFACE('',#153,38.15);
#116=ADVANCED_FACE('',(#23),#112,.F.);
#117=ADVANCED_FACE('',(#24,#18),#113,.F.);
#118=ADVANCED_FACE('',(#25),#114,.T.);
#119=ADVANCED_FACE('',(#26,#19),#15,.T.);
#120=ADVANCED_FACE('',(#27,#20),#16,.F.);
#121=ADVANCED_FACE('',(#28,#21),#115,.T.);
#122=ADVANCED_FACE('',(#29,#22),#17,.T.);
#123=CLOSED_SHELL('',(#116,#117,#118,#119,#120,#121,#122));
#124=DERIVED_UNIT_ELEMENT(#126,1.);
#125=DERIVED_UNIT_ELEMENT(#357,-3.);
#126=(
MASS_UNIT()
NAMED_UNIT(*)
SI_UNIT($,.GRAM.)
);
#127=DERIVED_UNIT((#124,#125));
#128=MEASURE_REPRESENTATION_ITEM('density measure',
POSITIVE_RATIO_MEASURE(1.),#127);
#129=PROPERTY_DEFINITION_REPRESENTATION(#134,#131);
#130=PROPERTY_DEFINITION_REPRESENTATION(#135,#132);
#131=REPRESENTATION('material name',(#133),#354);
#132=REPRESENTATION('density',(#128),#354);
#133=DESCRIPTIVE_REPRESENTATION_ITEM('\X2\4E00822C\X0\','\X2\4E00822C\X0\');
#134=PROPERTY_DEFINITION('material property','material name',#364);
#135=PROPERTY_DEFINITION('material property','density of part',#364);
#136=DATE_TIME_ROLE('creation_date');
#137=APPLIED_DATE_AND_TIME_ASSIGNMENT(#138,#136,(#364));
#138=DATE_AND_TIME(#139,#140);
#139=CALENDAR_DATE(2022,31,3);
#140=LOCAL_TIME(0,0,0.,#141);
#141=COORDINATED_UNIVERSAL_TIME_OFFSET(0,0,.BEHIND.);
#142=AXIS2_PLACEMENT_3D('placement',#188,#156,#157);
#143=AXIS2_PLACEMENT_3D('',#189,#158,#159);
#144=AXIS2_PLACEMENT_3D('',#262,#161,#162);
#145=AXIS2_PLACEMENT_3D('',#263,#163,#164);
#146=AXIS2_PLACEMENT_3D('',#265,#165,#166);
#147=AXIS2_PLACEMENT_3D('',#268,#168,#169);
#148=AXIS2_PLACEMENT_3D('',#269,#170,#171);
#149=AXIS2_PLACEMENT_3D('',#271,#172,#173);
#150=AXIS2_PLACEMENT_3D('',#343,#175,#176);
#151=AXIS2_PLACEMENT_3D('',#344,#177,#178);
#152=AXIS2_PLACEMENT_3D('',#346,#179,#180);
#153=AXIS2_PLACEMENT_3D('',#347,#181,#182);
#154=AXIS2_PLACEMENT_3D('',#349,#183,#184);
#155=AXIS2_PLACEMENT_3D('',#351,#186,#187);
#156=DIRECTION('axis',(0.,0.,1.));
#157=DIRECTION('refdir',(1.,0.,0.));
#158=DIRECTION('center_axis',(0.,0.,1.));
#159=DIRECTION('ref_axis',(1.,0.,0.));
#160=DIRECTION('',(0.,0.,1.));
#161=DIRECTION('center_axis',(0.,0.,-1.));
#162=DIRECTION('ref_axis',(1.,0.,0.));
#163=DIRECTION('center_axis',(1.,0.,0.));
#164=DIRECTION('ref_axis',(0.,1.,0.));
#165=DIRECTION('center_axis',(1.,0.,0.));
#166=DIRECTION('ref_axis',(0.,1.,0.));
#167=DIRECTION('',(1.,0.,0.));
#168=DIRECTION('center_axis',(-1.,0.,0.));
#169=DIRECTION('ref_axis',(0.,1.,0.));
#170=DIRECTION('center_axis',(0.,0.,1.));
#171=DIRECTION('ref_axis',(1.,0.,0.));
#172=DIRECTION('center_axis',(0.,0.,1.));
#173=DIRECTION('ref_axis',(1.,0.,0.));
#174=DIRECTION('',(0.,0.,-1.));
#175=DIRECTION('center_axis',(0.,0.,1.));
#176=DIRECTION('ref_axis',(1.,0.,0.));
#177=DIRECTION('center_axis',(1.,0.,0.));
#178=DIRECTION('ref_axis',(0.,0.,-1.));
#179=DIRECTION('center_axis',(-1.,0.,0.));
#180=DIRECTION('ref_axis',(0.,1.,0.));
#181=DIRECTION('center_axis',(1.,0.,0.));
#182=DIRECTION('ref_axis',(0.,1.,0.));
#183=DIRECTION('center_axis',(1.,0.,0.));
#184=DIRECTION('ref_axis',(0.,1.,0.));
#185=DIRECTION('',(-1.,0.,0.));
#186=DIRECTION('center_axis',(1.,0.,0.));
#187=DIRECTION('ref_axis',(0.,0.,-1.));
#188=CARTESIAN_POINT('',(0.,0.,0.));
#189=CARTESIAN_POINT('Origin',(0.,0.,0.));
#190=CARTESIAN_POINT('',(1.11022302462516E-15,-29.75,20.5367962447895));
#191=CARTESIAN_POINT('',(-29.75,-1.56327576793953E-16,36.15));
#192=CARTESIAN_POINT('Ctrl Pts',(1.11022302462516E-15,-29.75,20.5367962447895));
#193=CARTESIAN_POINT('Ctrl Pts',(2.05453764251235,-29.75,20.5367962447895));
#194=CARTESIAN_POINT('Ctrl Pts',(4.07594962534738,-29.5367810001515,20.8534471822199));
#195=CARTESIAN_POINT('Ctrl Pts',(7.97939981259123,-28.7291485807725,21.9527608964082));
#196=CARTESIAN_POINT('Ctrl Pts',(9.86317160107234,-28.134739859441,22.7292621863402));
#197=CARTESIAN_POINT('Ctrl Pts',(13.4424471450612,-26.6110191987717,24.495645067568));
#198=CARTESIAN_POINT('Ctrl Pts',(15.1396853457221,-25.680249224201,25.484871625803));
#199=CARTESIAN_POINT('Ctrl Pts',(18.2888183461614,-23.5415461607881,27.4727044051887));
#200=CARTESIAN_POINT('Ctrl Pts',(19.7401346475397,-22.3327188330598,28.471264834184));
#201=CARTESIAN_POINT('Ctrl Pts',(22.28428817068,-19.7885653099196,30.2917419696265));
#202=CARTESIAN_POINT('Ctrl Pts',(23.4804761649534,-18.3670567888051,31.1868227947344));
#203=CARTESIAN_POINT('Ctrl Pts',(25.6286466789784,-15.2267529609035,32.8346263180464));
#204=CARTESIAN_POINT('Ctrl Pts',(26.5806483948187,-13.5076784355302,33.5867918109427));
#205=CARTESIAN_POINT('Ctrl Pts',(28.1371709284061,-9.86346292536722,34.8316249457248));
#206=CARTESIAN_POINT('Ctrl Pts',(28.7430498086681,-7.93401595254729,35.3251886250728));
#207=CARTESIAN_POINT('Ctrl Pts',(29.5496452149735,-3.99123905020667,35.984546286223));
#208=CARTESIAN_POINT('Ctrl Pts',(29.75,-1.97777823044243,36.15));
#209=CARTESIAN_POINT('Ctrl Pts',(29.75,1.97777823044243,36.15));
#210=CARTESIAN_POINT('Ctrl Pts',(29.5496452149735,3.99123905020667,35.984546286223));
#211=CARTESIAN_POINT('Ctrl Pts',(28.7430498086681,7.93401595254729,35.3251886250728));
#212=CARTESIAN_POINT('Ctrl Pts',(28.1371709284061,9.86346292536722,34.8316249457248));
#213=CARTESIAN_POINT('Ctrl Pts',(26.5806483948187,13.5076784355302,33.5867918109427));
#214=CARTESIAN_POINT('Ctrl Pts',(25.6286466789784,15.2267529609035,32.8346263180464));
#215=CARTESIAN_POINT('Ctrl Pts',(23.4804761649534,18.3670567888051,31.1868227947344));
#216=CARTESIAN_POINT('Ctrl Pts',(22.28428817068,19.7885653099196,30.2917419696265));
#217=CARTESIAN_POINT('Ctrl Pts',(19.7401346475397,22.3327188330599,28.471264834184));
#218=CARTESIAN_POINT('Ctrl Pts',(18.2888183461614,23.5415461607881,27.4727044051887));
#219=CARTESIAN_POINT('Ctrl Pts',(15.1396853457221,25.680249224201,25.484871625803));
#220=CARTESIAN_POINT('Ctrl Pts',(13.4424471450612,26.6110191987717,24.495645067568));
#221=CARTESIAN_POINT('Ctrl Pts',(9.86317160107234,28.134739859441,22.7292621863402));
#222=CARTESIAN_POINT('Ctrl Pts',(7.97939981259123,28.7291485807725,21.9527608964082));
#223=CARTESIAN_POINT('Ctrl Pts',(4.07594962534738,29.5367810001515,20.8534471822199));
#224=CARTESIAN_POINT('Ctrl Pts',(2.05453764251235,29.75,20.5367962447895));
#225=CARTESIAN_POINT('Ctrl Pts',(-2.05453764251235,29.75,20.5367962447895));
#226=CARTESIAN_POINT('Ctrl Pts',(-4.07594962534738,29.5367810001515,20.8534471822199));
#227=CARTESIAN_POINT('Ctrl Pts',(-7.97939981259123,28.7291485807725,21.9527608964082));
#228=CARTESIAN_POINT('Ctrl Pts',(-9.86317160107234,28.134739859441,22.7292621863402));
#229=CARTESIAN_POINT('Ctrl Pts',(-13.4424471450612,26.6110191987717,24.495645067568));
#230=CARTESIAN_POINT('Ctrl Pts',(-15.1396853457221,25.680249224201,25.484871625803));
#231=CARTESIAN_POINT('Ctrl Pts',(-18.2888183461614,23.5415461607881,27.4727044051887));
#232=CARTESIAN_POINT('Ctrl Pts',(-19.7401346475397,22.3327188330598,28.471264834184));
#233=CARTESIAN_POINT('Ctrl Pts',(-22.28428817068,19.7885653099196,30.2917419696265));
#234=CARTESIAN_POINT('Ctrl Pts',(-23.4804761649534,18.3670567888051,31.1868227947344));
#235=CARTESIAN_POINT('Ctrl Pts',(-25.6286466789784,15.2267529609035,32.8346263180464));
#236=CARTESIAN_POINT('Ctrl Pts',(-26.5806483948187,13.5076784355302,33.5867918109427));
#237=CARTESIAN_POINT('Ctrl Pts',(-28.1371709284061,9.86346292536722,34.8316249457248));
#238=CARTESIAN_POINT('Ctrl Pts',(-28.7430498086681,7.93401595254729,35.3251886250728));
#239=CARTESIAN_POINT('Ctrl Pts',(-29.5496452149735,3.99123905020667,35.984546286223));
#240=CARTESIAN_POINT('Ctrl Pts',(-29.75,1.97777823044243,36.15));
#241=CARTESIAN_POINT('Ctrl Pts',(-29.75,4.44089209850063E-15,36.15));
#242=CARTESIAN_POINT('Ctrl Pts',(-29.75,3.33066907387547E-15,36.15));
#243=CARTESIAN_POINT('Ctrl Pts',(-29.75,-1.97777823044242,36.15));
#244=CARTESIAN_POINT('Ctrl Pts',(-29.5496452149735,-3.99123905020667,35.984546286223));
#245=CARTESIAN_POINT('Ctrl Pts',(-28.7430498086681,-7.93401595254728,35.3251886250729));
#246=CARTESIAN_POINT('Ctrl Pts',(-28.1371709284061,-9.86346292536721,34.8316249457248));
#247=CARTESIAN_POINT('Ctrl Pts',(-26.5806483948187,-13.5076784355302,33.5867918109427));
#248=CARTESIAN_POINT('Ctrl Pts',(-25.6286466789784,-15.2267529609035,32.8346263180464));
#249=CARTESIAN_POINT('Ctrl Pts',(-23.4804761649534,-18.3670567888051,31.1868227947344));
#250=CARTESIAN_POINT('Ctrl Pts',(-22.28428817068,-19.7885653099196,30.2917419696265));
#251=CARTESIAN_POINT('Ctrl Pts',(-19.7401346475397,-22.3327188330598,28.471264834184));
#252=CARTESIAN_POINT('Ctrl Pts',(-18.2888183461614,-23.5415461607881,27.4727044051887));
#253=CARTESIAN_POINT('Ctrl Pts',(-15.1396853457221,-25.680249224201,25.484871625803));
#254=CARTESIAN_POINT('Ctrl Pts',(-13.4424471450612,-26.6110191987718,24.495645067568));
#255=CARTESIAN_POINT('Ctrl Pts',(-9.86317160107232,-28.134739859441,22.7292621863401));
#256=CARTESIAN_POINT('Ctrl Pts',(-7.97939981259121,-28.7291485807725,21.9527608964082));
#257=CARTESIAN_POINT('Ctrl Pts',(-4.07594962534737,-29.5367810001515,20.8534471822199));
#258=CARTESIAN_POINT('Ctrl Pts',(-2.05453764251235,-29.75,20.5367962447895));
#259=CARTESIAN_POINT('Ctrl Pts',(-1.66533453693773E-15,-29.75,20.5367962447895));
#260=CARTESIAN_POINT('',(-29.75,3.64332422746338E-15,90.));
#261=CARTESIAN_POINT('',(-29.75,-3.64332422746338E-15,0.));
#262=CARTESIAN_POINT('Origin',(0.,0.,90.));
#263=CARTESIAN_POINT('Origin',(0.,0.,0.));
#264=CARTESIAN_POINT('',(-90.,-36.15,-4.42709817891768E-15));
#265=CARTESIAN_POINT('Origin',(-90.,0.,0.));
#266=CARTESIAN_POINT('',(90.,-36.15,4.42709817891768E-15));
#267=CARTESIAN_POINT('',(0.,-36.15,-4.42709817891768E-15));
#268=CARTESIAN_POINT('Origin',(90.,0.,0.));
#269=CARTESIAN_POINT('Origin',(0.,0.,0.));
#270=CARTESIAN_POINT('',(-31.75,-3.88825358729285E-15,90.));
#271=CARTESIAN_POINT('Origin',(0.,0.,90.));
#272=CARTESIAN_POINT('',(-31.75,-4.16457284289674E-15,38.15));
#273=CARTESIAN_POINT('',(-31.75,-3.88825358729285E-15,0.));
#274=CARTESIAN_POINT('',(-1.11022302462516E-15,-31.75,21.1508865062437));
#275=CARTESIAN_POINT('Ctrl Pts',(-1.11022302462516E-15,-31.75,21.1508865062437));
#276=CARTESIAN_POINT('Ctrl Pts',(-2.20277596580635,-31.75,21.1508865062437));
#277=CARTESIAN_POINT('Ctrl Pts',(-4.36187344252066,-31.5207431769055,21.5039439461538));
#278=CARTESIAN_POINT('Ctrl Pts',(-8.52575675769005,-30.6577015432917,22.7174424203701));
#279=CARTESIAN_POINT('Ctrl Pts',(-10.5325212714839,-30.0237648993184,23.5709753893647));
#280=CARTESIAN_POINT('Ctrl Pts',(-14.3473142778379,-28.3992081766789,25.5049475969787));
#281=CARTESIAN_POINT('Ctrl Pts',(-16.1566975492776,-27.4070498253297,26.5847682818048));
#282=CARTESIAN_POINT('Ctrl Pts',(-19.5162414714747,-25.1257153943091,28.7505602017084));
#283=CARTESIAN_POINT('Ctrl Pts',(-21.0657076213206,-23.8355729840252,29.8365906890661));
#284=CARTESIAN_POINT('Ctrl Pts',(-23.7797900011304,-21.1214906042154,31.8120686135721));
#285=CARTESIAN_POINT('Ctrl Pts',(-25.0550134751033,-19.6067331573076,32.7810271055431));
#286=CARTESIAN_POINT('Ctrl Pts',(-27.3465487697573,-16.2586578805439,34.5640820390859));
#287=CARTESIAN_POINT('Ctrl Pts',(-28.3628709785795,-14.4250393333144,35.3776004079619));
#288=CARTESIAN_POINT('Ctrl Pts',(-30.0253672418517,-10.5362033744179,36.7239000097534));
#289=CARTESIAN_POINT('Ctrl Pts',(-30.6729990253659,-8.47636438598024,37.2576712027536));
#290=CARTESIAN_POINT('Ctrl Pts',(-31.5355091100376,-4.26535902835607,37.9709037168376));
#291=CARTESIAN_POINT('Ctrl Pts',(-31.75,-2.11405149877904,38.15));
#292=CARTESIAN_POINT('Ctrl Pts',(-31.75,-4.44089209850063E-15,38.15));
#293=CARTESIAN_POINT('Ctrl Pts',(-31.75,-4.44089209850063E-15,38.15));
#294=CARTESIAN_POINT('Ctrl Pts',(-31.75,2.11405149877903,38.15));
#295=CARTESIAN_POINT('Ctrl Pts',(-31.5355091100376,4.26535902835606,37.9709037168376));
#296=CARTESIAN_POINT('Ctrl Pts',(-30.6729990253659,8.47636438598023,37.2576712027536));
#297=CARTESIAN_POINT('Ctrl Pts',(-30.0253672418517,10.5362033744178,36.7239000097534));
#298=CARTESIAN_POINT('Ctrl Pts',(-28.3628709785795,14.4250393333144,35.3776004079619));
#299=CARTESIAN_POINT('Ctrl Pts',(-27.3465487697573,16.2586578805439,34.5640820390859));
#300=CARTESIAN_POINT('Ctrl Pts',(-25.0550134751033,19.6067331573076,32.7810271055431));
#301=CARTESIAN_POINT('Ctrl Pts',(-23.7797900011304,21.1214906042154,31.8120686135721));
#302=CARTESIAN_POINT('Ctrl Pts',(-21.0657076213206,23.8355729840252,29.8365906890661));
#303=CARTESIAN_POINT('Ctrl Pts',(-19.5162414714747,25.1257153943091,28.7505602017084));
#304=CARTESIAN_POINT('Ctrl Pts',(-16.1566975492776,27.4070498253297,26.5847682818048));
#305=CARTESIAN_POINT('Ctrl Pts',(-14.3473142778379,28.3992081766789,25.5049475969788));
#306=CARTESIAN_POINT('Ctrl Pts',(-10.5325212714839,30.0237648993184,23.5709753893647));
#307=CARTESIAN_POINT('Ctrl Pts',(-8.52575675769004,30.6577015432917,22.7174424203701));
#308=CARTESIAN_POINT('Ctrl Pts',(-4.36187344252066,31.5207431769055,21.5039439461538));
#309=CARTESIAN_POINT('Ctrl Pts',(-2.20277596580634,31.75,21.1508865062437));
#310=CARTESIAN_POINT('Ctrl Pts',(2.20277596580634,31.75,21.1508865062437));
#311=CARTESIAN_POINT('Ctrl Pts',(4.36187344252065,31.5207431769055,21.5039439461538));
#312=CARTESIAN_POINT('Ctrl Pts',(8.52575675769004,30.6577015432917,22.7174424203701));
#313=CARTESIAN_POINT('Ctrl Pts',(10.5325212714839,30.0237648993184,23.5709753893647));
#314=CARTESIAN_POINT('Ctrl Pts',(14.3473142778379,28.3992081766789,25.5049475969787));
#315=CARTESIAN_POINT('Ctrl Pts',(16.1566975492776,27.4070498253297,26.5847682818048));
#316=CARTESIAN_POINT('Ctrl Pts',(19.5162414714747,25.1257153943091,28.7505602017084));
#317=CARTESIAN_POINT('Ctrl Pts',(21.0657076213206,23.8355729840252,29.8365906890661));
#318=CARTESIAN_POINT('Ctrl Pts',(23.7797900011304,21.1214906042154,31.8120686135721));
#319=CARTESIAN_POINT('Ctrl Pts',(25.0550134751033,19.6067331573076,32.7810271055431));
#320=CARTESIAN_POINT('Ctrl Pts',(27.3465487697573,16.2586578805439,34.5640820390859));
#321=CARTESIAN_POINT('Ctrl Pts',(28.3628709785795,14.4250393333144,35.3776004079619));
#322=CARTESIAN_POINT('Ctrl Pts',(30.0253672418517,10.5362033744179,36.7239000097534));
#323=CARTESIAN_POINT('Ctrl Pts',(30.6729990253659,8.47636438598025,37.2576712027536));
#324=CARTESIAN_POINT('Ctrl Pts',(31.5355091100376,4.26535902835608,37.9709037168376));
#325=CARTESIAN_POINT('Ctrl Pts',(31.75,2.11405149877905,38.15));
#326=CARTESIAN_POINT('Ctrl Pts',(31.75,-2.11405149877903,38.15));
#327=CARTESIAN_POINT('Ctrl Pts',(31.5355091100376,-4.26535902835607,37.9709037168376));
#328=CARTESIAN_POINT('Ctrl Pts',(30.6729990253659,-8.47636438598023,37.2576712027536));
#329=CARTESIAN_POINT('Ctrl Pts',(30.0253672418517,-10.5362033744178,36.7239000097534));
#330=CARTESIAN_POINT('Ctrl Pts',(28.3628709785795,-14.4250393333144,35.3776004079619));
#331=CARTESIAN_POINT('Ctrl Pts',(27.3465487697573,-16.2586578805439,34.5640820390859));
#332=CARTESIAN_POINT('Ctrl Pts',(25.0550134751033,-19.6067331573076,32.7810271055431));
#333=CARTESIAN_POINT('Ctrl Pts',(23.7797900011304,-21.1214906042154,31.8120686135721));
#334=CARTESIAN_POINT('Ctrl Pts',(21.0657076213206,-23.8355729840252,29.8365906890661));
#335=CARTESIAN_POINT('Ctrl Pts',(19.5162414714747,-25.1257153943091,28.7505602017084));
#336=CARTESIAN_POINT('Ctrl Pts',(16.1566975492776,-27.4070498253297,26.5847682818048));
#337=CARTESIAN_POINT('Ctrl Pts',(14.3473142778379,-28.3992081766789,25.5049475969788));
#338=CARTESIAN_POINT('Ctrl Pts',(10.5325212714839,-30.0237648993184,23.5709753893647));
#339=CARTESIAN_POINT('Ctrl Pts',(8.52575675769007,-30.6577015432917,22.7174424203701));
#340=CARTESIAN_POINT('Ctrl Pts',(4.36187344252068,-31.5207431769055,21.5039439461538));
#341=CARTESIAN_POINT('Ctrl Pts',(2.20277596580636,-31.75,21.1508865062437));
#342=CARTESIAN_POINT('Ctrl Pts',(1.11022302462516E-15,-31.75,21.1508865062437));
#343=CARTESIAN_POINT('Origin',(0.,0.,90.));
#344=CARTESIAN_POINT('Origin',(-90.,0.,0.));
#345=CARTESIAN_POINT('',(-90.,-38.15,-4.67202753874715E-15));
#346=CARTESIAN_POINT('Origin',(-90.,0.,0.));
#347=CARTESIAN_POINT('Origin',(0.,0.,0.));
#348=CARTESIAN_POINT('',(90.,-38.15,-4.67202753874715E-15));
#349=CARTESIAN_POINT('Origin',(90.,0.,0.));
#350=CARTESIAN_POINT('',(0.,-38.15,-4.67202753874715E-15));
#351=CARTESIAN_POINT('Origin',(90.,0.,0.));
#352=UNCERTAINTY_MEASURE_WITH_UNIT(LENGTH_MEASURE(0.01),#356,
'DISTANCE_ACCURACY_VALUE',
'Maximum model space distance between geometric entities at asserted c
onnectivities');
#353=UNCERTAINTY_MEASURE_WITH_UNIT(LENGTH_MEASURE(0.01),#356,
'DISTANCE_ACCURACY_VALUE',
'Maximum model space distance between geometric entities at asserted c
onnectivities');
#354=(
GEOMETRIC_REPRESENTATION_CONTEXT(3)
GLOBAL_UNCERTAINTY_ASSIGNED_CONTEXT((#352))
GLOBAL_UNIT_ASSIGNED_CONTEXT((#356,#358,#359))
REPRESENTATION_CONTEXT('','3D')
);
#355=(
GEOMETRIC_REPRESENTATION_CONTEXT(3)
GLOBAL_UNCERTAINTY_ASSIGNED_CONTEXT((#353))
GLOBAL_UNIT_ASSIGNED_CONTEXT((#356,#358,#359))
REPRESENTATION_CONTEXT('','3D')
);
#356=(
LENGTH_UNIT()
NAMED_UNIT(*)
SI_UNIT(.MILLI.,.METRE.)
);
#357=(
LENGTH_UNIT()
NAMED_UNIT(*)
SI_UNIT(.CENTI.,.METRE.)
);
#358=(
NAMED_UNIT(*)
PLANE_ANGLE_UNIT()
SI_UNIT($,.RADIAN.)
);
#359=(
NAMED_UNIT(*)
SI_UNIT($,.STERADIAN.)
SOLID_ANGLE_UNIT()
);
#360=SHAPE_DEFINITION_REPRESENTATION(#361,#362);
#361=PRODUCT_DEFINITION_SHAPE('',$,#364);
#362=SHAPE_REPRESENTATION('',(#142),#354);
#363=PRODUCT_DEFINITION_CONTEXT('part definition',#368,'design');
#364=PRODUCT_DEFINITION('D8(R) 30\X\D725','D8(R) 30\X\D725',#365,#363);
#365=PRODUCT_DEFINITION_FORMATION('',$,#370);
#366=PRODUCT_RELATED_PRODUCT_CATEGORY('D8(R) 30\X\D725','D8(R) 30\X\D7
25',(#370));
#367=APPLICATION_PROTOCOL_DEFINITION('international standard',
'automotive_design',2009,#368);
#368=APPLICATION_CONTEXT(
'Core Data for Automotive Mechanical Design Process');
#369=PRODUCT_CONTEXT('part definition',#368,'mechanical');
#370=PRODUCT('D8(R) 30\X\D725','D8(R) 30\X\D725',$,(#369));
#371=PRESENTATION_STYLE_ASSIGNMENT((#372));
#372=SURFACE_STYLE_USAGE(.BOTH.,#375);
#373=SURFACE_STYLE_RENDERING_WITH_PROPERTIES($,#379,(#374));
#374=SURFACE_STYLE_TRANSPARENT(0.);
#375=SURFACE_SIDE_STYLE('',(#376,#373));
#376=SURFACE_STYLE_FILL_AREA(#377);
#377=FILL_AREA_STYLE('',(#378));
#378=FILL_AREA_STYLE_COLOUR('',#379);
#379=COLOUR_RGB('',0.749019607843137,0.749019607843137,0.749019607843137);
ENDSEC;
END-ISO-10303-21;
