ISO-10303-21;
HEADER;
/* Generated by software containing ST-Developer
 * from STEP Tools, Inc. (www.steptools.com) 
 */

FILE_DESCRIPTION(
/* description */ (''),
/* implementation_level */ '2;1');

FILE_NAME(
/* name */ 
'\\\\Tske00\\w\\Work\\TOSTE\\\X2\7D99624B\X0\\\02_\X2\6EB663A5\X0\\\\X2\6EB663A5752830C130FC30BA\X0\\\
D8(R)\\D8(R) 30\X\D720.stp',
/* time_stamp */ '2022-04-12T17:22:27+09:00',
/* author */ ('3dcad-eng'),
/* organization */ (''),
/* preprocessor_version */ 'ST-DEVELOPER v18.1',
/* originating_system */ 'Autodesk Inventor 2022',
/* authorisation */ '');

FILE_SCHEMA (('AUTOMOTIVE_DESIGN { 1 0 10303 214 3 1 1 }'));
ENDSEC;

DATA;
#10=MECHANICAL_DESIGN_GEOMETRIC_PRESENTATION_REPRESENTATION('',(#13),#355);
#11=SHAPE_REPRESENTATION_RELATIONSHIP('SRR','None',#362,#12);
#12=ADVANCED_BREP_SHAPE_REPRESENTATION('',(#14),#354);
#13=STYLED_ITEM('',(#371),#14);
#14=MANIFOLD_SOLID_BREP('\X2\30BD30EA30C330C9\X0\1',#123);
#15=PLANE('',#150);
#16=PLANE('',#151);
#17=PLANE('',#155);
#18=FACE_BOUND('',#32,.T.);
#19=FACE_BOUND('',#35,.T.);
#20=FACE_BOUND('',#37,.T.);
#21=FACE_BOUND('',#39,.T.);
#22=FACE_BOUND('',#41,.T.);
#23=FACE_OUTER_BOUND('',#30,.T.);
#24=FACE_OUTER_BOUND('',#31,.T.);
#25=FACE_OUTER_BOUND('',#33,.T.);
#26=FACE_OUTER_BOUND('',#34,.T.);
#27=FACE_OUTER_BOUND('',#36,.T.);
#28=FACE_OUTER_BOUND('',#38,.T.);
#29=FACE_OUTER_BOUND('',#40,.T.);
#30=EDGE_LOOP('',(#84,#85,#86,#87,#88));
#31=EDGE_LOOP('',(#89,#90,#91,#92));
#32=EDGE_LOOP('',(#93,#94));
#33=EDGE_LOOP('',(#95,#96,#97,#98,#99));
#34=EDGE_LOOP('',(#100));
#35=EDGE_LOOP('',(#101));
#36=EDGE_LOOP('',(#102));
#37=EDGE_LOOP('',(#103));
#38=EDGE_LOOP('',(#104,#105,#106,#107));
#39=EDGE_LOOP('',(#108,#109));
#40=EDGE_LOOP('',(#110));
#41=EDGE_LOOP('',(#111));
#42=CIRCLE('',#144,23.9);
#43=CIRCLE('',#146,36.15);
#44=CIRCLE('',#147,36.15);
#45=CIRCLE('',#149,25.4);
#46=CIRCLE('',#152,38.15);
#47=CIRCLE('',#154,38.15);
#48=LINE('',#261,#52);
#49=LINE('',#267,#53);
#50=LINE('',#273,#54);
#51=LINE('',#350,#55);
#52=VECTOR('',#160,23.9);
#53=VECTOR('',#167,36.15);
#54=VECTOR('',#174,25.4);
#55=VECTOR('',#185,38.15);
#56=B_SPLINE_CURVE_WITH_KNOTS('',3,(#192,#193,#194,#195,#196,#197,#198,
#199,#200,#201,#202,#203,#204,#205,#206,#207,#208,#209,#210,#211,#212,#213,
#214,#215,#216,#217,#218,#219,#220,#221,#222,#223,#224,#225,#226,#227,#228,
#229,#230,#231,#232,#233,#234,#235,#236,#237,#238,#239,#240,#241),
 .UNSPECIFIED.,.F.,.F.,(4,2,2,2,2,2,2,2,2,2,2,2,2,2,2,2,2,2,2,2,2,2,2,2,
4),(0.,0.470931767197113,0.941863534394226,1.41279530159134,1.88372706878845,
2.34969854922189,2.81567002965532,3.28164151008876,3.74761299052219,4.21358447095563,
4.67955595138906,5.1455274318225,5.61149891225593,6.08243067945305,6.55336244665016,
7.02429421384727,7.49522598104439,7.9661577482415,8.43708951543861,8.90802128263573,
9.37895304983284,9.84492453026628,10.3108960106997,10.7768674911331,11.2428389715666),
 .UNSPECIFIED.);
#57=B_SPLINE_CURVE_WITH_KNOTS('',3,(#242,#243,#244,#245,#246,#247,#248,
#249,#250,#251,#252,#253,#254,#255,#256,#257,#258,#259),.UNSPECIFIED.,.F.,
 .F.,(4,2,2,2,2,2,2,2,4),(11.2428389715666,11.708810452,12.1747819324335,
12.6407534128669,13.1067248933003,13.5776566604974,14.0485884276945,14.5195201948917,
14.9904519620888),.UNSPECIFIED.);
#58=B_SPLINE_CURVE_WITH_KNOTS('',3,(#275,#276,#277,#278,#279,#280,#281,
#282,#283,#284,#285,#286,#287,#288,#289,#290,#291,#292),.UNSPECIFIED.,.F.,
 .F.,(4,2,2,2,2,2,2,2,4),(0.,0.500960079094467,1.00192015818893,1.5028802372834,
2.00384031637787,2.49932684821685,2.99481338005583,3.49029991189481,3.98578644373379),
 .UNSPECIFIED.);
#59=B_SPLINE_CURVE_WITH_KNOTS('',3,(#293,#294,#295,#296,#297,#298,#299,
#300,#301,#302,#303,#304,#305,#306,#307,#308,#309,#310,#311,#312,#313,#314,
#315,#316,#317,#318,#319,#320,#321,#322,#323,#324,#325,#326,#327,#328,#329,
#330,#331,#332,#333,#334,#335,#336,#337,#338,#339,#340,#341,#342),
 .UNSPECIFIED.,.F.,.F.,(4,2,2,2,2,2,2,2,2,2,2,2,2,2,2,2,2,2,2,2,2,2,2,2,
4),(3.98578644373379,4.48127297557277,4.97675950741175,5.47224603925073,
5.96773257108971,6.46869265018418,6.96965272927865,7.47061280837312,7.97157288746758,
8.47253296656205,8.97349304565652,9.47445312475099,9.97541320384545,10.4708997356844,
10.9663862675234,11.4618727993624,11.9573593312014,12.4528458630404,12.9483323948793,
13.4438189267183,13.9393054585573,14.4402655376518,14.9412256167462,15.4421856958407,
15.9431457749352),.UNSPECIFIED.);
#60=VERTEX_POINT('',#190);
#61=VERTEX_POINT('',#191);
#62=VERTEX_POINT('',#260);
#63=VERTEX_POINT('',#264);
#64=VERTEX_POINT('',#266);
#65=VERTEX_POINT('',#270);
#66=VERTEX_POINT('',#272);
#67=VERTEX_POINT('',#274);
#68=VERTEX_POINT('',#345);
#69=VERTEX_POINT('',#348);
#70=EDGE_CURVE('',#60,#61,#56,.T.);
#71=EDGE_CURVE('',#61,#60,#57,.T.);
#72=EDGE_CURVE('',#61,#62,#48,.T.);
#73=EDGE_CURVE('',#62,#62,#42,.T.);
#74=EDGE_CURVE('',#63,#63,#43,.T.);
#75=EDGE_CURVE('',#63,#64,#49,.T.);
#76=EDGE_CURVE('',#64,#64,#44,.T.);
#77=EDGE_CURVE('',#65,#65,#45,.T.);
#78=EDGE_CURVE('',#65,#66,#50,.T.);
#79=EDGE_CURVE('',#67,#66,#58,.T.);
#80=EDGE_CURVE('',#66,#67,#59,.T.);
#81=EDGE_CURVE('',#68,#68,#46,.T.);
#82=EDGE_CURVE('',#69,#69,#47,.T.);
#83=EDGE_CURVE('',#69,#68,#51,.T.);
#84=ORIENTED_EDGE('',*,*,#70,.F.);
#85=ORIENTED_EDGE('',*,*,#71,.F.);
#86=ORIENTED_EDGE('',*,*,#72,.T.);
#87=ORIENTED_EDGE('',*,*,#73,.F.);
#88=ORIENTED_EDGE('',*,*,#72,.F.);
#89=ORIENTED_EDGE('',*,*,#74,.F.);
#90=ORIENTED_EDGE('',*,*,#75,.T.);
#91=ORIENTED_EDGE('',*,*,#76,.F.);
#92=ORIENTED_EDGE('',*,*,#75,.F.);
#93=ORIENTED_EDGE('',*,*,#70,.T.);
#94=ORIENTED_EDGE('',*,*,#71,.T.);
#95=ORIENTED_EDGE('',*,*,#77,.F.);
#96=ORIENTED_EDGE('',*,*,#78,.T.);
#97=ORIENTED_EDGE('',*,*,#79,.F.);
#98=ORIENTED_EDGE('',*,*,#80,.F.);
#99=ORIENTED_EDGE('',*,*,#78,.F.);
#100=ORIENTED_EDGE('',*,*,#77,.T.);
#101=ORIENTED_EDGE('',*,*,#73,.T.);
#102=ORIENTED_EDGE('',*,*,#81,.T.);
#103=ORIENTED_EDGE('',*,*,#74,.T.);
#104=ORIENTED_EDGE('',*,*,#82,.F.);
#105=ORIENTED_EDGE('',*,*,#83,.T.);
#106=ORIENTED_EDGE('',*,*,#81,.F.);
#107=ORIENTED_EDGE('',*,*,#83,.F.);
#108=ORIENTED_EDGE('',*,*,#79,.T.);
#109=ORIENTED_EDGE('',*,*,#80,.T.);
#110=ORIENTED_EDGE('',*,*,#82,.T.);
#111=ORIENTED_EDGE('',*,*,#76,.T.);
#112=CYLINDRICAL_SURFACE('',#143,23.9);
#113=CYLINDRICAL_SURFACE('',#145,36.15);
#114=CYLINDRICAL_SURFACE('',#148,25.4);
#115=CYLINDRICAL_SURFACE('',#153,38.15);
#116=ADVANCED_FACE('',(#23),#112,.F.);
#117=ADVANCED_FACE('',(#24,#18),#113,.F.);
#118=ADVANCED_FACE('',(#25),#114,.T.);
#119=ADVANCED_FACE('',(#26,#19),#15,.T.);
#120=ADVANCED_FACE('',(#27,#20),#16,.F.);
#121=ADVANCED_FACE('',(#28,#21),#115,.T.);
#122=ADVANCED_FACE('',(#29,#22),#17,.T.);
#123=CLOSED_SHELL('',(#116,#117,#118,#119,#120,#121,#122));
#124=DERIVED_UNIT_ELEMENT(#126,1.);
#125=DERIVED_UNIT_ELEMENT(#357,-3.);
#126=(
MASS_UNIT()
NAMED_UNIT(*)
SI_UNIT($,.GRAM.)
);
#127=DERIVED_UNIT((#124,#125));
#128=MEASURE_REPRESENTATION_ITEM('density measure',
POSITIVE_RATIO_MEASURE(1.),#127);
#129=PROPERTY_DEFINITION_REPRESENTATION(#134,#131);
#130=PROPERTY_DEFINITION_REPRESENTATION(#135,#132);
#131=REPRESENTATION('material name',(#133),#354);
#132=REPRESENTATION('density',(#128),#354);
#133=DESCRIPTIVE_REPRESENTATION_ITEM('\X2\4E00822C\X0\','\X2\4E00822C\X0\');
#134=PROPERTY_DEFINITION('material property','material name',#364);
#135=PROPERTY_DEFINITION('material property','density of part',#364);
#136=DATE_TIME_ROLE('creation_date');
#137=APPLIED_DATE_AND_TIME_ASSIGNMENT(#138,#136,(#364));
#138=DATE_AND_TIME(#139,#140);
#139=CALENDAR_DATE(2022,31,3);
#140=LOCAL_TIME(0,0,0.,#141);
#141=COORDINATED_UNIVERSAL_TIME_OFFSET(0,0,.BEHIND.);
#142=AXIS2_PLACEMENT_3D('placement',#188,#156,#157);
#143=AXIS2_PLACEMENT_3D('',#189,#158,#159);
#144=AXIS2_PLACEMENT_3D('',#262,#161,#162);
#145=AXIS2_PLACEMENT_3D('',#263,#163,#164);
#146=AXIS2_PLACEMENT_3D('',#265,#165,#166);
#147=AXIS2_PLACEMENT_3D('',#268,#168,#169);
#148=AXIS2_PLACEMENT_3D('',#269,#170,#171);
#149=AXIS2_PLACEMENT_3D('',#271,#172,#173);
#150=AXIS2_PLACEMENT_3D('',#343,#175,#176);
#151=AXIS2_PLACEMENT_3D('',#344,#177,#178);
#152=AXIS2_PLACEMENT_3D('',#346,#179,#180);
#153=AXIS2_PLACEMENT_3D('',#347,#181,#182);
#154=AXIS2_PLACEMENT_3D('',#349,#183,#184);
#155=AXIS2_PLACEMENT_3D('',#351,#186,#187);
#156=DIRECTION('axis',(0.,0.,1.));
#157=DIRECTION('refdir',(1.,0.,0.));
#158=DIRECTION('center_axis',(0.,0.,1.));
#159=DIRECTION('ref_axis',(1.,0.,0.));
#160=DIRECTION('',(0.,0.,1.));
#161=DIRECTION('center_axis',(0.,0.,-1.));
#162=DIRECTION('ref_axis',(1.,0.,0.));
#163=DIRECTION('center_axis',(1.,0.,0.));
#164=DIRECTION('ref_axis',(0.,1.,0.));
#165=DIRECTION('center_axis',(1.,0.,0.));
#166=DIRECTION('ref_axis',(0.,1.,0.));
#167=DIRECTION('',(1.,0.,0.));
#168=DIRECTION('center_axis',(-1.,0.,0.));
#169=DIRECTION('ref_axis',(0.,1.,0.));
#170=DIRECTION('center_axis',(0.,0.,1.));
#171=DIRECTION('ref_axis',(1.,0.,0.));
#172=DIRECTION('center_axis',(0.,0.,1.));
#173=DIRECTION('ref_axis',(1.,0.,0.));
#174=DIRECTION('',(0.,0.,-1.));
#175=DIRECTION('center_axis',(0.,0.,1.));
#176=DIRECTION('ref_axis',(1.,0.,0.));
#177=DIRECTION('center_axis',(1.,0.,0.));
#178=DIRECTION('ref_axis',(0.,0.,-1.));
#179=DIRECTION('center_axis',(-1.,0.,0.));
#180=DIRECTION('ref_axis',(0.,1.,0.));
#181=DIRECTION('center_axis',(1.,0.,0.));
#182=DIRECTION('ref_axis',(0.,1.,0.));
#183=DIRECTION('center_axis',(1.,0.,0.));
#184=DIRECTION('ref_axis',(0.,1.,0.));
#185=DIRECTION('',(-1.,0.,0.));
#186=DIRECTION('center_axis',(1.,0.,0.));
#187=DIRECTION('ref_axis',(0.,0.,-1.));
#188=CARTESIAN_POINT('',(0.,0.,0.));
#189=CARTESIAN_POINT('Origin',(0.,0.,0.));
#190=CARTESIAN_POINT('',(-8.32667268468867E-16,-23.9,27.1221772724831));
#191=CARTESIAN_POINT('',(-23.9,3.40659490034792E-16,36.15));
#192=CARTESIAN_POINT('Ctrl Pts',(-8.32667268468867E-16,-23.9,27.1221772724831));
#193=CARTESIAN_POINT('Ctrl Pts',(1.56977255732371,-23.9,27.1221772724831));
#194=CARTESIAN_POINT('Ctrl Pts',(3.16492080635311,-23.7432230640758,27.262682101677));
#195=CARTESIAN_POINT('Ctrl Pts',(6.29389317318582,-23.1115615165887,27.8001834421677));
#196=CARTESIAN_POINT('Ctrl Pts',(7.82807687505937,-22.6370531171398,28.1955274174537));
#197=CARTESIAN_POINT('Ctrl Pts',(10.7448245766151,-21.4070989540445,29.1403485097433));
#198=CARTESIAN_POINT('Ctrl Pts',(12.1304917968003,-20.6506143809522,29.6891758243339));
#199=CARTESIAN_POINT('Ctrl Pts',(14.6881471404636,-18.9170568362508,30.8227188282658));
#200=CARTESIAN_POINT('Ctrl Pts',(15.8601698007714,-17.9395343399456,31.4066689466735));
#201=CARTESIAN_POINT('Ctrl Pts',(17.9285834494781,-15.8711206912389,32.5005275168153));
#202=CARTESIAN_POINT('Ctrl Pts',(18.9040996425789,-14.7049667010032,33.0527580891596));
#203=CARTESIAN_POINT('Ctrl Pts',(20.6413462437062,-12.1464338147036,34.07616481554));
#204=CARTESIAN_POINT('Ctrl Pts',(21.4031838326117,-10.7538934245043,34.5467551977294));
#205=CARTESIAN_POINT('Ctrl Pts',(22.6400155041877,-7.82126719873127,35.3263684466377));
#206=CARTESIAN_POINT('Ctrl Pts',(23.1160236260591,-6.27806989834953,35.635743399495));
#207=CARTESIAN_POINT('Ctrl Pts',(23.7461442272501,-3.14409673614949,36.0476771097952));
#208=CARTESIAN_POINT('Ctrl Pts',(23.9,-1.55323826811145,36.15));
#209=CARTESIAN_POINT('Ctrl Pts',(23.9,1.55323826811145,36.15));
#210=CARTESIAN_POINT('Ctrl Pts',(23.7461442272501,3.1440967361495,36.0476771097952));
#211=CARTESIAN_POINT('Ctrl Pts',(23.1160236260591,6.27806989834954,35.635743399495));
#212=CARTESIAN_POINT('Ctrl Pts',(22.6400155041877,7.82126719873128,35.3263684466376));
#213=CARTESIAN_POINT('Ctrl Pts',(21.4031838326117,10.7538934245043,34.5467551977294));
#214=CARTESIAN_POINT('Ctrl Pts',(20.6413462437062,12.1464338147036,34.07616481554));
#215=CARTESIAN_POINT('Ctrl Pts',(18.9040996425789,14.7049667010032,33.0527580891596));
#216=CARTESIAN_POINT('Ctrl Pts',(17.9285834494781,15.8711206912389,32.5005275168153));
#217=CARTESIAN_POINT('Ctrl Pts',(15.8601698007714,17.9395343399456,31.4066689466735));
#218=CARTESIAN_POINT('Ctrl Pts',(14.6881471404636,18.9170568362508,30.8227188282658));
#219=CARTESIAN_POINT('Ctrl Pts',(12.1304917968003,20.6506143809522,29.6891758243339));
#220=CARTESIAN_POINT('Ctrl Pts',(10.7448245766151,21.4070989540445,29.1403485097433));
#221=CARTESIAN_POINT('Ctrl Pts',(7.82807687505937,22.6370531171398,28.1955274174537));
#222=CARTESIAN_POINT('Ctrl Pts',(6.29389317318582,23.1115615165887,27.8001834421677));
#223=CARTESIAN_POINT('Ctrl Pts',(3.16492080635311,23.7432230640758,27.262682101677));
#224=CARTESIAN_POINT('Ctrl Pts',(1.56977255732371,23.9,27.1221772724831));
#225=CARTESIAN_POINT('Ctrl Pts',(-1.56977255732371,23.9,27.1221772724831));
#226=CARTESIAN_POINT('Ctrl Pts',(-3.16492080635311,23.7432230640758,27.262682101677));
#227=CARTESIAN_POINT('Ctrl Pts',(-6.29389317318581,23.1115615165887,27.8001834421677));
#228=CARTESIAN_POINT('Ctrl Pts',(-7.82807687505936,22.6370531171398,28.1955274174537));
#229=CARTESIAN_POINT('Ctrl Pts',(-10.7448245766151,21.4070989540445,29.1403485097433));
#230=CARTESIAN_POINT('Ctrl Pts',(-12.1304917968003,20.6506143809522,29.6891758243339));
#231=CARTESIAN_POINT('Ctrl Pts',(-14.6881471404636,18.9170568362508,30.8227188282658));
#232=CARTESIAN_POINT('Ctrl Pts',(-15.8601698007714,17.9395343399456,31.4066689466735));
#233=CARTESIAN_POINT('Ctrl Pts',(-17.9285834494781,15.8711206912389,32.5005275168153));
#234=CARTESIAN_POINT('Ctrl Pts',(-18.9040996425789,14.7049667010032,33.0527580891596));
#235=CARTESIAN_POINT('Ctrl Pts',(-20.6413462437062,12.1464338147036,34.07616481554));
#236=CARTESIAN_POINT('Ctrl Pts',(-21.4031838326117,10.7538934245043,34.5467551977294));
#237=CARTESIAN_POINT('Ctrl Pts',(-22.6400155041877,7.82126719873127,35.3263684466376));
#238=CARTESIAN_POINT('Ctrl Pts',(-23.1160236260591,6.27806989834953,35.635743399495));
#239=CARTESIAN_POINT('Ctrl Pts',(-23.7461442272501,3.14409673614949,36.0476771097952));
#240=CARTESIAN_POINT('Ctrl Pts',(-23.9,1.55323826811145,36.15));
#241=CARTESIAN_POINT('Ctrl Pts',(-23.9,2.22044604925031E-15,36.15));
#242=CARTESIAN_POINT('Ctrl Pts',(-23.9,4.16333634234434E-15,36.15));
#243=CARTESIAN_POINT('Ctrl Pts',(-23.9,-1.55323826811145,36.15));
#244=CARTESIAN_POINT('Ctrl Pts',(-23.7461442272501,-3.14409673614949,36.0476771097952));
#245=CARTESIAN_POINT('Ctrl Pts',(-23.1160236260591,-6.27806989834952,35.635743399495));
#246=CARTESIAN_POINT('Ctrl Pts',(-22.6400155041877,-7.82126719873126,35.3263684466377));
#247=CARTESIAN_POINT('Ctrl Pts',(-21.4031838326117,-10.7538934245043,34.5467551977294));
#248=CARTESIAN_POINT('Ctrl Pts',(-20.6413462437062,-12.1464338147036,34.07616481554));
#249=CARTESIAN_POINT('Ctrl Pts',(-18.9040996425789,-14.7049667010032,33.0527580891596));
#250=CARTESIAN_POINT('Ctrl Pts',(-17.9285834494781,-15.8711206912389,32.5005275168153));
#251=CARTESIAN_POINT('Ctrl Pts',(-15.8601698007714,-17.9395343399456,31.4066689466735));
#252=CARTESIAN_POINT('Ctrl Pts',(-14.6881471404636,-18.9170568362508,30.8227188282658));
#253=CARTESIAN_POINT('Ctrl Pts',(-12.1304917968003,-20.6506143809522,29.6891758243339));
#254=CARTESIAN_POINT('Ctrl Pts',(-10.7448245766151,-21.4070989540445,29.1403485097433));
#255=CARTESIAN_POINT('Ctrl Pts',(-7.82807687505937,-22.6370531171397,28.1955274174537));
#256=CARTESIAN_POINT('Ctrl Pts',(-6.29389317318582,-23.1115615165887,27.8001834421677));
#257=CARTESIAN_POINT('Ctrl Pts',(-3.16492080635311,-23.7432230640758,27.262682101677));
#258=CARTESIAN_POINT('Ctrl Pts',(-1.56977255732371,-23.9,27.1221772724831));
#259=CARTESIAN_POINT('Ctrl Pts',(2.77555756156289E-16,-23.9,27.1221772724831));
#260=CARTESIAN_POINT('',(-23.9,2.92690584996217E-15,90.));
#261=CARTESIAN_POINT('',(-23.9,-2.92690584996217E-15,0.));
#262=CARTESIAN_POINT('Origin',(0.,0.,90.));
#263=CARTESIAN_POINT('Origin',(0.,0.,0.));
#264=CARTESIAN_POINT('',(-90.,-36.15,-4.42709817891768E-15));
#265=CARTESIAN_POINT('Origin',(-90.,0.,0.));
#266=CARTESIAN_POINT('',(90.,-36.15,4.42709817891768E-15));
#267=CARTESIAN_POINT('',(0.,-36.15,-4.42709817891768E-15));
#268=CARTESIAN_POINT('Origin',(90.,0.,0.));
#269=CARTESIAN_POINT('Origin',(0.,0.,0.));
#270=CARTESIAN_POINT('',(-25.4,-3.11060286983428E-15,90.));
#271=CARTESIAN_POINT('Origin',(0.,0.,90.));
#272=CARTESIAN_POINT('',(-25.4,-3.49819172801116E-15,38.15));
#273=CARTESIAN_POINT('',(-25.4,-3.11060286983428E-15,0.));
#274=CARTESIAN_POINT('',(0.,-25.4,28.4651102228676));
#275=CARTESIAN_POINT('Ctrl Pts',(0.,-25.4,28.4651102228676));
#276=CARTESIAN_POINT('Ctrl Pts',(-1.66986693031489,-25.4,28.4651102228676));
#277=CARTESIAN_POINT('Ctrl Pts',(-3.36592669453022,-25.233088902247,28.6166079454));
#278=CARTESIAN_POINT('Ctrl Pts',(-6.69183408582446,-24.5613028310111,29.195229526824));
#279=CARTESIAN_POINT('Ctrl Pts',(-8.32207828121681,-24.0568309562897,29.6205403613));
#280=CARTESIAN_POINT('Ctrl Pts',(-11.4211223901392,-22.7496432460487,30.6359445407859));
#281=CARTESIAN_POINT('Ctrl Pts',(-12.8932207319,-21.9458194705152,31.2253373426245));
#282=CARTESIAN_POINT('Ctrl Pts',(-15.6105270915727,-20.103869708073,32.4418727421917));
#283=CARTESIAN_POINT('Ctrl Pts',(-16.8557666912902,-19.0652577929865,33.068208873778));
#284=CARTESIAN_POINT('Ctrl Pts',(-19.0531872164471,-16.8678372678295,34.2408014185842));
#285=CARTESIAN_POINT('Ctrl Pts',(-20.0895686804553,-15.629085556892,34.832482546696));
#286=CARTESIAN_POINT('Ctrl Pts',(-21.9355525738885,-12.9108721087686,35.9288120743204));
#287=CARTESIAN_POINT('Ctrl Pts',(-22.7452671819121,-11.43123628616,36.4328398682428));
#288=CARTESIAN_POINT('Ctrl Pts',(-24.0600504862446,-8.3147060307565,37.2678233717649));
#289=CARTESIAN_POINT('Ctrl Pts',(-24.5661984319849,-6.67449448061167,37.5991623638273));
#290=CARTESIAN_POINT('Ctrl Pts',(-25.2363102623801,-3.3429966098605,38.0403767162882));
#291=CARTESIAN_POINT('Ctrl Pts',(-25.4,-1.6516217727966,38.15));
#292=CARTESIAN_POINT('Ctrl Pts',(-25.4,-3.33066907387547E-15,38.15));
#293=CARTESIAN_POINT('Ctrl Pts',(-25.4,-4.44089209850063E-15,38.15));
#294=CARTESIAN_POINT('Ctrl Pts',(-25.4,1.6516217727966,38.15));
#295=CARTESIAN_POINT('Ctrl Pts',(-25.2363102623802,3.34299660986049,38.0403767162882));
#296=CARTESIAN_POINT('Ctrl Pts',(-24.566198431985,6.67449448061166,37.5991623638273));
#297=CARTESIAN_POINT('Ctrl Pts',(-24.0600504862446,8.3147060307565,37.2678233717649));
#298=CARTESIAN_POINT('Ctrl Pts',(-22.7452671819121,11.43123628616,36.4328398682428));
#299=CARTESIAN_POINT('Ctrl Pts',(-21.9355525738885,12.9108721087686,35.9288120743205));
#300=CARTESIAN_POINT('Ctrl Pts',(-20.0895686804553,15.629085556892,34.832482546696));
#301=CARTESIAN_POINT('Ctrl Pts',(-19.0531872164471,16.8678372678295,34.2408014185842));
#302=CARTESIAN_POINT('Ctrl Pts',(-16.8557666912902,19.0652577929865,33.068208873778));
#303=CARTESIAN_POINT('Ctrl Pts',(-15.6105270915727,20.103869708073,32.4418727421917));
#304=CARTESIAN_POINT('Ctrl Pts',(-12.8932207319,21.9458194705152,31.2253373426245));
#305=CARTESIAN_POINT('Ctrl Pts',(-11.4211223901392,22.7496432460487,30.6359445407859));
#306=CARTESIAN_POINT('Ctrl Pts',(-8.32207828121682,24.0568309562897,29.6205403613));
#307=CARTESIAN_POINT('Ctrl Pts',(-6.69183408582447,24.5613028310111,29.195229526824));
#308=CARTESIAN_POINT('Ctrl Pts',(-3.36592669453022,25.233088902247,28.6166079454));
#309=CARTESIAN_POINT('Ctrl Pts',(-1.66986693031489,25.4,28.4651102228676));
#310=CARTESIAN_POINT('Ctrl Pts',(1.66986693031489,25.4,28.4651102228676));
#311=CARTESIAN_POINT('Ctrl Pts',(3.36592669453021,25.233088902247,28.6166079454));
#312=CARTESIAN_POINT('Ctrl Pts',(6.69183408582446,24.5613028310111,29.195229526824));
#313=CARTESIAN_POINT('Ctrl Pts',(8.3220782812168,24.0568309562897,29.6205403613));
#314=CARTESIAN_POINT('Ctrl Pts',(11.4211223901391,22.7496432460487,30.6359445407859));
#315=CARTESIAN_POINT('Ctrl Pts',(12.8932207319,21.9458194705152,31.2253373426245));
#316=CARTESIAN_POINT('Ctrl Pts',(15.6105270915727,20.103869708073,32.4418727421917));
#317=CARTESIAN_POINT('Ctrl Pts',(16.8557666912902,19.0652577929865,33.068208873778));
#318=CARTESIAN_POINT('Ctrl Pts',(19.0531872164471,16.8678372678295,34.2408014185842));
#319=CARTESIAN_POINT('Ctrl Pts',(20.0895686804553,15.629085556892,34.832482546696));
#320=CARTESIAN_POINT('Ctrl Pts',(21.9355525738885,12.9108721087686,35.9288120743204));
#321=CARTESIAN_POINT('Ctrl Pts',(22.7452671819121,11.43123628616,36.4328398682428));
#322=CARTESIAN_POINT('Ctrl Pts',(24.0600504862446,8.3147060307565,37.2678233717649));
#323=CARTESIAN_POINT('Ctrl Pts',(24.566198431985,6.67449448061166,37.5991623638273));
#324=CARTESIAN_POINT('Ctrl Pts',(25.2363102623802,3.3429966098605,38.0403767162882));
#325=CARTESIAN_POINT('Ctrl Pts',(25.4,1.65162177279661,38.15));
#326=CARTESIAN_POINT('Ctrl Pts',(25.4,-1.6516217727966,38.15));
#327=CARTESIAN_POINT('Ctrl Pts',(25.2363102623801,-3.3429966098605,38.0403767162882));
#328=CARTESIAN_POINT('Ctrl Pts',(24.5661984319849,-6.67449448061166,37.5991623638273));
#329=CARTESIAN_POINT('Ctrl Pts',(24.0600504862446,-8.31470603075649,37.2678233717649));
#330=CARTESIAN_POINT('Ctrl Pts',(22.7452671819121,-11.43123628616,36.4328398682428));
#331=CARTESIAN_POINT('Ctrl Pts',(21.9355525738885,-12.9108721087686,35.9288120743205));
#332=CARTESIAN_POINT('Ctrl Pts',(20.0895686804553,-15.629085556892,34.832482546696));
#333=CARTESIAN_POINT('Ctrl Pts',(19.0531872164471,-16.8678372678295,34.2408014185842));
#334=CARTESIAN_POINT('Ctrl Pts',(16.8557666912902,-19.0652577929865,33.068208873778));
#335=CARTESIAN_POINT('Ctrl Pts',(15.6105270915727,-20.103869708073,32.4418727421917));
#336=CARTESIAN_POINT('Ctrl Pts',(12.8932207319,-21.9458194705152,31.2253373426245));
#337=CARTESIAN_POINT('Ctrl Pts',(11.4211223901392,-22.7496432460487,30.6359445407859));
#338=CARTESIAN_POINT('Ctrl Pts',(8.32207828121681,-24.0568309562897,29.6205403613001));
#339=CARTESIAN_POINT('Ctrl Pts',(6.69183408582447,-24.5613028310111,29.195229526824));
#340=CARTESIAN_POINT('Ctrl Pts',(3.36592669453022,-25.233088902247,28.6166079454));
#341=CARTESIAN_POINT('Ctrl Pts',(1.6698669303149,-25.4,28.4651102228676));
#342=CARTESIAN_POINT('Ctrl Pts',(0.,-25.4,28.4651102228676));
#343=CARTESIAN_POINT('Origin',(0.,0.,90.));
#344=CARTESIAN_POINT('Origin',(-90.,0.,0.));
#345=CARTESIAN_POINT('',(-90.,-38.15,-4.67202753874715E-15));
#346=CARTESIAN_POINT('Origin',(-90.,0.,0.));
#347=CARTESIAN_POINT('Origin',(0.,0.,0.));
#348=CARTESIAN_POINT('',(90.,-38.15,-4.67202753874715E-15));
#349=CARTESIAN_POINT('Origin',(90.,0.,0.));
#350=CARTESIAN_POINT('',(0.,-38.15,-4.67202753874715E-15));
#351=CARTESIAN_POINT('Origin',(90.,0.,0.));
#352=UNCERTAINTY_MEASURE_WITH_UNIT(LENGTH_MEASURE(0.01),#356,
'DISTANCE_ACCURACY_VALUE',
'Maximum model space distance between geometric entities at asserted c
onnectivities');
#353=UNCERTAINTY_MEASURE_WITH_UNIT(LENGTH_MEASURE(0.01),#356,
'DISTANCE_ACCURACY_VALUE',
'Maximum model space distance between geometric entities at asserted c
onnectivities');
#354=(
GEOMETRIC_REPRESENTATION_CONTEXT(3)
GLOBAL_UNCERTAINTY_ASSIGNED_CONTEXT((#352))
GLOBAL_UNIT_ASSIGNED_CONTEXT((#356,#358,#359))
REPRESENTATION_CONTEXT('','3D')
);
#355=(
GEOMETRIC_REPRESENTATION_CONTEXT(3)
GLOBAL_UNCERTAINTY_ASSIGNED_CONTEXT((#353))
GLOBAL_UNIT_ASSIGNED_CONTEXT((#356,#358,#359))
REPRESENTATION_CONTEXT('','3D')
);
#356=(
LENGTH_UNIT()
NAMED_UNIT(*)
SI_UNIT(.MILLI.,.METRE.)
);
#357=(
LENGTH_UNIT()
NAMED_UNIT(*)
SI_UNIT(.CENTI.,.METRE.)
);
#358=(
NAMED_UNIT(*)
PLANE_ANGLE_UNIT()
SI_UNIT($,.RADIAN.)
);
#359=(
NAMED_UNIT(*)
SI_UNIT($,.STERADIAN.)
SOLID_ANGLE_UNIT()
);
#360=SHAPE_DEFINITION_REPRESENTATION(#361,#362);
#361=PRODUCT_DEFINITION_SHAPE('',$,#364);
#362=SHAPE_REPRESENTATION('',(#142),#354);
#363=PRODUCT_DEFINITION_CONTEXT('part definition',#368,'design');
#364=PRODUCT_DEFINITION('D8(R) 30\X\D720','D8(R) 30\X\D720',#365,#363);
#365=PRODUCT_DEFINITION_FORMATION('',$,#370);
#366=PRODUCT_RELATED_PRODUCT_CATEGORY('D8(R) 30\X\D720','D8(R) 30\X\D7
20',(#370));
#367=APPLICATION_PROTOCOL_DEFINITION('international standard',
'automotive_design',2009,#368);
#368=APPLICATION_CONTEXT(
'Core Data for Automotive Mechanical Design Process');
#369=PRODUCT_CONTEXT('part definition',#368,'mechanical');
#370=PRODUCT('D8(R) 30\X\D720','D8(R) 30\X\D720',$,(#369));
#371=PRESENTATION_STYLE_ASSIGNMENT((#372));
#372=SURFACE_STYLE_USAGE(.BOTH.,#375);
#373=SURFACE_STYLE_RENDERING_WITH_PROPERTIES($,#379,(#374));
#374=SURFACE_STYLE_TRANSPARENT(0.);
#375=SURFACE_SIDE_STYLE('',(#376,#373));
#376=SURFACE_STYLE_FILL_AREA(#377);
#377=FILL_AREA_STYLE('',(#378));
#378=FILL_AREA_STYLE_COLOUR('',#379);
#379=COLOUR_RGB('',0.749019607843137,0.749019607843137,0.749019607843137);
ENDSEC;
END-ISO-10303-21;
