ISO-10303-21;
HEADER;
/* Generated by software containing ST-Developer
 * from STEP Tools, Inc. (www.steptools.com) 
 */

FILE_DESCRIPTION(
/* description */ (''),
/* implementation_level */ '2;1');

FILE_NAME(
/* name */ 
'\\\\Tske00\\w\\Work\\TOSTE\\\X2\7D99624B\X0\\\02_\X2\6EB663A5\X0\\\\X2\6EB663A5752830C130FC30BA\X0\\\
D8(R)\\D8(R) 25\X\D710.stp',
/* time_stamp */ '2022-04-12T17:22:23+09:00',
/* author */ ('3dcad-eng'),
/* organization */ (''),
/* preprocessor_version */ 'ST-DEVELOPER v18.1',
/* originating_system */ 'Autodesk Inventor 2022',
/* authorisation */ '');

FILE_SCHEMA (('AUTOMOTIVE_DESIGN { 1 0 10303 214 3 1 1 }'));
ENDSEC;

DATA;
#10=MECHANICAL_DESIGN_GEOMETRIC_PRESENTATION_REPRESENTATION('',(#13),#307);
#11=SHAPE_REPRESENTATION_RELATIONSHIP('SRR','None',#314,#12);
#12=ADVANCED_BREP_SHAPE_REPRESENTATION('',(#14),#306);
#13=STYLED_ITEM('',(#323),#14);
#14=MANIFOLD_SOLID_BREP('\X2\30BD30EA30C330C9\X0\1',#123);
#15=FACE_BOUND('',#33,.T.);
#16=FACE_BOUND('',#35,.T.);
#17=FACE_BOUND('',#37,.T.);
#18=FACE_BOUND('',#39,.T.);
#19=FACE_BOUND('',#41,.T.);
#20=PLANE('',#147);
#21=PLANE('',#151);
#22=PLANE('',#155);
#23=FACE_OUTER_BOUND('',#30,.T.);
#24=FACE_OUTER_BOUND('',#31,.T.);
#25=FACE_OUTER_BOUND('',#32,.T.);
#26=FACE_OUTER_BOUND('',#34,.T.);
#27=FACE_OUTER_BOUND('',#36,.T.);
#28=FACE_OUTER_BOUND('',#38,.T.);
#29=FACE_OUTER_BOUND('',#40,.T.);
#30=EDGE_LOOP('',(#84,#85,#86,#87,#88));
#31=EDGE_LOOP('',(#89,#90,#91,#92,#93));
#32=EDGE_LOOP('',(#94));
#33=EDGE_LOOP('',(#95));
#34=EDGE_LOOP('',(#96,#97,#98,#99));
#35=EDGE_LOOP('',(#100,#101));
#36=EDGE_LOOP('',(#102));
#37=EDGE_LOOP('',(#103));
#38=EDGE_LOOP('',(#104,#105,#106,#107));
#39=EDGE_LOOP('',(#108,#109));
#40=EDGE_LOOP('',(#110));
#41=EDGE_LOOP('',(#111));
#42=B_SPLINE_CURVE_WITH_KNOTS('',3,(#195,#196,#197,#198,#199,#200,#201,
#202,#203,#204),.UNSPECIFIED.,.F.,.F.,(4,2,2,2,4),(0.,0.438375692029256,
0.876751384058513,1.31474456345136,1.7527377428442),.UNSPECIFIED.);
#43=B_SPLINE_CURVE_WITH_KNOTS('',3,(#205,#206,#207,#208,#209,#210,#211,
#212,#213,#214,#215,#216,#217,#218,#219,#220,#221,#222,#223,#224,#225,#226,
#227,#228,#229,#230),.UNSPECIFIED.,.F.,.F.,(4,2,2,2,2,2,2,2,2,2,2,2,4),
(1.7527377428442,2.19073092223704,2.62872410162988,3.06709979365914,3.5054754856884,
3.94385117771765,4.38222686974691,4.82022004913975,5.2582132285326,5.69620640792544,
6.13419958731828,6.57257527934754,7.0109509713768),.UNSPECIFIED.);
#44=B_SPLINE_CURVE_WITH_KNOTS('',3,(#237,#238,#239,#240,#241,#242,#243,
#244,#245,#246,#247,#248,#249,#250),.UNSPECIFIED.,.F.,.F.,(4,2,2,2,2,2,
4),(0.,0.242289117435434,0.484578234870867,0.969156469741734,1.45324449102183,
1.69528850166187,1.93733251230192),.UNSPECIFIED.);
#45=B_SPLINE_CURVE_WITH_KNOTS('',3,(#251,#252,#253,#254,#255,#256,#257,
#258,#259,#260,#261,#262,#263,#264,#265,#266,#267,#268,#269,#270,#271,#272,
#273,#274,#275,#276,#277,#278,#279,#280,#281,#282,#283,#284,#285,#286,#287,
#288),.UNSPECIFIED.,.F.,.F.,(4,2,2,2,2,2,2,2,2,2,2,2,2,2,2,2,2,2,4),(1.93733251230192,
2.17937652294196,2.42142053358201,2.9055085548621,3.39008678973297,3.6323759071684,
3.87466502460383,4.11695414203927,4.3592432594747,4.84382149434557,5.32790951562566,
5.5699535262657,5.81199753690575,6.05404154754579,6.29608555818584,6.78017357946593,
7.2647518143368,7.50704093177223,7.74933004920766),.UNSPECIFIED.);
#46=LINE('',#193,#50);
#47=LINE('',#235,#51);
#48=LINE('',#294,#52);
#49=LINE('',#302,#53);
#50=VECTOR('',#162,11.5);
#51=VECTOR('',#167,12.7);
#52=VECTOR('',#174,31.75);
#53=VECTOR('',#185,29.75);
#54=CIRCLE('',#144,11.5);
#55=CIRCLE('',#146,12.7);
#56=CIRCLE('',#149,31.75);
#57=CIRCLE('',#150,31.75);
#58=CIRCLE('',#152,29.75);
#59=CIRCLE('',#154,29.75);
#60=VERTEX_POINT('',#190);
#61=VERTEX_POINT('',#192);
#62=VERTEX_POINT('',#194);
#63=VERTEX_POINT('',#232);
#64=VERTEX_POINT('',#234);
#65=VERTEX_POINT('',#236);
#66=VERTEX_POINT('',#291);
#67=VERTEX_POINT('',#293);
#68=VERTEX_POINT('',#297);
#69=VERTEX_POINT('',#300);
#70=EDGE_CURVE('',#60,#60,#54,.T.);
#71=EDGE_CURVE('',#60,#61,#46,.T.);
#72=EDGE_CURVE('',#62,#61,#42,.T.);
#73=EDGE_CURVE('',#61,#62,#43,.T.);
#74=EDGE_CURVE('',#63,#63,#55,.T.);
#75=EDGE_CURVE('',#63,#64,#47,.T.);
#76=EDGE_CURVE('',#65,#64,#44,.T.);
#77=EDGE_CURVE('',#64,#65,#45,.T.);
#78=EDGE_CURVE('',#66,#66,#56,.T.);
#79=EDGE_CURVE('',#66,#67,#48,.T.);
#80=EDGE_CURVE('',#67,#67,#57,.T.);
#81=EDGE_CURVE('',#68,#68,#58,.T.);
#82=EDGE_CURVE('',#69,#69,#59,.T.);
#83=EDGE_CURVE('',#69,#68,#49,.T.);
#84=ORIENTED_EDGE('',*,*,#70,.F.);
#85=ORIENTED_EDGE('',*,*,#71,.T.);
#86=ORIENTED_EDGE('',*,*,#72,.F.);
#87=ORIENTED_EDGE('',*,*,#73,.F.);
#88=ORIENTED_EDGE('',*,*,#71,.F.);
#89=ORIENTED_EDGE('',*,*,#74,.F.);
#90=ORIENTED_EDGE('',*,*,#75,.T.);
#91=ORIENTED_EDGE('',*,*,#76,.F.);
#92=ORIENTED_EDGE('',*,*,#77,.F.);
#93=ORIENTED_EDGE('',*,*,#75,.F.);
#94=ORIENTED_EDGE('',*,*,#74,.T.);
#95=ORIENTED_EDGE('',*,*,#70,.T.);
#96=ORIENTED_EDGE('',*,*,#78,.F.);
#97=ORIENTED_EDGE('',*,*,#79,.T.);
#98=ORIENTED_EDGE('',*,*,#80,.F.);
#99=ORIENTED_EDGE('',*,*,#79,.F.);
#100=ORIENTED_EDGE('',*,*,#76,.T.);
#101=ORIENTED_EDGE('',*,*,#77,.T.);
#102=ORIENTED_EDGE('',*,*,#80,.T.);
#103=ORIENTED_EDGE('',*,*,#81,.T.);
#104=ORIENTED_EDGE('',*,*,#82,.F.);
#105=ORIENTED_EDGE('',*,*,#83,.T.);
#106=ORIENTED_EDGE('',*,*,#81,.F.);
#107=ORIENTED_EDGE('',*,*,#83,.F.);
#108=ORIENTED_EDGE('',*,*,#72,.T.);
#109=ORIENTED_EDGE('',*,*,#73,.T.);
#110=ORIENTED_EDGE('',*,*,#78,.T.);
#111=ORIENTED_EDGE('',*,*,#82,.T.);
#112=CYLINDRICAL_SURFACE('',#143,11.5);
#113=CYLINDRICAL_SURFACE('',#145,12.7);
#114=CYLINDRICAL_SURFACE('',#148,31.75);
#115=CYLINDRICAL_SURFACE('',#153,29.75);
#116=ADVANCED_FACE('',(#23),#112,.F.);
#117=ADVANCED_FACE('',(#24),#113,.T.);
#118=ADVANCED_FACE('',(#25,#15),#20,.T.);
#119=ADVANCED_FACE('',(#26,#16),#114,.T.);
#120=ADVANCED_FACE('',(#27,#17),#21,.F.);
#121=ADVANCED_FACE('',(#28,#18),#115,.F.);
#122=ADVANCED_FACE('',(#29,#19),#22,.T.);
#123=CLOSED_SHELL('',(#116,#117,#118,#119,#120,#121,#122));
#124=DERIVED_UNIT_ELEMENT(#126,1.);
#125=DERIVED_UNIT_ELEMENT(#309,-3.);
#126=(
MASS_UNIT()
NAMED_UNIT(*)
SI_UNIT($,.GRAM.)
);
#127=DERIVED_UNIT((#124,#125));
#128=MEASURE_REPRESENTATION_ITEM('density measure',
POSITIVE_RATIO_MEASURE(1.),#127);
#129=PROPERTY_DEFINITION_REPRESENTATION(#134,#131);
#130=PROPERTY_DEFINITION_REPRESENTATION(#135,#132);
#131=REPRESENTATION('material name',(#133),#306);
#132=REPRESENTATION('density',(#128),#306);
#133=DESCRIPTIVE_REPRESENTATION_ITEM('\X2\4E00822C\X0\','\X2\4E00822C\X0\');
#134=PROPERTY_DEFINITION('material property','material name',#316);
#135=PROPERTY_DEFINITION('material property','density of part',#316);
#136=DATE_TIME_ROLE('creation_date');
#137=APPLIED_DATE_AND_TIME_ASSIGNMENT(#138,#136,(#316));
#138=DATE_AND_TIME(#139,#140);
#139=CALENDAR_DATE(2022,30,3);
#140=LOCAL_TIME(0,0,0.,#141);
#141=COORDINATED_UNIVERSAL_TIME_OFFSET(0,0,.BEHIND.);
#142=AXIS2_PLACEMENT_3D('placement',#188,#156,#157);
#143=AXIS2_PLACEMENT_3D('',#189,#158,#159);
#144=AXIS2_PLACEMENT_3D('',#191,#160,#161);
#145=AXIS2_PLACEMENT_3D('',#231,#163,#164);
#146=AXIS2_PLACEMENT_3D('',#233,#165,#166);
#147=AXIS2_PLACEMENT_3D('',#289,#168,#169);
#148=AXIS2_PLACEMENT_3D('',#290,#170,#171);
#149=AXIS2_PLACEMENT_3D('',#292,#172,#173);
#150=AXIS2_PLACEMENT_3D('',#295,#175,#176);
#151=AXIS2_PLACEMENT_3D('',#296,#177,#178);
#152=AXIS2_PLACEMENT_3D('',#298,#179,#180);
#153=AXIS2_PLACEMENT_3D('',#299,#181,#182);
#154=AXIS2_PLACEMENT_3D('',#301,#183,#184);
#155=AXIS2_PLACEMENT_3D('',#303,#186,#187);
#156=DIRECTION('axis',(0.,0.,1.));
#157=DIRECTION('refdir',(1.,0.,0.));
#158=DIRECTION('center_axis',(0.,0.,1.));
#159=DIRECTION('ref_axis',(-1.,0.,0.));
#160=DIRECTION('center_axis',(0.,0.,-1.));
#161=DIRECTION('ref_axis',(-1.,0.,0.));
#162=DIRECTION('',(0.,0.,-1.));
#163=DIRECTION('center_axis',(0.,0.,1.));
#164=DIRECTION('ref_axis',(1.,0.,0.));
#165=DIRECTION('center_axis',(0.,0.,1.));
#166=DIRECTION('ref_axis',(1.,0.,0.));
#167=DIRECTION('',(0.,0.,-1.));
#168=DIRECTION('center_axis',(0.,0.,1.));
#169=DIRECTION('ref_axis',(1.,0.,0.));
#170=DIRECTION('center_axis',(1.,0.,0.));
#171=DIRECTION('ref_axis',(0.,1.,0.));
#172=DIRECTION('center_axis',(1.,0.,0.));
#173=DIRECTION('ref_axis',(0.,1.,0.));
#174=DIRECTION('',(-1.,0.,0.));
#175=DIRECTION('center_axis',(-1.,0.,0.));
#176=DIRECTION('ref_axis',(0.,1.,0.));
#177=DIRECTION('center_axis',(1.,0.,0.));
#178=DIRECTION('ref_axis',(0.,0.,-1.));
#179=DIRECTION('center_axis',(1.,0.,0.));
#180=DIRECTION('ref_axis',(0.,-1.,0.));
#181=DIRECTION('center_axis',(1.,0.,0.));
#182=DIRECTION('ref_axis',(0.,-1.,0.));
#183=DIRECTION('center_axis',(-1.,0.,0.));
#184=DIRECTION('ref_axis',(0.,-1.,0.));
#185=DIRECTION('',(-1.,0.,0.));
#186=DIRECTION('center_axis',(1.,0.,0.));
#187=DIRECTION('ref_axis',(0.,0.,-1.));
#188=CARTESIAN_POINT('',(0.,0.,0.));
#189=CARTESIAN_POINT('Origin',(0.,0.,0.));
#190=CARTESIAN_POINT('',(11.5,1.40834381901946E-15,85.));
#191=CARTESIAN_POINT('Origin',(0.,0.,85.));
#192=CARTESIAN_POINT('',(11.5,5.65394031431583E-16,29.75));
#193=CARTESIAN_POINT('',(11.5,1.40834381901946E-15,0.));
#194=CARTESIAN_POINT('',(5.55111512312578E-16,-11.5,27.4374288153974));
#195=CARTESIAN_POINT('Ctrl Pts',(5.55111512312578E-16,-11.5,27.4374288153974));
#196=CARTESIAN_POINT('Ctrl Pts',(1.46125230676419,-11.5,27.4374288153974));
#197=CARTESIAN_POINT('Ctrl Pts',(3.00796196679287,-11.2048369693779,27.5664950965777));
#198=CARTESIAN_POINT('Ctrl Pts',(5.83591361009076,-10.0268813968002,28.0164531449443));
#199=CARTESIAN_POINT('Ctrl Pts',(7.11871317585961,-9.14474279143098,28.3292294032471));
#200=CARTESIAN_POINT('Ctrl Pts',(9.14385886704398,-7.11959710024661,28.9046875405756));
#201=CARTESIAN_POINT('Ctrl Pts',(10.026670122294,-5.83645905166067,29.2069277309364));
#202=CARTESIAN_POINT('Ctrl Pts',(11.2051375366553,-3.00720215472793,29.6321719942176));
#203=CARTESIAN_POINT('Ctrl Pts',(11.5,-1.45997726464281,29.75));
#204=CARTESIAN_POINT('Ctrl Pts',(11.5,0.,29.75));
#205=CARTESIAN_POINT('Ctrl Pts',(11.5,-2.77555756156289E-16,29.75));
#206=CARTESIAN_POINT('Ctrl Pts',(11.5,1.45997726464281,29.75));
#207=CARTESIAN_POINT('Ctrl Pts',(11.2051375366553,3.00720215472793,29.6321719942176));
#208=CARTESIAN_POINT('Ctrl Pts',(10.026670122294,5.83645905166067,29.2069277309364));
#209=CARTESIAN_POINT('Ctrl Pts',(9.14385886704398,7.11959710024661,28.9046875405756));
#210=CARTESIAN_POINT('Ctrl Pts',(7.11871317585961,9.14474279143098,28.3292294032471));
#211=CARTESIAN_POINT('Ctrl Pts',(5.83591361009076,10.0268813968002,28.0164531449443));
#212=CARTESIAN_POINT('Ctrl Pts',(3.00796196679287,11.2048369693779,27.5664950965777));
#213=CARTESIAN_POINT('Ctrl Pts',(1.46125230676419,11.5,27.4374288153974));
#214=CARTESIAN_POINT('Ctrl Pts',(-1.46125230676419,11.5,27.4374288153974));
#215=CARTESIAN_POINT('Ctrl Pts',(-3.00796196679287,11.2048369693779,27.5664950965777));
#216=CARTESIAN_POINT('Ctrl Pts',(-5.83591361009075,10.0268813968002,28.0164531449443));
#217=CARTESIAN_POINT('Ctrl Pts',(-7.11871317585961,9.14474279143098,28.3292294032471));
#218=CARTESIAN_POINT('Ctrl Pts',(-9.14385886704398,7.11959710024661,28.9046875405756));
#219=CARTESIAN_POINT('Ctrl Pts',(-10.026670122294,5.83645905166067,29.2069277309364));
#220=CARTESIAN_POINT('Ctrl Pts',(-11.2051375366553,3.00720215472793,29.6321719942176));
#221=CARTESIAN_POINT('Ctrl Pts',(-11.5,1.45997726464281,29.75));
#222=CARTESIAN_POINT('Ctrl Pts',(-11.5,-1.45997726464281,29.75));
#223=CARTESIAN_POINT('Ctrl Pts',(-11.2051375366553,-3.00720215472793,29.6321719942176));
#224=CARTESIAN_POINT('Ctrl Pts',(-10.026670122294,-5.83645905166067,29.2069277309364));
#225=CARTESIAN_POINT('Ctrl Pts',(-9.14385886704398,-7.11959710024661,28.9046875405756));
#226=CARTESIAN_POINT('Ctrl Pts',(-7.11871317585962,-9.14474279143098,28.3292294032471));
#227=CARTESIAN_POINT('Ctrl Pts',(-5.83591361009076,-10.0268813968002,28.0164531449443));
#228=CARTESIAN_POINT('Ctrl Pts',(-3.00796196679287,-11.2048369693779,27.5664950965777));
#229=CARTESIAN_POINT('Ctrl Pts',(-1.46125230676419,-11.5,27.4374288153974));
#230=CARTESIAN_POINT('Ctrl Pts',(8.32667268468867E-16,-11.5,27.4374288153974));
#231=CARTESIAN_POINT('Origin',(0.,0.,0.));
#232=CARTESIAN_POINT('',(-12.7,-1.55530143491714E-15,85.));
#233=CARTESIAN_POINT('Origin',(0.,0.,85.));
#234=CARTESIAN_POINT('',(-12.7,-1.67970692496651E-15,31.75));
#235=CARTESIAN_POINT('',(-12.7,-1.55530143491714E-15,0.));
#236=CARTESIAN_POINT('',(0.,-12.7,29.0993556629696));
#237=CARTESIAN_POINT('Ctrl Pts',(0.,-12.7,29.0993556629696));
#238=CARTESIAN_POINT('Ctrl Pts',(-0.807630391451445,-12.7,29.0993556629696));
#239=CARTESIAN_POINT('Ctrl Pts',(-1.63947615424574,-12.6217269195908,29.1339305254547));
#240=CARTESIAN_POINT('Ctrl Pts',(-3.28788015996389,-12.2957601076521,29.272994066131));
#241=CARTESIAN_POINT('Ctrl Pts',(-4.10447381871944,-12.0481733148672,29.3773135306816));
#242=CARTESIAN_POINT('Ctrl Pts',(-6.44635188084687,-11.0722785357404,29.7650334891137));
#243=CARTESIAN_POINT('Ctrl Pts',(-7.86214247406108,-10.0983697680772,30.1238164463991));
#244=CARTESIAN_POINT('Ctrl Pts',(-10.0972386514353,-7.86327359070304,30.7829103515718));
#245=CARTESIAN_POINT('Ctrl Pts',(-11.072005241827,-6.44705486485048,31.1287208615069));
#246=CARTESIAN_POINT('Ctrl Pts',(-12.0483924889146,-4.10392428160575,31.493572762052));
#247=CARTESIAN_POINT('Ctrl Pts',(-12.2960207968506,-3.28691965235732,31.5902230870586));
#248=CARTESIAN_POINT('Ctrl Pts',(-12.6218734416039,-1.63837696015193,31.7184765779859));
#249=CARTESIAN_POINT('Ctrl Pts',(-12.7,-0.806813368800154,31.75));
#250=CARTESIAN_POINT('Ctrl Pts',(-12.7,-2.77555756156289E-15,31.75));
#251=CARTESIAN_POINT('Ctrl Pts',(-12.7,-1.80411241501588E-15,31.75));
#252=CARTESIAN_POINT('Ctrl Pts',(-12.7,0.80681336880015,31.75));
#253=CARTESIAN_POINT('Ctrl Pts',(-12.6218734416039,1.63837696015193,31.7184765779859));
#254=CARTESIAN_POINT('Ctrl Pts',(-12.2960207968506,3.28691965235731,31.5902230870586));
#255=CARTESIAN_POINT('Ctrl Pts',(-12.0483924889146,4.10392428160575,31.493572762052));
#256=CARTESIAN_POINT('Ctrl Pts',(-11.072005241827,6.44705486485048,31.1287208615069));
#257=CARTESIAN_POINT('Ctrl Pts',(-10.0972386514353,7.86327359070304,30.7829103515718));
#258=CARTESIAN_POINT('Ctrl Pts',(-7.86214247406108,10.0983697680772,30.1238164463991));
#259=CARTESIAN_POINT('Ctrl Pts',(-6.44635188084687,11.0722785357404,29.7650334891137));
#260=CARTESIAN_POINT('Ctrl Pts',(-4.10447381871944,12.0481733148672,29.3773135306816));
#261=CARTESIAN_POINT('Ctrl Pts',(-3.28788015996389,12.2957601076521,29.272994066131));
#262=CARTESIAN_POINT('Ctrl Pts',(-1.63947615424574,12.6217269195908,29.1339305254547));
#263=CARTESIAN_POINT('Ctrl Pts',(-0.807630391451444,12.7,29.0993556629696));
#264=CARTESIAN_POINT('Ctrl Pts',(0.807630391451445,12.7,29.0993556629696));
#265=CARTESIAN_POINT('Ctrl Pts',(1.63947615424574,12.6217269195908,29.1339305254547));
#266=CARTESIAN_POINT('Ctrl Pts',(3.28788015996389,12.2957601076521,29.272994066131));
#267=CARTESIAN_POINT('Ctrl Pts',(4.10447381871944,12.0481733148672,29.3773135306816));
#268=CARTESIAN_POINT('Ctrl Pts',(6.44635188084687,11.0722785357404,29.7650334891137));
#269=CARTESIAN_POINT('Ctrl Pts',(7.86214247406108,10.0983697680772,30.1238164463991));
#270=CARTESIAN_POINT('Ctrl Pts',(10.0972386514353,7.86327359070305,30.7829103515718));
#271=CARTESIAN_POINT('Ctrl Pts',(11.072005241827,6.44705486485049,31.1287208615069));
#272=CARTESIAN_POINT('Ctrl Pts',(12.0483924889146,4.10392428160576,31.493572762052));
#273=CARTESIAN_POINT('Ctrl Pts',(12.2960207968506,3.28691965235732,31.5902230870586));
#274=CARTESIAN_POINT('Ctrl Pts',(12.6218734416039,1.63837696015194,31.7184765779859));
#275=CARTESIAN_POINT('Ctrl Pts',(12.7,0.806813368800157,31.75));
#276=CARTESIAN_POINT('Ctrl Pts',(12.7,-0.806813368800151,31.75));
#277=CARTESIAN_POINT('Ctrl Pts',(12.6218734416039,-1.63837696015193,31.7184765779859));
#278=CARTESIAN_POINT('Ctrl Pts',(12.2960207968506,-3.28691965235732,31.5902230870586));
#279=CARTESIAN_POINT('Ctrl Pts',(12.0483924889146,-4.10392428160575,31.493572762052));
#280=CARTESIAN_POINT('Ctrl Pts',(11.072005241827,-6.44705486485048,31.1287208615069));
#281=CARTESIAN_POINT('Ctrl Pts',(10.0972386514353,-7.86327359070304,30.7829103515718));
#282=CARTESIAN_POINT('Ctrl Pts',(7.86214247406108,-10.0983697680772,30.1238164463991));
#283=CARTESIAN_POINT('Ctrl Pts',(6.44635188084688,-11.0722785357404,29.7650334891137));
#284=CARTESIAN_POINT('Ctrl Pts',(4.10447381871945,-12.0481733148672,29.3773135306816));
#285=CARTESIAN_POINT('Ctrl Pts',(3.2878801599639,-12.2957601076521,29.272994066131));
#286=CARTESIAN_POINT('Ctrl Pts',(1.63947615424574,-12.6217269195908,29.1339305254547));
#287=CARTESIAN_POINT('Ctrl Pts',(0.807630391451447,-12.7,29.0993556629696));
#288=CARTESIAN_POINT('Ctrl Pts',(-1.38777878078145E-16,-12.7,29.0993556629696));
#289=CARTESIAN_POINT('Origin',(0.,0.,85.));
#290=CARTESIAN_POINT('Origin',(0.,0.,0.));
#291=CARTESIAN_POINT('',(85.,-31.75,-3.88825358729285E-15));
#292=CARTESIAN_POINT('Origin',(85.,0.,0.));
#293=CARTESIAN_POINT('',(-85.,-31.75,-3.88825358729285E-15));
#294=CARTESIAN_POINT('',(0.,-31.75,-3.88825358729285E-15));
#295=CARTESIAN_POINT('Origin',(-85.,0.,0.));
#296=CARTESIAN_POINT('Origin',(-85.,0.,0.));
#297=CARTESIAN_POINT('',(-85.,29.75,3.64332422746338E-15));
#298=CARTESIAN_POINT('Origin',(-85.,0.,0.));
#299=CARTESIAN_POINT('Origin',(0.,0.,0.));
#300=CARTESIAN_POINT('',(85.,29.75,3.64332422746338E-15));
#301=CARTESIAN_POINT('Origin',(85.,0.,0.));
#302=CARTESIAN_POINT('',(0.,29.75,3.64332422746338E-15));
#303=CARTESIAN_POINT('Origin',(85.,0.,0.));
#304=UNCERTAINTY_MEASURE_WITH_UNIT(LENGTH_MEASURE(0.01),#308,
'DISTANCE_ACCURACY_VALUE',
'Maximum model space distance between geometric entities at asserted c
onnectivities');
#305=UNCERTAINTY_MEASURE_WITH_UNIT(LENGTH_MEASURE(0.01),#308,
'DISTANCE_ACCURACY_VALUE',
'Maximum model space distance between geometric entities at asserted c
onnectivities');
#306=(
GEOMETRIC_REPRESENTATION_CONTEXT(3)
GLOBAL_UNCERTAINTY_ASSIGNED_CONTEXT((#304))
GLOBAL_UNIT_ASSIGNED_CONTEXT((#308,#310,#311))
REPRESENTATION_CONTEXT('','3D')
);
#307=(
GEOMETRIC_REPRESENTATION_CONTEXT(3)
GLOBAL_UNCERTAINTY_ASSIGNED_CONTEXT((#305))
GLOBAL_UNIT_ASSIGNED_CONTEXT((#308,#310,#311))
REPRESENTATION_CONTEXT('','3D')
);
#308=(
LENGTH_UNIT()
NAMED_UNIT(*)
SI_UNIT(.MILLI.,.METRE.)
);
#309=(
LENGTH_UNIT()
NAMED_UNIT(*)
SI_UNIT(.CENTI.,.METRE.)
);
#310=(
NAMED_UNIT(*)
PLANE_ANGLE_UNIT()
SI_UNIT($,.RADIAN.)
);
#311=(
NAMED_UNIT(*)
SI_UNIT($,.STERADIAN.)
SOLID_ANGLE_UNIT()
);
#312=SHAPE_DEFINITION_REPRESENTATION(#313,#314);
#313=PRODUCT_DEFINITION_SHAPE('',$,#316);
#314=SHAPE_REPRESENTATION('',(#142),#306);
#315=PRODUCT_DEFINITION_CONTEXT('part definition',#320,'design');
#316=PRODUCT_DEFINITION('D8(R) 25\X\D710','D8(R) 25\X\D710',#317,#315);
#317=PRODUCT_DEFINITION_FORMATION('',$,#322);
#318=PRODUCT_RELATED_PRODUCT_CATEGORY('D8(R) 25\X\D710','D8(R) 25\X\D7
10',(#322));
#319=APPLICATION_PROTOCOL_DEFINITION('international standard',
'automotive_design',2009,#320);
#320=APPLICATION_CONTEXT(
'Core Data for Automotive Mechanical Design Process');
#321=PRODUCT_CONTEXT('part definition',#320,'mechanical');
#322=PRODUCT('D8(R) 25\X\D710','D8(R) 25\X\D710',$,(#321));
#323=PRESENTATION_STYLE_ASSIGNMENT((#324));
#324=SURFACE_STYLE_USAGE(.BOTH.,#327);
#325=SURFACE_STYLE_RENDERING_WITH_PROPERTIES($,#331,(#326));
#326=SURFACE_STYLE_TRANSPARENT(0.);
#327=SURFACE_SIDE_STYLE('',(#328,#325));
#328=SURFACE_STYLE_FILL_AREA(#329);
#329=FILL_AREA_STYLE('',(#330));
#330=FILL_AREA_STYLE_COLOUR('',#331);
#331=COLOUR_RGB('',0.749019607843137,0.749019607843137,0.749019607843137);
ENDSEC;
END-ISO-10303-21;
