ISO-10303-21;
HEADER;
/* Generated by software containing ST-Developer
 * from STEP Tools, Inc. (www.steptools.com) 
 */

FILE_DESCRIPTION(
/* description */ (''),
/* implementation_level */ '2;1');

FILE_NAME(
/* name */ 
'\\\\Tske00\\w\\Work\\TOSTE\\\X2\7D99624B\X0\\\02_\X2\6EB663A5\X0\\\\X2\6EB663A5752830C130FC30BA\X0\\\
D8(R)\\D8(R) 20\X\D710.stp',
/* time_stamp */ '2022-04-12T17:07:45+09:00',
/* author */ ('3dcad-eng'),
/* organization */ (''),
/* preprocessor_version */ 'ST-DEVELOPER v18.1',
/* originating_system */ 'Autodesk Inventor 2022',
/* authorisation */ '');

FILE_SCHEMA (('AUTOMOTIVE_DESIGN { 1 0 10303 214 3 1 1 }'));
ENDSEC;

DATA;
#10=MECHANICAL_DESIGN_GEOMETRIC_PRESENTATION_REPRESENTATION('',(#13),#315);
#11=SHAPE_REPRESENTATION_RELATIONSHIP('SRR','None',#322,#12);
#12=ADVANCED_BREP_SHAPE_REPRESENTATION('',(#14),#314);
#13=STYLED_ITEM('',(#331),#14);
#14=MANIFOLD_SOLID_BREP('\X2\30BD30EA30C330C9\X0\1',#123);
#15=FACE_BOUND('',#33,.T.);
#16=FACE_BOUND('',#35,.T.);
#17=FACE_BOUND('',#37,.T.);
#18=FACE_BOUND('',#39,.T.);
#19=FACE_BOUND('',#41,.T.);
#20=PLANE('',#147);
#21=PLANE('',#151);
#22=PLANE('',#155);
#23=FACE_OUTER_BOUND('',#30,.T.);
#24=FACE_OUTER_BOUND('',#31,.T.);
#25=FACE_OUTER_BOUND('',#32,.T.);
#26=FACE_OUTER_BOUND('',#34,.T.);
#27=FACE_OUTER_BOUND('',#36,.T.);
#28=FACE_OUTER_BOUND('',#38,.T.);
#29=FACE_OUTER_BOUND('',#40,.T.);
#30=EDGE_LOOP('',(#84,#85,#86,#87,#88));
#31=EDGE_LOOP('',(#89,#90,#91,#92,#93));
#32=EDGE_LOOP('',(#94));
#33=EDGE_LOOP('',(#95));
#34=EDGE_LOOP('',(#96,#97,#98,#99));
#35=EDGE_LOOP('',(#100,#101));
#36=EDGE_LOOP('',(#102));
#37=EDGE_LOOP('',(#103));
#38=EDGE_LOOP('',(#104,#105,#106,#107));
#39=EDGE_LOOP('',(#108,#109));
#40=EDGE_LOOP('',(#110));
#41=EDGE_LOOP('',(#111));
#42=B_SPLINE_CURVE_WITH_KNOTS('',3,(#195,#196,#197,#198,#199,#200,#201,
#202,#203,#204,#205,#206),.UNSPECIFIED.,.F.,.F.,(4,2,2,2,2,4),(0.,0.220904399271591,
0.441808798543181,0.883617597086362,1.32441479239697,1.76521198770758),
 .UNSPECIFIED.);
#43=B_SPLINE_CURVE_WITH_KNOTS('',3,(#207,#208,#209,#210,#211,#212,#213,
#214,#215,#216,#217,#218,#219,#220,#221,#222,#223,#224,#225,#226,#227,#228,
#229,#230,#231,#232,#233,#234,#235,#236,#237,#238),.UNSPECIFIED.,.F.,.F.,
(4,2,2,2,2,2,2,2,2,2,2,2,2,2,2,4),(1.76521198770758,2.20600918301819,2.6468063783288,
3.08861517687198,3.30951957614357,3.53042397541516,3.75132837468675,3.97223277395835,
4.41404157250153,4.85483876781214,5.29563596312275,5.73643315843336,6.17723035374397,
6.61903915228715,6.83994355155874,7.06084795083033),.UNSPECIFIED.);
#44=B_SPLINE_CURVE_WITH_KNOTS('',3,(#245,#246,#247,#248,#249,#250,#251,
#252,#253,#254,#255,#256,#257,#258),.UNSPECIFIED.,.F.,.F.,(4,2,2,2,2,2,
4),(0.,0.244421152559736,0.488842305119471,0.977684610238942,1.46519430746305,
1.7089491560751,1.95270400468715),.UNSPECIFIED.);
#45=B_SPLINE_CURVE_WITH_KNOTS('',3,(#259,#260,#261,#262,#263,#264,#265,
#266,#267,#268,#269,#270,#271,#272,#273,#274,#275,#276,#277,#278,#279,#280,
#281,#282,#283,#284,#285,#286,#287,#288,#289,#290,#291,#292,#293,#294,#295,
#296),.UNSPECIFIED.,.F.,.F.,(4,2,2,2,2,2,2,2,2,2,2,2,2,2,2,2,2,2,4),(1.95270400468715,
2.1964588532992,2.44021370191126,2.92772339913536,3.41656570425483,3.66098685681457,
3.9054080093743,4.14982916193404,4.39425031449377,4.88309261961324,5.37060231683735,
5.6143571654494,5.85811201406145,6.10186686267351,6.34562171128556,6.83313140850966,
7.32197371362914,7.56639486618887,7.81081601874861),.UNSPECIFIED.);
#46=LINE('',#193,#50);
#47=LINE('',#243,#51);
#48=LINE('',#302,#52);
#49=LINE('',#310,#53);
#50=VECTOR('',#162,11.5);
#51=VECTOR('',#167,12.7);
#52=VECTOR('',#174,25.4);
#53=VECTOR('',#185,23.9);
#54=CIRCLE('',#144,11.5);
#55=CIRCLE('',#146,12.7);
#56=CIRCLE('',#149,25.4);
#57=CIRCLE('',#150,25.4);
#58=CIRCLE('',#152,23.9);
#59=CIRCLE('',#154,23.9);
#60=VERTEX_POINT('',#190);
#61=VERTEX_POINT('',#192);
#62=VERTEX_POINT('',#194);
#63=VERTEX_POINT('',#240);
#64=VERTEX_POINT('',#242);
#65=VERTEX_POINT('',#244);
#66=VERTEX_POINT('',#299);
#67=VERTEX_POINT('',#301);
#68=VERTEX_POINT('',#305);
#69=VERTEX_POINT('',#308);
#70=EDGE_CURVE('',#60,#60,#54,.T.);
#71=EDGE_CURVE('',#60,#61,#46,.T.);
#72=EDGE_CURVE('',#62,#61,#42,.T.);
#73=EDGE_CURVE('',#61,#62,#43,.T.);
#74=EDGE_CURVE('',#63,#63,#55,.T.);
#75=EDGE_CURVE('',#63,#64,#47,.T.);
#76=EDGE_CURVE('',#65,#64,#44,.T.);
#77=EDGE_CURVE('',#64,#65,#45,.T.);
#78=EDGE_CURVE('',#66,#66,#56,.T.);
#79=EDGE_CURVE('',#66,#67,#48,.T.);
#80=EDGE_CURVE('',#67,#67,#57,.T.);
#81=EDGE_CURVE('',#68,#68,#58,.T.);
#82=EDGE_CURVE('',#69,#69,#59,.T.);
#83=EDGE_CURVE('',#69,#68,#49,.T.);
#84=ORIENTED_EDGE('',*,*,#70,.F.);
#85=ORIENTED_EDGE('',*,*,#71,.T.);
#86=ORIENTED_EDGE('',*,*,#72,.F.);
#87=ORIENTED_EDGE('',*,*,#73,.F.);
#88=ORIENTED_EDGE('',*,*,#71,.F.);
#89=ORIENTED_EDGE('',*,*,#74,.F.);
#90=ORIENTED_EDGE('',*,*,#75,.T.);
#91=ORIENTED_EDGE('',*,*,#76,.F.);
#92=ORIENTED_EDGE('',*,*,#77,.F.);
#93=ORIENTED_EDGE('',*,*,#75,.F.);
#94=ORIENTED_EDGE('',*,*,#74,.T.);
#95=ORIENTED_EDGE('',*,*,#70,.T.);
#96=ORIENTED_EDGE('',*,*,#78,.F.);
#97=ORIENTED_EDGE('',*,*,#79,.T.);
#98=ORIENTED_EDGE('',*,*,#80,.F.);
#99=ORIENTED_EDGE('',*,*,#79,.F.);
#100=ORIENTED_EDGE('',*,*,#76,.T.);
#101=ORIENTED_EDGE('',*,*,#77,.T.);
#102=ORIENTED_EDGE('',*,*,#80,.T.);
#103=ORIENTED_EDGE('',*,*,#81,.T.);
#104=ORIENTED_EDGE('',*,*,#82,.F.);
#105=ORIENTED_EDGE('',*,*,#83,.T.);
#106=ORIENTED_EDGE('',*,*,#81,.F.);
#107=ORIENTED_EDGE('',*,*,#83,.F.);
#108=ORIENTED_EDGE('',*,*,#72,.T.);
#109=ORIENTED_EDGE('',*,*,#73,.T.);
#110=ORIENTED_EDGE('',*,*,#78,.T.);
#111=ORIENTED_EDGE('',*,*,#82,.T.);
#112=CYLINDRICAL_SURFACE('',#143,11.5);
#113=CYLINDRICAL_SURFACE('',#145,12.7);
#114=CYLINDRICAL_SURFACE('',#148,25.4);
#115=CYLINDRICAL_SURFACE('',#153,23.9);
#116=ADVANCED_FACE('',(#23),#112,.F.);
#117=ADVANCED_FACE('',(#24),#113,.T.);
#118=ADVANCED_FACE('',(#25,#15),#20,.T.);
#119=ADVANCED_FACE('',(#26,#16),#114,.T.);
#120=ADVANCED_FACE('',(#27,#17),#21,.F.);
#121=ADVANCED_FACE('',(#28,#18),#115,.F.);
#122=ADVANCED_FACE('',(#29,#19),#22,.T.);
#123=CLOSED_SHELL('',(#116,#117,#118,#119,#120,#121,#122));
#124=DERIVED_UNIT_ELEMENT(#126,1.);
#125=DERIVED_UNIT_ELEMENT(#317,-3.);
#126=(
MASS_UNIT()
NAMED_UNIT(*)
SI_UNIT($,.GRAM.)
);
#127=DERIVED_UNIT((#124,#125));
#128=MEASURE_REPRESENTATION_ITEM('density measure',
POSITIVE_RATIO_MEASURE(1.),#127);
#129=PROPERTY_DEFINITION_REPRESENTATION(#134,#131);
#130=PROPERTY_DEFINITION_REPRESENTATION(#135,#132);
#131=REPRESENTATION('material name',(#133),#314);
#132=REPRESENTATION('density',(#128),#314);
#133=DESCRIPTIVE_REPRESENTATION_ITEM('\X2\4E00822C\X0\','\X2\4E00822C\X0\');
#134=PROPERTY_DEFINITION('material property','material name',#324);
#135=PROPERTY_DEFINITION('material property','density of part',#324);
#136=DATE_TIME_ROLE('creation_date');
#137=APPLIED_DATE_AND_TIME_ASSIGNMENT(#138,#136,(#324));
#138=DATE_AND_TIME(#139,#140);
#139=CALENDAR_DATE(2022,30,3);
#140=LOCAL_TIME(0,0,0.,#141);
#141=COORDINATED_UNIVERSAL_TIME_OFFSET(0,0,.BEHIND.);
#142=AXIS2_PLACEMENT_3D('placement',#188,#156,#157);
#143=AXIS2_PLACEMENT_3D('',#189,#158,#159);
#144=AXIS2_PLACEMENT_3D('',#191,#160,#161);
#145=AXIS2_PLACEMENT_3D('',#239,#163,#164);
#146=AXIS2_PLACEMENT_3D('',#241,#165,#166);
#147=AXIS2_PLACEMENT_3D('',#297,#168,#169);
#148=AXIS2_PLACEMENT_3D('',#298,#170,#171);
#149=AXIS2_PLACEMENT_3D('',#300,#172,#173);
#150=AXIS2_PLACEMENT_3D('',#303,#175,#176);
#151=AXIS2_PLACEMENT_3D('',#304,#177,#178);
#152=AXIS2_PLACEMENT_3D('',#306,#179,#180);
#153=AXIS2_PLACEMENT_3D('',#307,#181,#182);
#154=AXIS2_PLACEMENT_3D('',#309,#183,#184);
#155=AXIS2_PLACEMENT_3D('',#311,#186,#187);
#156=DIRECTION('axis',(0.,0.,1.));
#157=DIRECTION('refdir',(1.,0.,0.));
#158=DIRECTION('center_axis',(0.,0.,1.));
#159=DIRECTION('ref_axis',(-1.,0.,0.));
#160=DIRECTION('center_axis',(0.,0.,-1.));
#161=DIRECTION('ref_axis',(-1.,0.,0.));
#162=DIRECTION('',(0.,0.,-1.));
#163=DIRECTION('center_axis',(0.,0.,1.));
#164=DIRECTION('ref_axis',(1.,0.,0.));
#165=DIRECTION('center_axis',(0.,0.,1.));
#166=DIRECTION('ref_axis',(1.,0.,0.));
#167=DIRECTION('',(0.,0.,-1.));
#168=DIRECTION('center_axis',(0.,0.,1.));
#169=DIRECTION('ref_axis',(1.,0.,0.));
#170=DIRECTION('center_axis',(1.,0.,0.));
#171=DIRECTION('ref_axis',(0.,1.,0.));
#172=DIRECTION('center_axis',(1.,0.,0.));
#173=DIRECTION('ref_axis',(0.,1.,0.));
#174=DIRECTION('',(-1.,0.,0.));
#175=DIRECTION('center_axis',(-1.,0.,0.));
#176=DIRECTION('ref_axis',(0.,1.,0.));
#177=DIRECTION('center_axis',(1.,0.,0.));
#178=DIRECTION('ref_axis',(0.,0.,-1.));
#179=DIRECTION('center_axis',(1.,0.,0.));
#180=DIRECTION('ref_axis',(0.,-1.,0.));
#181=DIRECTION('center_axis',(1.,0.,0.));
#182=DIRECTION('ref_axis',(0.,-1.,0.));
#183=DIRECTION('center_axis',(-1.,0.,0.));
#184=DIRECTION('ref_axis',(0.,-1.,0.));
#185=DIRECTION('',(-1.,0.,0.));
#186=DIRECTION('center_axis',(1.,0.,0.));
#187=DIRECTION('ref_axis',(0.,0.,-1.));
#188=CARTESIAN_POINT('',(0.,0.,0.));
#189=CARTESIAN_POINT('Origin',(0.,0.,0.));
#190=CARTESIAN_POINT('',(11.5,1.40834381901946E-15,62.));
#191=CARTESIAN_POINT('Origin',(0.,0.,62.));
#192=CARTESIAN_POINT('',(11.5,9.81727665666017E-16,23.9));
#193=CARTESIAN_POINT('',(11.5,1.40834381901946E-15,0.));
#194=CARTESIAN_POINT('',(0.,-11.5,20.9513722700925));
#195=CARTESIAN_POINT('Ctrl Pts',(0.,-11.5,20.9513722700925));
#196=CARTESIAN_POINT('Ctrl Pts',(0.736347997571969,-11.5,20.9513722700925));
#197=CARTESIAN_POINT('Ctrl Pts',(1.49291722641914,-11.4281602638736,20.9913212782986));
#198=CARTESIAN_POINT('Ctrl Pts',(2.98899498531375,-11.1309279917789,21.1504339897688));
#199=CARTESIAN_POINT('Ctrl Pts',(3.72855328306786,-10.9056523660725,21.2693480179655));
#200=CARTESIAN_POINT('Ctrl Pts',(5.84633897569305,-10.0205713783868,21.7078732365685));
#201=CARTESIAN_POINT('Ctrl Pts',(7.12287082513802,-9.14058514215258,22.1090647469969));
#202=CARTESIAN_POINT('Ctrl Pts',(9.13827517647033,-7.12518079082026,22.8382918454464));
#203=CARTESIAN_POINT('Ctrl Pts',(10.0199688411591,-5.84784932455853,23.2181403906489));
#204=CARTESIAN_POINT('Ctrl Pts',(11.2014423554732,-3.02073042777239,23.7519383103342));
#205=CARTESIAN_POINT('Ctrl Pts',(11.5,-1.4693239843687,23.9));
#206=CARTESIAN_POINT('Ctrl Pts',(11.5,1.66533453693773E-15,23.9));
#207=CARTESIAN_POINT('Ctrl Pts',(11.5,5.55111512312578E-16,23.9));
#208=CARTESIAN_POINT('Ctrl Pts',(11.5,1.4693239843687,23.9));
#209=CARTESIAN_POINT('Ctrl Pts',(11.2014423554732,3.02073042777239,23.7519383103342));
#210=CARTESIAN_POINT('Ctrl Pts',(10.0199688411591,5.84784932455853,23.2181403906489));
#211=CARTESIAN_POINT('Ctrl Pts',(9.13827517647033,7.12518079082026,22.8382918454464));
#212=CARTESIAN_POINT('Ctrl Pts',(7.12287082513802,9.14058514215258,22.1090647469969));
#213=CARTESIAN_POINT('Ctrl Pts',(5.84633897569305,10.0205713783868,21.7078732365685));
#214=CARTESIAN_POINT('Ctrl Pts',(3.72855328306786,10.9056523660725,21.2693480179655));
#215=CARTESIAN_POINT('Ctrl Pts',(2.98899498531375,11.1309279917789,21.1504339897688));
#216=CARTESIAN_POINT('Ctrl Pts',(1.49291722641914,11.4281602638736,20.9913212782986));
#217=CARTESIAN_POINT('Ctrl Pts',(0.736347997571968,11.5,20.9513722700925));
#218=CARTESIAN_POINT('Ctrl Pts',(-0.736347997571968,11.5,20.9513722700925));
#219=CARTESIAN_POINT('Ctrl Pts',(-1.49291722641914,11.4281602638736,20.9913212782986));
#220=CARTESIAN_POINT('Ctrl Pts',(-2.98899498531375,11.1309279917789,21.1504339897688));
#221=CARTESIAN_POINT('Ctrl Pts',(-3.72855328306786,10.9056523660725,21.2693480179655));
#222=CARTESIAN_POINT('Ctrl Pts',(-5.84633897569305,10.0205713783868,21.7078732365685));
#223=CARTESIAN_POINT('Ctrl Pts',(-7.12287082513801,9.14058514215258,22.1090647469969));
#224=CARTESIAN_POINT('Ctrl Pts',(-9.13827517647033,7.12518079082026,22.8382918454464));
#225=CARTESIAN_POINT('Ctrl Pts',(-10.0199688411591,5.84784932455853,23.2181403906489));
#226=CARTESIAN_POINT('Ctrl Pts',(-11.2014423554732,3.02073042777239,23.7519383103342));
#227=CARTESIAN_POINT('Ctrl Pts',(-11.5,1.4693239843687,23.9));
#228=CARTESIAN_POINT('Ctrl Pts',(-11.5,-1.4693239843687,23.9));
#229=CARTESIAN_POINT('Ctrl Pts',(-11.2014423554732,-3.02073042777239,23.7519383103342));
#230=CARTESIAN_POINT('Ctrl Pts',(-10.0199688411591,-5.84784932455853,23.2181403906489));
#231=CARTESIAN_POINT('Ctrl Pts',(-9.13827517647033,-7.12518079082026,22.8382918454464));
#232=CARTESIAN_POINT('Ctrl Pts',(-7.12287082513802,-9.14058514215258,22.1090647469969));
#233=CARTESIAN_POINT('Ctrl Pts',(-5.84633897569305,-10.0205713783868,21.7078732365685));
#234=CARTESIAN_POINT('Ctrl Pts',(-3.72855328306787,-10.9056523660725,21.2693480179655));
#235=CARTESIAN_POINT('Ctrl Pts',(-2.98899498531375,-11.1309279917789,21.1504339897688));
#236=CARTESIAN_POINT('Ctrl Pts',(-1.49291722641915,-11.4281602638736,20.9913212782986));
#237=CARTESIAN_POINT('Ctrl Pts',(-0.73634799757197,-11.5,20.9513722700925));
#238=CARTESIAN_POINT('Ctrl Pts',(-1.38777878078145E-16,-11.5,20.9513722700925));
#239=CARTESIAN_POINT('Origin',(0.,0.,0.));
#240=CARTESIAN_POINT('',(-12.7,-1.55530143491714E-15,62.));
#241=CARTESIAN_POINT('Origin',(0.,0.,62.));
#242=CARTESIAN_POINT('',(-12.7,-1.67970692496651E-15,25.4));
#243=CARTESIAN_POINT('',(-12.7,-1.55530143491714E-15,0.));
#244=CARTESIAN_POINT('',(-2.77555756156289E-16,-12.7,21.9970452561247));
#245=CARTESIAN_POINT('Ctrl Pts',(-2.77555756156289E-16,-12.7,21.9970452561247));
#246=CARTESIAN_POINT('Ctrl Pts',(-0.814737175199119,-12.7,21.9970452561247));
#247=CARTESIAN_POINT('Ctrl Pts',(-1.65124547991619,-12.6203673024337,22.0436368960101));
#248=CARTESIAN_POINT('Ctrl Pts',(-3.3044182056001,-12.2915053175853,22.2286863157206));
#249=CARTESIAN_POINT('Ctrl Pts',(-4.12114416847013,-12.0424113455536,22.3668346170144));
#250=CARTESIAN_POINT('Ctrl Pts',(-6.45899596574933,-11.0646046136501,22.8751893582506));
#251=CARTESIAN_POINT('Ctrl Pts',(-7.86711322487417,-10.0933990172641,23.3387959378702));
#252=CARTESIAN_POINT('Ctrl Pts',(-10.0903645355988,-7.87014770653954,24.1791059478953));
#253=CARTESIAN_POINT('Ctrl Pts',(-11.0637965150422,-6.46100762805256,24.6159634812014));
#254=CARTESIAN_POINT('Ctrl Pts',(-12.042955332164,-4.11980375104449,25.0762793688403));
#255=CARTESIAN_POINT('Ctrl Pts',(-12.2921861396217,-3.30193460105,25.198162687445));
#256=CARTESIAN_POINT('Ctrl Pts',(-12.6207645191892,-1.64830675383888,25.3600721564293));
#257=CARTESIAN_POINT('Ctrl Pts',(-12.7,-0.812516162040175,25.4));
#258=CARTESIAN_POINT('Ctrl Pts',(-12.7,-2.77555756156289E-16,25.4));
#259=CARTESIAN_POINT('Ctrl Pts',(-12.7,-2.08166817117217E-15,25.4));
#260=CARTESIAN_POINT('Ctrl Pts',(-12.7,0.812516162040173,25.4));
#261=CARTESIAN_POINT('Ctrl Pts',(-12.6207645191892,1.64830675383887,25.3600721564293));
#262=CARTESIAN_POINT('Ctrl Pts',(-12.2921861396217,3.30193460105,25.198162687445));
#263=CARTESIAN_POINT('Ctrl Pts',(-12.042955332164,4.11980375104449,25.0762793688403));
#264=CARTESIAN_POINT('Ctrl Pts',(-11.0637965150422,6.46100762805256,24.6159634812014));
#265=CARTESIAN_POINT('Ctrl Pts',(-10.0903645355988,7.87014770653954,24.1791059478953));
#266=CARTESIAN_POINT('Ctrl Pts',(-7.86711322487417,10.0933990172641,23.3387959378702));
#267=CARTESIAN_POINT('Ctrl Pts',(-6.45899596574933,11.0646046136501,22.8751893582506));
#268=CARTESIAN_POINT('Ctrl Pts',(-4.12114416847013,12.0424113455536,22.3668346170144));
#269=CARTESIAN_POINT('Ctrl Pts',(-3.3044182056001,12.2915053175853,22.2286863157206));
#270=CARTESIAN_POINT('Ctrl Pts',(-1.65124547991619,12.6203673024337,22.0436368960101));
#271=CARTESIAN_POINT('Ctrl Pts',(-0.814737175199118,12.7,21.9970452561247));
#272=CARTESIAN_POINT('Ctrl Pts',(0.814737175199118,12.7,21.9970452561247));
#273=CARTESIAN_POINT('Ctrl Pts',(1.65124547991619,12.6203673024337,22.0436368960101));
#274=CARTESIAN_POINT('Ctrl Pts',(3.3044182056001,12.2915053175853,22.2286863157206));
#275=CARTESIAN_POINT('Ctrl Pts',(4.12114416847013,12.0424113455536,22.3668346170144));
#276=CARTESIAN_POINT('Ctrl Pts',(6.45899596574933,11.0646046136501,22.8751893582506));
#277=CARTESIAN_POINT('Ctrl Pts',(7.86711322487417,10.0933990172641,23.3387959378702));
#278=CARTESIAN_POINT('Ctrl Pts',(10.0903645355988,7.87014770653954,24.1791059478953));
#279=CARTESIAN_POINT('Ctrl Pts',(11.0637965150422,6.46100762805256,24.6159634812014));
#280=CARTESIAN_POINT('Ctrl Pts',(12.042955332164,4.11980375104449,25.0762793688403));
#281=CARTESIAN_POINT('Ctrl Pts',(12.2921861396217,3.30193460105,25.198162687445));
#282=CARTESIAN_POINT('Ctrl Pts',(12.6207645191892,1.64830675383888,25.3600721564293));
#283=CARTESIAN_POINT('Ctrl Pts',(12.7,0.812516162040178,25.4));
#284=CARTESIAN_POINT('Ctrl Pts',(12.7,-0.812516162040172,25.4));
#285=CARTESIAN_POINT('Ctrl Pts',(12.6207645191892,-1.64830675383887,25.3600721564293));
#286=CARTESIAN_POINT('Ctrl Pts',(12.2921861396217,-3.30193460105,25.198162687445));
#287=CARTESIAN_POINT('Ctrl Pts',(12.042955332164,-4.11980375104449,25.0762793688403));
#288=CARTESIAN_POINT('Ctrl Pts',(11.0637965150422,-6.46100762805256,24.6159634812014));
#289=CARTESIAN_POINT('Ctrl Pts',(10.0903645355988,-7.87014770653954,24.1791059478953));
#290=CARTESIAN_POINT('Ctrl Pts',(7.86711322487417,-10.0933990172641,23.3387959378702));
#291=CARTESIAN_POINT('Ctrl Pts',(6.45899596574933,-11.0646046136501,22.8751893582506));
#292=CARTESIAN_POINT('Ctrl Pts',(4.12114416847013,-12.0424113455536,22.3668346170144));
#293=CARTESIAN_POINT('Ctrl Pts',(3.3044182056001,-12.2915053175853,22.2286863157206));
#294=CARTESIAN_POINT('Ctrl Pts',(1.65124547991619,-12.6203673024337,22.0436368960101));
#295=CARTESIAN_POINT('Ctrl Pts',(0.814737175199118,-12.7,21.9970452561247));
#296=CARTESIAN_POINT('Ctrl Pts',(-2.77555756156289E-16,-12.7,21.9970452561247));
#297=CARTESIAN_POINT('Origin',(0.,0.,62.));
#298=CARTESIAN_POINT('Origin',(0.,0.,0.));
#299=CARTESIAN_POINT('',(62.,-25.4,-3.11060286983428E-15));
#300=CARTESIAN_POINT('Origin',(62.,0.,0.));
#301=CARTESIAN_POINT('',(-62.,-25.4,-3.11060286983428E-15));
#302=CARTESIAN_POINT('',(0.,-25.4,-3.11060286983428E-15));
#303=CARTESIAN_POINT('Origin',(-62.,0.,0.));
#304=CARTESIAN_POINT('Origin',(-62.,0.,0.));
#305=CARTESIAN_POINT('',(-62.,23.9,2.92690584996217E-15));
#306=CARTESIAN_POINT('Origin',(-62.,0.,0.));
#307=CARTESIAN_POINT('Origin',(0.,0.,0.));
#308=CARTESIAN_POINT('',(62.,23.9,2.92690584996217E-15));
#309=CARTESIAN_POINT('Origin',(62.,0.,0.));
#310=CARTESIAN_POINT('',(0.,23.9,2.92690584996217E-15));
#311=CARTESIAN_POINT('Origin',(62.,0.,0.));
#312=UNCERTAINTY_MEASURE_WITH_UNIT(LENGTH_MEASURE(0.01),#316,
'DISTANCE_ACCURACY_VALUE',
'Maximum model space distance between geometric entities at asserted c
onnectivities');
#313=UNCERTAINTY_MEASURE_WITH_UNIT(LENGTH_MEASURE(0.01),#316,
'DISTANCE_ACCURACY_VALUE',
'Maximum model space distance between geometric entities at asserted c
onnectivities');
#314=(
GEOMETRIC_REPRESENTATION_CONTEXT(3)
GLOBAL_UNCERTAINTY_ASSIGNED_CONTEXT((#312))
GLOBAL_UNIT_ASSIGNED_CONTEXT((#316,#318,#319))
REPRESENTATION_CONTEXT('','3D')
);
#315=(
GEOMETRIC_REPRESENTATION_CONTEXT(3)
GLOBAL_UNCERTAINTY_ASSIGNED_CONTEXT((#313))
GLOBAL_UNIT_ASSIGNED_CONTEXT((#316,#318,#319))
REPRESENTATION_CONTEXT('','3D')
);
#316=(
LENGTH_UNIT()
NAMED_UNIT(*)
SI_UNIT(.MILLI.,.METRE.)
);
#317=(
LENGTH_UNIT()
NAMED_UNIT(*)
SI_UNIT(.CENTI.,.METRE.)
);
#318=(
NAMED_UNIT(*)
PLANE_ANGLE_UNIT()
SI_UNIT($,.RADIAN.)
);
#319=(
NAMED_UNIT(*)
SI_UNIT($,.STERADIAN.)
SOLID_ANGLE_UNIT()
);
#320=SHAPE_DEFINITION_REPRESENTATION(#321,#322);
#321=PRODUCT_DEFINITION_SHAPE('',$,#324);
#322=SHAPE_REPRESENTATION('',(#142),#314);
#323=PRODUCT_DEFINITION_CONTEXT('part definition',#328,'design');
#324=PRODUCT_DEFINITION('D8(R) 20\X\D710','D8(R) 20\X\D710',#325,#323);
#325=PRODUCT_DEFINITION_FORMATION('',$,#330);
#326=PRODUCT_RELATED_PRODUCT_CATEGORY('D8(R) 20\X\D710','D8(R) 20\X\D7
10',(#330));
#327=APPLICATION_PROTOCOL_DEFINITION('international standard',
'automotive_design',2009,#328);
#328=APPLICATION_CONTEXT(
'Core Data for Automotive Mechanical Design Process');
#329=PRODUCT_CONTEXT('part definition',#328,'mechanical');
#330=PRODUCT('D8(R) 20\X\D710','D8(R) 20\X\D710',$,(#329));
#331=PRESENTATION_STYLE_ASSIGNMENT((#332));
#332=SURFACE_STYLE_USAGE(.BOTH.,#335);
#333=SURFACE_STYLE_RENDERING_WITH_PROPERTIES($,#339,(#334));
#334=SURFACE_STYLE_TRANSPARENT(0.);
#335=SURFACE_SIDE_STYLE('',(#336,#333));
#336=SURFACE_STYLE_FILL_AREA(#337);
#337=FILL_AREA_STYLE('',(#338));
#338=FILL_AREA_STYLE_COLOUR('',#339);
#339=COLOUR_RGB('',0.749019607843137,0.749019607843137,0.749019607843137);
ENDSEC;
END-ISO-10303-21;
