ISO-10303-21;
HEADER;
/* Generated by software containing ST-Developer
 * from STEP Tools, Inc. (www.steptools.com) 
 */

FILE_DESCRIPTION(
/* description */ (''),
/* implementation_level */ '2;1');

FILE_NAME(
/* name */ 
'\\\\Tske00\\w\\Work\\TOSTE\\\X2\7D99624B\X0\\\02_\X2\6EB663A5\X0\\\\X2\6EB663A5752830C130FC30BA\X0\\\
D8(R)\\D8(R) 20\X\D704.stp',
/* time_stamp */ '2022-04-12T17:07:45+09:00',
/* author */ ('3dcad-eng'),
/* organization */ (''),
/* preprocessor_version */ 'ST-DEVELOPER v18.1',
/* originating_system */ 'Autodesk Inventor 2022',
/* authorisation */ '');

FILE_SCHEMA (('AUTOMOTIVE_DESIGN { 1 0 10303 214 3 1 1 }'));
ENDSEC;

DATA;
#10=MECHANICAL_DESIGN_GEOMETRIC_PRESENTATION_REPRESENTATION('',(#13),#291);
#11=SHAPE_REPRESENTATION_RELATIONSHIP('SRR','None',#298,#12);
#12=ADVANCED_BREP_SHAPE_REPRESENTATION('',(#14),#290);
#13=STYLED_ITEM('',(#307),#14);
#14=MANIFOLD_SOLID_BREP('\X2\30BD30EA30C330C9\X0\1',#123);
#15=FACE_BOUND('',#33,.T.);
#16=FACE_BOUND('',#35,.T.);
#17=FACE_BOUND('',#37,.T.);
#18=FACE_BOUND('',#39,.T.);
#19=FACE_BOUND('',#41,.T.);
#20=PLANE('',#147);
#21=PLANE('',#151);
#22=PLANE('',#155);
#23=FACE_OUTER_BOUND('',#30,.T.);
#24=FACE_OUTER_BOUND('',#31,.T.);
#25=FACE_OUTER_BOUND('',#32,.T.);
#26=FACE_OUTER_BOUND('',#34,.T.);
#27=FACE_OUTER_BOUND('',#36,.T.);
#28=FACE_OUTER_BOUND('',#38,.T.);
#29=FACE_OUTER_BOUND('',#40,.T.);
#30=EDGE_LOOP('',(#84,#85,#86,#87,#88));
#31=EDGE_LOOP('',(#89,#90,#91,#92,#93));
#32=EDGE_LOOP('',(#94));
#33=EDGE_LOOP('',(#95));
#34=EDGE_LOOP('',(#96,#97,#98,#99));
#35=EDGE_LOOP('',(#100,#101));
#36=EDGE_LOOP('',(#102));
#37=EDGE_LOOP('',(#103));
#38=EDGE_LOOP('',(#104,#105,#106,#107));
#39=EDGE_LOOP('',(#108,#109));
#40=EDGE_LOOP('',(#110));
#41=EDGE_LOOP('',(#111));
#42=B_SPLINE_CURVE_WITH_KNOTS('',3,(#195,#196,#197,#198,#199,#200,#201,
#202,#203,#204),.UNSPECIFIED.,.F.,.F.,(4,2,2,2,4),(0.,0.350661706189886,
0.701323412379772,1.05168462355121,1.40204583472264),.UNSPECIFIED.);
#43=B_SPLINE_CURVE_WITH_KNOTS('',3,(#205,#206,#207,#208,#209,#210,#211,
#212,#213,#214,#215,#216,#217,#218,#219,#220,#221,#222,#223,#224,#225,#226,
#227,#228,#229,#230),.UNSPECIFIED.,.F.,.F.,(4,2,2,2,2,2,2,2,2,2,2,2,4),
(1.40204583472264,1.75240704589408,2.10276825706551,2.4534299632554,2.80409166944528,
3.15475337563517,3.50541508182506,3.85577629299649,4.20613750416793,4.55649871533936,
4.9068599265108,5.25752163270068,5.60818333889057),.UNSPECIFIED.);
#44=B_SPLINE_CURVE_WITH_KNOTS('',3,(#237,#238,#239,#240,#241,#242,#243,
#244,#245,#246),.UNSPECIFIED.,.F.,.F.,(4,2,2,2,4),(0.,0.414846751010616,
0.829693502021232,1.24398120595136,1.65826890988149),.UNSPECIFIED.);
#45=B_SPLINE_CURVE_WITH_KNOTS('',3,(#247,#248,#249,#250,#251,#252,#253,
#254,#255,#256,#257,#258,#259,#260,#261,#262,#263,#264,#265,#266,#267,#268,
#269,#270,#271,#272),.UNSPECIFIED.,.F.,.F.,(4,2,2,2,2,2,2,2,2,2,2,2,4),
(1.65826890988149,2.07255661381162,2.48684431774175,2.90169106875236,3.31653781976298,
3.73138457077359,4.14623132178421,4.56051902571434,4.97480672964447,5.38909443357459,
5.80338213750472,6.21822888851534,6.63307563952596),.UNSPECIFIED.);
#46=LINE('',#193,#50);
#47=LINE('',#235,#51);
#48=LINE('',#278,#52);
#49=LINE('',#286,#53);
#50=VECTOR('',#162,9.2);
#51=VECTOR('',#167,10.85);
#52=VECTOR('',#174,25.4);
#53=VECTOR('',#185,23.9);
#54=CIRCLE('',#144,9.2);
#55=CIRCLE('',#146,10.85);
#56=CIRCLE('',#149,25.4);
#57=CIRCLE('',#150,25.4);
#58=CIRCLE('',#152,23.9);
#59=CIRCLE('',#154,23.9);
#60=VERTEX_POINT('',#190);
#61=VERTEX_POINT('',#192);
#62=VERTEX_POINT('',#194);
#63=VERTEX_POINT('',#232);
#64=VERTEX_POINT('',#234);
#65=VERTEX_POINT('',#236);
#66=VERTEX_POINT('',#275);
#67=VERTEX_POINT('',#277);
#68=VERTEX_POINT('',#281);
#69=VERTEX_POINT('',#284);
#70=EDGE_CURVE('',#60,#60,#54,.T.);
#71=EDGE_CURVE('',#60,#61,#46,.T.);
#72=EDGE_CURVE('',#62,#61,#42,.T.);
#73=EDGE_CURVE('',#61,#62,#43,.T.);
#74=EDGE_CURVE('',#63,#63,#55,.T.);
#75=EDGE_CURVE('',#63,#64,#47,.T.);
#76=EDGE_CURVE('',#65,#64,#44,.T.);
#77=EDGE_CURVE('',#64,#65,#45,.T.);
#78=EDGE_CURVE('',#66,#66,#56,.T.);
#79=EDGE_CURVE('',#66,#67,#48,.T.);
#80=EDGE_CURVE('',#67,#67,#57,.T.);
#81=EDGE_CURVE('',#68,#68,#58,.T.);
#82=EDGE_CURVE('',#69,#69,#59,.T.);
#83=EDGE_CURVE('',#69,#68,#49,.T.);
#84=ORIENTED_EDGE('',*,*,#70,.F.);
#85=ORIENTED_EDGE('',*,*,#71,.T.);
#86=ORIENTED_EDGE('',*,*,#72,.F.);
#87=ORIENTED_EDGE('',*,*,#73,.F.);
#88=ORIENTED_EDGE('',*,*,#71,.F.);
#89=ORIENTED_EDGE('',*,*,#74,.F.);
#90=ORIENTED_EDGE('',*,*,#75,.T.);
#91=ORIENTED_EDGE('',*,*,#76,.F.);
#92=ORIENTED_EDGE('',*,*,#77,.F.);
#93=ORIENTED_EDGE('',*,*,#75,.F.);
#94=ORIENTED_EDGE('',*,*,#74,.T.);
#95=ORIENTED_EDGE('',*,*,#70,.T.);
#96=ORIENTED_EDGE('',*,*,#78,.F.);
#97=ORIENTED_EDGE('',*,*,#79,.T.);
#98=ORIENTED_EDGE('',*,*,#80,.F.);
#99=ORIENTED_EDGE('',*,*,#79,.F.);
#100=ORIENTED_EDGE('',*,*,#76,.T.);
#101=ORIENTED_EDGE('',*,*,#77,.T.);
#102=ORIENTED_EDGE('',*,*,#80,.T.);
#103=ORIENTED_EDGE('',*,*,#81,.T.);
#104=ORIENTED_EDGE('',*,*,#82,.F.);
#105=ORIENTED_EDGE('',*,*,#83,.T.);
#106=ORIENTED_EDGE('',*,*,#81,.F.);
#107=ORIENTED_EDGE('',*,*,#83,.F.);
#108=ORIENTED_EDGE('',*,*,#72,.T.);
#109=ORIENTED_EDGE('',*,*,#73,.T.);
#110=ORIENTED_EDGE('',*,*,#78,.T.);
#111=ORIENTED_EDGE('',*,*,#82,.T.);
#112=CYLINDRICAL_SURFACE('',#143,9.2);
#113=CYLINDRICAL_SURFACE('',#145,10.85);
#114=CYLINDRICAL_SURFACE('',#148,25.4);
#115=CYLINDRICAL_SURFACE('',#153,23.9);
#116=ADVANCED_FACE('',(#23),#112,.F.);
#117=ADVANCED_FACE('',(#24),#113,.T.);
#118=ADVANCED_FACE('',(#25,#15),#20,.T.);
#119=ADVANCED_FACE('',(#26,#16),#114,.T.);
#120=ADVANCED_FACE('',(#27,#17),#21,.F.);
#121=ADVANCED_FACE('',(#28,#18),#115,.F.);
#122=ADVANCED_FACE('',(#29,#19),#22,.T.);
#123=CLOSED_SHELL('',(#116,#117,#118,#119,#120,#121,#122));
#124=DERIVED_UNIT_ELEMENT(#126,1.);
#125=DERIVED_UNIT_ELEMENT(#293,-3.);
#126=(
MASS_UNIT()
NAMED_UNIT(*)
SI_UNIT($,.GRAM.)
);
#127=DERIVED_UNIT((#124,#125));
#128=MEASURE_REPRESENTATION_ITEM('density measure',
POSITIVE_RATIO_MEASURE(1.),#127);
#129=PROPERTY_DEFINITION_REPRESENTATION(#134,#131);
#130=PROPERTY_DEFINITION_REPRESENTATION(#135,#132);
#131=REPRESENTATION('material name',(#133),#290);
#132=REPRESENTATION('density',(#128),#290);
#133=DESCRIPTIVE_REPRESENTATION_ITEM('\X2\4E00822C\X0\','\X2\4E00822C\X0\');
#134=PROPERTY_DEFINITION('material property','material name',#300);
#135=PROPERTY_DEFINITION('material property','density of part',#300);
#136=DATE_TIME_ROLE('creation_date');
#137=APPLIED_DATE_AND_TIME_ASSIGNMENT(#138,#136,(#300));
#138=DATE_AND_TIME(#139,#140);
#139=CALENDAR_DATE(2022,30,3);
#140=LOCAL_TIME(0,0,0.,#141);
#141=COORDINATED_UNIVERSAL_TIME_OFFSET(0,0,.BEHIND.);
#142=AXIS2_PLACEMENT_3D('placement',#188,#156,#157);
#143=AXIS2_PLACEMENT_3D('',#189,#158,#159);
#144=AXIS2_PLACEMENT_3D('',#191,#160,#161);
#145=AXIS2_PLACEMENT_3D('',#231,#163,#164);
#146=AXIS2_PLACEMENT_3D('',#233,#165,#166);
#147=AXIS2_PLACEMENT_3D('',#273,#168,#169);
#148=AXIS2_PLACEMENT_3D('',#274,#170,#171);
#149=AXIS2_PLACEMENT_3D('',#276,#172,#173);
#150=AXIS2_PLACEMENT_3D('',#279,#175,#176);
#151=AXIS2_PLACEMENT_3D('',#280,#177,#178);
#152=AXIS2_PLACEMENT_3D('',#282,#179,#180);
#153=AXIS2_PLACEMENT_3D('',#283,#181,#182);
#154=AXIS2_PLACEMENT_3D('',#285,#183,#184);
#155=AXIS2_PLACEMENT_3D('',#287,#186,#187);
#156=DIRECTION('axis',(0.,0.,1.));
#157=DIRECTION('refdir',(1.,0.,0.));
#158=DIRECTION('center_axis',(0.,0.,1.));
#159=DIRECTION('ref_axis',(-1.,0.,0.));
#160=DIRECTION('center_axis',(0.,0.,-1.));
#161=DIRECTION('ref_axis',(-1.,0.,0.));
#162=DIRECTION('',(0.,0.,-1.));
#163=DIRECTION('center_axis',(0.,0.,1.));
#164=DIRECTION('ref_axis',(1.,0.,0.));
#165=DIRECTION('center_axis',(0.,0.,1.));
#166=DIRECTION('ref_axis',(1.,0.,0.));
#167=DIRECTION('',(0.,0.,-1.));
#168=DIRECTION('center_axis',(0.,0.,1.));
#169=DIRECTION('ref_axis',(1.,0.,0.));
#170=DIRECTION('center_axis',(1.,0.,0.));
#171=DIRECTION('ref_axis',(0.,1.,0.));
#172=DIRECTION('center_axis',(1.,0.,0.));
#173=DIRECTION('ref_axis',(0.,1.,0.));
#174=DIRECTION('',(-1.,0.,0.));
#175=DIRECTION('center_axis',(-1.,0.,0.));
#176=DIRECTION('ref_axis',(0.,1.,0.));
#177=DIRECTION('center_axis',(1.,0.,0.));
#178=DIRECTION('ref_axis',(0.,0.,-1.));
#179=DIRECTION('center_axis',(1.,0.,0.));
#180=DIRECTION('ref_axis',(0.,-1.,0.));
#181=DIRECTION('center_axis',(1.,0.,0.));
#182=DIRECTION('ref_axis',(0.,-1.,0.));
#183=DIRECTION('center_axis',(-1.,0.,0.));
#184=DIRECTION('ref_axis',(0.,-1.,0.));
#185=DIRECTION('',(-1.,0.,0.));
#186=DIRECTION('center_axis',(1.,0.,0.));
#187=DIRECTION('ref_axis',(0.,0.,-1.));
#188=CARTESIAN_POINT('',(0.,0.,0.));
#189=CARTESIAN_POINT('Origin',(0.,0.,0.));
#190=CARTESIAN_POINT('',(9.2,1.12667505521557E-15,62.));
#191=CARTESIAN_POINT('Origin',(0.,0.,62.));
#192=CARTESIAN_POINT('',(9.2,1.47003893373349E-16,23.9));
#193=CARTESIAN_POINT('',(9.2,1.12667505521557E-15,0.));
#194=CARTESIAN_POINT('',(-2.77555756156289E-16,-9.2,22.0583317592242));
#195=CARTESIAN_POINT('Ctrl Pts',(2.77555756156289E-16,-9.2,22.0583317592242));
#196=CARTESIAN_POINT('Ctrl Pts',(1.16887235396629,-9.2,22.0583317592242));
#197=CARTESIAN_POINT('Ctrl Pts',(2.40619866165694,-8.96391758623162,22.1610530546774));
#198=CARTESIAN_POINT('Ctrl Pts',(4.66860513672593,-8.02158067594643,22.5192876869264));
#199=CARTESIAN_POINT('Ctrl Pts',(5.69491847336247,-7.31584630047,22.7683509225546));
#200=CARTESIAN_POINT('Ctrl Pts',(7.31515178389075,-5.69561298994172,23.2266697607205));
#201=CARTESIAN_POINT('Ctrl Pts',(8.02141488327983,-4.66903334184045,23.4674155630717));
#202=CARTESIAN_POINT('Ctrl Pts',(8.96415384014542,-2.40560128772164,23.8061451750217));
#203=CARTESIAN_POINT('Ctrl Pts',(9.2,-1.16787070390478,23.9));
#204=CARTESIAN_POINT('Ctrl Pts',(9.2,2.77555756156289E-16,23.9));
#205=CARTESIAN_POINT('Ctrl Pts',(9.2,-2.77555756156289E-16,23.9));
#206=CARTESIAN_POINT('Ctrl Pts',(9.2,1.16787070390478,23.9));
#207=CARTESIAN_POINT('Ctrl Pts',(8.96415384014542,2.40560128772164,23.8061451750217));
#208=CARTESIAN_POINT('Ctrl Pts',(8.02141488327983,4.66903334184045,23.4674155630717));
#209=CARTESIAN_POINT('Ctrl Pts',(7.31515178389075,5.69561298994172,23.2266697607205));
#210=CARTESIAN_POINT('Ctrl Pts',(5.69491847336247,7.31584630047,22.7683509225546));
#211=CARTESIAN_POINT('Ctrl Pts',(4.66860513672593,8.02158067594643,22.5192876869264));
#212=CARTESIAN_POINT('Ctrl Pts',(2.40619866165694,8.96391758623162,22.1610530546774));
#213=CARTESIAN_POINT('Ctrl Pts',(1.16887235396629,9.2,22.0583317592242));
#214=CARTESIAN_POINT('Ctrl Pts',(-1.16887235396629,9.2,22.0583317592242));
#215=CARTESIAN_POINT('Ctrl Pts',(-2.40619866165693,8.96391758623162,22.1610530546774));
#216=CARTESIAN_POINT('Ctrl Pts',(-4.66860513672593,8.02158067594643,22.5192876869264));
#217=CARTESIAN_POINT('Ctrl Pts',(-5.69491847336247,7.31584630047,22.7683509225546));
#218=CARTESIAN_POINT('Ctrl Pts',(-7.31515178389075,5.69561298994172,23.2266697607205));
#219=CARTESIAN_POINT('Ctrl Pts',(-8.02141488327983,4.66903334184045,23.4674155630717));
#220=CARTESIAN_POINT('Ctrl Pts',(-8.96415384014542,2.40560128772164,23.8061451750217));
#221=CARTESIAN_POINT('Ctrl Pts',(-9.2,1.16787070390478,23.9));
#222=CARTESIAN_POINT('Ctrl Pts',(-9.2,-1.16787070390478,23.9));
#223=CARTESIAN_POINT('Ctrl Pts',(-8.96415384014542,-2.40560128772164,23.8061451750217));
#224=CARTESIAN_POINT('Ctrl Pts',(-8.02141488327983,-4.66903334184045,23.4674155630717));
#225=CARTESIAN_POINT('Ctrl Pts',(-7.31515178389075,-5.69561298994172,23.2266697607205));
#226=CARTESIAN_POINT('Ctrl Pts',(-5.69491847336247,-7.31584630047,22.7683509225546));
#227=CARTESIAN_POINT('Ctrl Pts',(-4.66860513672593,-8.02158067594643,22.5192876869264));
#228=CARTESIAN_POINT('Ctrl Pts',(-2.40619866165694,-8.96391758623162,22.1610530546774));
#229=CARTESIAN_POINT('Ctrl Pts',(-1.16887235396629,-9.2,22.0583317592242));
#230=CARTESIAN_POINT('Ctrl Pts',(2.77555756156289E-16,-9.2,22.0583317592242));
#231=CARTESIAN_POINT('Origin',(0.,0.,0.));
#232=CARTESIAN_POINT('',(-10.85,-1.32874177707488E-15,62.));
#233=CARTESIAN_POINT('Origin',(0.,0.,62.));
#234=CARTESIAN_POINT('',(-10.85,-1.35826027892816E-15,25.4));
#235=CARTESIAN_POINT('',(-10.85,-1.32874177707488E-15,0.));
#236=CARTESIAN_POINT('',(5.55111512312578E-16,-10.85,22.9660074893308));
#237=CARTESIAN_POINT('Ctrl Pts',(5.55111512312578E-16,-10.85,22.9660074893308));
#238=CARTESIAN_POINT('Ctrl Pts',(-1.38282250336872,-10.85,22.9660074893308));
#239=CARTESIAN_POINT('Ctrl Pts',(-2.84337791041917,-10.5699887421981,23.1041451968597));
#240=CARTESIAN_POINT('Ctrl Pts',(-5.5100006450747,-9.4577686636815,23.5812800801131));
#241=CARTESIAN_POINT('Ctrl Pts',(-6.71796004026679,-8.62625711148129,23.9112836730787));
#242=CARTESIAN_POINT('Ctrl Pts',(-8.62497130183741,-6.71924584991067,24.5155223405456));
#243=CARTESIAN_POINT('Ctrl Pts',(-9.45745063496161,-5.51081223937513,24.8318478948889));
#244=CARTESIAN_POINT('Ctrl Pts',(-10.5704212504102,-2.84229183893819,25.276690821151));
#245=CARTESIAN_POINT('Ctrl Pts',(-10.85,-1.38095901310043,25.4));
#246=CARTESIAN_POINT('Ctrl Pts',(-10.85,-1.66533453693773E-15,25.4));
#247=CARTESIAN_POINT('Ctrl Pts',(-10.85,-1.66533453693773E-15,25.4));
#248=CARTESIAN_POINT('Ctrl Pts',(-10.85,1.38095901310043,25.4));
#249=CARTESIAN_POINT('Ctrl Pts',(-10.5704212504102,2.84229183893818,25.276690821151));
#250=CARTESIAN_POINT('Ctrl Pts',(-9.45745063496162,5.51081223937513,24.8318478948889));
#251=CARTESIAN_POINT('Ctrl Pts',(-8.62497130183741,6.71924584991067,24.5155223405456));
#252=CARTESIAN_POINT('Ctrl Pts',(-6.71796004026679,8.62625711148129,23.9112836730787));
#253=CARTESIAN_POINT('Ctrl Pts',(-5.5100006450747,9.4577686636815,23.5812800801131));
#254=CARTESIAN_POINT('Ctrl Pts',(-2.84337791041918,10.5699887421981,23.1041451968597));
#255=CARTESIAN_POINT('Ctrl Pts',(-1.38282250336872,10.85,22.9660074893308));
#256=CARTESIAN_POINT('Ctrl Pts',(1.38282250336872,10.85,22.9660074893308));
#257=CARTESIAN_POINT('Ctrl Pts',(2.84337791041917,10.5699887421981,23.1041451968597));
#258=CARTESIAN_POINT('Ctrl Pts',(5.5100006450747,9.4577686636815,23.5812800801131));
#259=CARTESIAN_POINT('Ctrl Pts',(6.71796004026679,8.62625711148129,23.9112836730787));
#260=CARTESIAN_POINT('Ctrl Pts',(8.62497130183741,6.71924584991067,24.5155223405456));
#261=CARTESIAN_POINT('Ctrl Pts',(9.45745063496162,5.51081223937513,24.8318478948889));
#262=CARTESIAN_POINT('Ctrl Pts',(10.5704212504102,2.84229183893818,25.276690821151));
#263=CARTESIAN_POINT('Ctrl Pts',(10.85,1.38095901310043,25.4));
#264=CARTESIAN_POINT('Ctrl Pts',(10.85,-1.38095901310043,25.4));
#265=CARTESIAN_POINT('Ctrl Pts',(10.5704212504102,-2.84229183893818,25.276690821151));
#266=CARTESIAN_POINT('Ctrl Pts',(9.45745063496162,-5.51081223937513,24.8318478948889));
#267=CARTESIAN_POINT('Ctrl Pts',(8.62497130183741,-6.71924584991067,24.5155223405456));
#268=CARTESIAN_POINT('Ctrl Pts',(6.71796004026679,-8.62625711148129,23.9112836730787));
#269=CARTESIAN_POINT('Ctrl Pts',(5.5100006450747,-9.4577686636815,23.5812800801131));
#270=CARTESIAN_POINT('Ctrl Pts',(2.84337791041918,-10.5699887421981,23.1041451968597));
#271=CARTESIAN_POINT('Ctrl Pts',(1.38282250336872,-10.85,22.9660074893308));
#272=CARTESIAN_POINT('Ctrl Pts',(-5.55111512312578E-16,-10.85,22.9660074893308));
#273=CARTESIAN_POINT('Origin',(0.,0.,62.));
#274=CARTESIAN_POINT('Origin',(0.,0.,0.));
#275=CARTESIAN_POINT('',(62.,-25.4,-3.11060286983428E-15));
#276=CARTESIAN_POINT('Origin',(62.,0.,0.));
#277=CARTESIAN_POINT('',(-62.,-25.4,-3.11060286983428E-15));
#278=CARTESIAN_POINT('',(0.,-25.4,-3.11060286983428E-15));
#279=CARTESIAN_POINT('Origin',(-62.,0.,0.));
#280=CARTESIAN_POINT('Origin',(-62.,0.,0.));
#281=CARTESIAN_POINT('',(-62.,23.9,2.92690584996217E-15));
#282=CARTESIAN_POINT('Origin',(-62.,0.,0.));
#283=CARTESIAN_POINT('Origin',(0.,0.,0.));
#284=CARTESIAN_POINT('',(62.,23.9,2.92690584996217E-15));
#285=CARTESIAN_POINT('Origin',(62.,0.,0.));
#286=CARTESIAN_POINT('',(0.,23.9,2.92690584996217E-15));
#287=CARTESIAN_POINT('Origin',(62.,0.,0.));
#288=UNCERTAINTY_MEASURE_WITH_UNIT(LENGTH_MEASURE(0.01),#292,
'DISTANCE_ACCURACY_VALUE',
'Maximum model space distance between geometric entities at asserted c
onnectivities');
#289=UNCERTAINTY_MEASURE_WITH_UNIT(LENGTH_MEASURE(0.01),#292,
'DISTANCE_ACCURACY_VALUE',
'Maximum model space distance between geometric entities at asserted c
onnectivities');
#290=(
GEOMETRIC_REPRESENTATION_CONTEXT(3)
GLOBAL_UNCERTAINTY_ASSIGNED_CONTEXT((#288))
GLOBAL_UNIT_ASSIGNED_CONTEXT((#292,#294,#295))
REPRESENTATION_CONTEXT('','3D')
);
#291=(
GEOMETRIC_REPRESENTATION_CONTEXT(3)
GLOBAL_UNCERTAINTY_ASSIGNED_CONTEXT((#289))
GLOBAL_UNIT_ASSIGNED_CONTEXT((#292,#294,#295))
REPRESENTATION_CONTEXT('','3D')
);
#292=(
LENGTH_UNIT()
NAMED_UNIT(*)
SI_UNIT(.MILLI.,.METRE.)
);
#293=(
LENGTH_UNIT()
NAMED_UNIT(*)
SI_UNIT(.CENTI.,.METRE.)
);
#294=(
NAMED_UNIT(*)
PLANE_ANGLE_UNIT()
SI_UNIT($,.RADIAN.)
);
#295=(
NAMED_UNIT(*)
SI_UNIT($,.STERADIAN.)
SOLID_ANGLE_UNIT()
);
#296=SHAPE_DEFINITION_REPRESENTATION(#297,#298);
#297=PRODUCT_DEFINITION_SHAPE('',$,#300);
#298=SHAPE_REPRESENTATION('',(#142),#290);
#299=PRODUCT_DEFINITION_CONTEXT('part definition',#304,'design');
#300=PRODUCT_DEFINITION('D8(R) 20\X\D704','D8(R) 20\X\D704',#301,#299);
#301=PRODUCT_DEFINITION_FORMATION('',$,#306);
#302=PRODUCT_RELATED_PRODUCT_CATEGORY('D8(R) 20\X\D704','D8(R) 20\X\D7
04',(#306));
#303=APPLICATION_PROTOCOL_DEFINITION('international standard',
'automotive_design',2009,#304);
#304=APPLICATION_CONTEXT(
'Core Data for Automotive Mechanical Design Process');
#305=PRODUCT_CONTEXT('part definition',#304,'mechanical');
#306=PRODUCT('D8(R) 20\X\D704','D8(R) 20\X\D704',$,(#305));
#307=PRESENTATION_STYLE_ASSIGNMENT((#308));
#308=SURFACE_STYLE_USAGE(.BOTH.,#311);
#309=SURFACE_STYLE_RENDERING_WITH_PROPERTIES($,#315,(#310));
#310=SURFACE_STYLE_TRANSPARENT(0.);
#311=SURFACE_SIDE_STYLE('',(#312,#309));
#312=SURFACE_STYLE_FILL_AREA(#313);
#313=FILL_AREA_STYLE('',(#314));
#314=FILL_AREA_STYLE_COLOUR('',#315);
#315=COLOUR_RGB('',0.749019607843137,0.749019607843137,0.749019607843137);
ENDSEC;
END-ISO-10303-21;
