ISO-10303-21;
HEADER;
/* Generated by software containing ST-Developer
 * from STEP Tools, Inc. (www.steptools.com) 
 */

FILE_DESCRIPTION(
/* description */ (''),
/* implementation_level */ '2;1');

FILE_NAME(
/* name */ 
'\\\\Tske00\\w\\Work\\TOSTE\\\X2\7D99624B\X0\\\02_\X2\6EB663A5\X0\\\\X2\6EB663A5752830C130FC30BA\X0\\\
D8(R)\\D8(R) 20\X\D703.stp',
/* time_stamp */ '2022-04-12T17:07:44+09:00',
/* author */ ('3dcad-eng'),
/* organization */ (''),
/* preprocessor_version */ 'ST-DEVELOPER v18.1',
/* originating_system */ 'Autodesk Inventor 2022',
/* authorisation */ '');

FILE_SCHEMA (('AUTOMOTIVE_DESIGN { 1 0 10303 214 3 1 1 }'));
ENDSEC;

DATA;
#10=MECHANICAL_DESIGN_GEOMETRIC_PRESENTATION_REPRESENTATION('',(#13),#291);
#11=SHAPE_REPRESENTATION_RELATIONSHIP('SRR','None',#298,#12);
#12=ADVANCED_BREP_SHAPE_REPRESENTATION('',(#14),#290);
#13=STYLED_ITEM('',(#307),#14);
#14=MANIFOLD_SOLID_BREP('\X2\30BD30EA30C330C9\X0\1',#123);
#15=FACE_BOUND('',#33,.T.);
#16=FACE_BOUND('',#35,.T.);
#17=FACE_BOUND('',#37,.T.);
#18=FACE_BOUND('',#39,.T.);
#19=FACE_BOUND('',#41,.T.);
#20=PLANE('',#147);
#21=PLANE('',#151);
#22=PLANE('',#155);
#23=FACE_OUTER_BOUND('',#30,.T.);
#24=FACE_OUTER_BOUND('',#31,.T.);
#25=FACE_OUTER_BOUND('',#32,.T.);
#26=FACE_OUTER_BOUND('',#34,.T.);
#27=FACE_OUTER_BOUND('',#36,.T.);
#28=FACE_OUTER_BOUND('',#38,.T.);
#29=FACE_OUTER_BOUND('',#40,.T.);
#30=EDGE_LOOP('',(#84,#85,#86,#87,#88));
#31=EDGE_LOOP('',(#89,#90,#91,#92,#93));
#32=EDGE_LOOP('',(#94));
#33=EDGE_LOOP('',(#95));
#34=EDGE_LOOP('',(#96,#97,#98,#99));
#35=EDGE_LOOP('',(#100,#101));
#36=EDGE_LOOP('',(#102));
#37=EDGE_LOOP('',(#103));
#38=EDGE_LOOP('',(#104,#105,#106,#107));
#39=EDGE_LOOP('',(#108,#109));
#40=EDGE_LOOP('',(#110));
#41=EDGE_LOOP('',(#111));
#42=B_SPLINE_CURVE_WITH_KNOTS('',3,(#195,#196,#197,#198,#199,#200,#201,
#202,#203,#204),.UNSPECIFIED.,.F.,.F.,(4,2,2,2,4),(0.,0.265403478886014,
0.530806957772029,0.796138908669942,1.06147085956786),.UNSPECIFIED.);
#43=B_SPLINE_CURVE_WITH_KNOTS('',3,(#205,#206,#207,#208,#209,#210,#211,
#212,#213,#214,#215,#216,#217,#218,#219,#220,#221,#222,#223,#224,#225,#226,
#227,#228,#229,#230),.UNSPECIFIED.,.F.,.F.,(4,2,2,2,2,2,2,2,2,2,2,2,4),
(1.06147085956786,1.32680281046577,1.59213476136368,1.8575382402497,2.12294171913571,
2.38834519802172,2.65374867690774,2.91908062780565,3.18441257870357,3.44974452960148,
3.71507648049939,3.98047995938541,4.24588343827142),.UNSPECIFIED.);
#44=B_SPLINE_CURVE_WITH_KNOTS('',3,(#237,#238,#239,#240,#241,#242,#243,
#244,#245,#246),.UNSPECIFIED.,.F.,.F.,(4,2,2,2,4),(0.,0.328780977538431,
0.657561955076862,0.986175977558556,1.31479000004025),.UNSPECIFIED.);
#45=B_SPLINE_CURVE_WITH_KNOTS('',3,(#247,#248,#249,#250,#251,#252,#253,
#254,#255,#256,#257,#258,#259,#260,#261,#262,#263,#264,#265,#266,#267,#268,
#269,#270,#271,#272),.UNSPECIFIED.,.F.,.F.,(4,2,2,2,2,2,2,2,2,2,2,2,4),
(1.31479000004025,1.64340402252194,1.97201804500364,2.30079902254207,2.6295800000805,
2.95836097761893,3.28714195515736,3.61575597763906,3.94437000012075,4.27298402260244,
4.60159804508414,4.93037902262257,5.259160000161),.UNSPECIFIED.);
#46=LINE('',#193,#50);
#47=LINE('',#235,#51);
#48=LINE('',#278,#52);
#49=LINE('',#286,#53);
#50=VECTOR('',#162,7.);
#51=VECTOR('',#167,8.65);
#52=VECTOR('',#174,25.4);
#53=VECTOR('',#185,23.9);
#54=CIRCLE('',#144,7.);
#55=CIRCLE('',#146,8.65);
#56=CIRCLE('',#149,25.4);
#57=CIRCLE('',#150,25.4);
#58=CIRCLE('',#152,23.9);
#59=CIRCLE('',#154,23.9);
#60=VERTEX_POINT('',#190);
#61=VERTEX_POINT('',#192);
#62=VERTEX_POINT('',#194);
#63=VERTEX_POINT('',#232);
#64=VERTEX_POINT('',#234);
#65=VERTEX_POINT('',#236);
#66=VERTEX_POINT('',#275);
#67=VERTEX_POINT('',#277);
#68=VERTEX_POINT('',#281);
#69=VERTEX_POINT('',#284);
#70=EDGE_CURVE('',#60,#60,#54,.T.);
#71=EDGE_CURVE('',#60,#61,#46,.T.);
#72=EDGE_CURVE('',#62,#61,#42,.T.);
#73=EDGE_CURVE('',#61,#62,#43,.T.);
#74=EDGE_CURVE('',#63,#63,#55,.T.);
#75=EDGE_CURVE('',#63,#64,#47,.T.);
#76=EDGE_CURVE('',#65,#64,#44,.T.);
#77=EDGE_CURVE('',#64,#65,#45,.T.);
#78=EDGE_CURVE('',#66,#66,#56,.T.);
#79=EDGE_CURVE('',#66,#67,#48,.T.);
#80=EDGE_CURVE('',#67,#67,#57,.T.);
#81=EDGE_CURVE('',#68,#68,#58,.T.);
#82=EDGE_CURVE('',#69,#69,#59,.T.);
#83=EDGE_CURVE('',#69,#68,#49,.T.);
#84=ORIENTED_EDGE('',*,*,#70,.F.);
#85=ORIENTED_EDGE('',*,*,#71,.T.);
#86=ORIENTED_EDGE('',*,*,#72,.F.);
#87=ORIENTED_EDGE('',*,*,#73,.F.);
#88=ORIENTED_EDGE('',*,*,#71,.F.);
#89=ORIENTED_EDGE('',*,*,#74,.F.);
#90=ORIENTED_EDGE('',*,*,#75,.T.);
#91=ORIENTED_EDGE('',*,*,#76,.F.);
#92=ORIENTED_EDGE('',*,*,#77,.F.);
#93=ORIENTED_EDGE('',*,*,#75,.F.);
#94=ORIENTED_EDGE('',*,*,#74,.T.);
#95=ORIENTED_EDGE('',*,*,#70,.T.);
#96=ORIENTED_EDGE('',*,*,#78,.F.);
#97=ORIENTED_EDGE('',*,*,#79,.T.);
#98=ORIENTED_EDGE('',*,*,#80,.F.);
#99=ORIENTED_EDGE('',*,*,#79,.F.);
#100=ORIENTED_EDGE('',*,*,#76,.T.);
#101=ORIENTED_EDGE('',*,*,#77,.T.);
#102=ORIENTED_EDGE('',*,*,#80,.T.);
#103=ORIENTED_EDGE('',*,*,#81,.T.);
#104=ORIENTED_EDGE('',*,*,#82,.F.);
#105=ORIENTED_EDGE('',*,*,#83,.T.);
#106=ORIENTED_EDGE('',*,*,#81,.F.);
#107=ORIENTED_EDGE('',*,*,#83,.F.);
#108=ORIENTED_EDGE('',*,*,#72,.T.);
#109=ORIENTED_EDGE('',*,*,#73,.T.);
#110=ORIENTED_EDGE('',*,*,#78,.T.);
#111=ORIENTED_EDGE('',*,*,#82,.T.);
#112=CYLINDRICAL_SURFACE('',#143,7.);
#113=CYLINDRICAL_SURFACE('',#145,8.65);
#114=CYLINDRICAL_SURFACE('',#148,25.4);
#115=CYLINDRICAL_SURFACE('',#153,23.9);
#116=ADVANCED_FACE('',(#23),#112,.F.);
#117=ADVANCED_FACE('',(#24),#113,.T.);
#118=ADVANCED_FACE('',(#25,#15),#20,.T.);
#119=ADVANCED_FACE('',(#26,#16),#114,.T.);
#120=ADVANCED_FACE('',(#27,#17),#21,.F.);
#121=ADVANCED_FACE('',(#28,#18),#115,.F.);
#122=ADVANCED_FACE('',(#29,#19),#22,.T.);
#123=CLOSED_SHELL('',(#116,#117,#118,#119,#120,#121,#122));
#124=DERIVED_UNIT_ELEMENT(#126,1.);
#125=DERIVED_UNIT_ELEMENT(#293,-3.);
#126=(
MASS_UNIT()
NAMED_UNIT(*)
SI_UNIT($,.GRAM.)
);
#127=DERIVED_UNIT((#124,#125));
#128=MEASURE_REPRESENTATION_ITEM('density measure',
POSITIVE_RATIO_MEASURE(1.),#127);
#129=PROPERTY_DEFINITION_REPRESENTATION(#134,#131);
#130=PROPERTY_DEFINITION_REPRESENTATION(#135,#132);
#131=REPRESENTATION('material name',(#133),#290);
#132=REPRESENTATION('density',(#128),#290);
#133=DESCRIPTIVE_REPRESENTATION_ITEM('\X2\4E00822C\X0\','\X2\4E00822C\X0\');
#134=PROPERTY_DEFINITION('material property','material name',#300);
#135=PROPERTY_DEFINITION('material property','density of part',#300);
#136=DATE_TIME_ROLE('creation_date');
#137=APPLIED_DATE_AND_TIME_ASSIGNMENT(#138,#136,(#300));
#138=DATE_AND_TIME(#139,#140);
#139=CALENDAR_DATE(2022,30,3);
#140=LOCAL_TIME(0,0,0.,#141);
#141=COORDINATED_UNIVERSAL_TIME_OFFSET(0,0,.BEHIND.);
#142=AXIS2_PLACEMENT_3D('placement',#188,#156,#157);
#143=AXIS2_PLACEMENT_3D('',#189,#158,#159);
#144=AXIS2_PLACEMENT_3D('',#191,#160,#161);
#145=AXIS2_PLACEMENT_3D('',#231,#163,#164);
#146=AXIS2_PLACEMENT_3D('',#233,#165,#166);
#147=AXIS2_PLACEMENT_3D('',#273,#168,#169);
#148=AXIS2_PLACEMENT_3D('',#274,#170,#171);
#149=AXIS2_PLACEMENT_3D('',#276,#172,#173);
#150=AXIS2_PLACEMENT_3D('',#279,#175,#176);
#151=AXIS2_PLACEMENT_3D('',#280,#177,#178);
#152=AXIS2_PLACEMENT_3D('',#282,#179,#180);
#153=AXIS2_PLACEMENT_3D('',#283,#181,#182);
#154=AXIS2_PLACEMENT_3D('',#285,#183,#184);
#155=AXIS2_PLACEMENT_3D('',#287,#186,#187);
#156=DIRECTION('axis',(0.,0.,1.));
#157=DIRECTION('refdir',(1.,0.,0.));
#158=DIRECTION('center_axis',(0.,0.,1.));
#159=DIRECTION('ref_axis',(-1.,0.,0.));
#160=DIRECTION('center_axis',(0.,0.,-1.));
#161=DIRECTION('ref_axis',(-1.,0.,0.));
#162=DIRECTION('',(0.,0.,-1.));
#163=DIRECTION('center_axis',(0.,0.,1.));
#164=DIRECTION('ref_axis',(1.,0.,0.));
#165=DIRECTION('center_axis',(0.,0.,1.));
#166=DIRECTION('ref_axis',(1.,0.,0.));
#167=DIRECTION('',(0.,0.,-1.));
#168=DIRECTION('center_axis',(0.,0.,1.));
#169=DIRECTION('ref_axis',(1.,0.,0.));
#170=DIRECTION('center_axis',(1.,0.,0.));
#171=DIRECTION('ref_axis',(0.,1.,0.));
#172=DIRECTION('center_axis',(1.,0.,0.));
#173=DIRECTION('ref_axis',(0.,1.,0.));
#174=DIRECTION('',(-1.,0.,0.));
#175=DIRECTION('center_axis',(-1.,0.,0.));
#176=DIRECTION('ref_axis',(0.,1.,0.));
#177=DIRECTION('center_axis',(1.,0.,0.));
#178=DIRECTION('ref_axis',(0.,0.,-1.));
#179=DIRECTION('center_axis',(1.,0.,0.));
#180=DIRECTION('ref_axis',(0.,-1.,0.));
#181=DIRECTION('center_axis',(1.,0.,0.));
#182=DIRECTION('ref_axis',(0.,-1.,0.));
#183=DIRECTION('center_axis',(-1.,0.,0.));
#184=DIRECTION('ref_axis',(0.,-1.,0.));
#185=DIRECTION('',(-1.,0.,0.));
#186=DIRECTION('center_axis',(1.,0.,0.));
#187=DIRECTION('ref_axis',(0.,0.,-1.));
#188=CARTESIAN_POINT('',(0.,0.,0.));
#189=CARTESIAN_POINT('Origin',(0.,0.,0.));
#190=CARTESIAN_POINT('',(7.,8.57252759403147E-16,62.));
#191=CARTESIAN_POINT('Origin',(0.,0.,62.));
#192=CARTESIAN_POINT('',(7.,1.51070623545285E-16,23.9));
#193=CARTESIAN_POINT('',(7.,8.57252759403147E-16,0.));
#194=CARTESIAN_POINT('',(0.,-7.,22.851914580621));
#195=CARTESIAN_POINT('Ctrl Pts',(0.,-7.,22.851914580621));
#196=CARTESIAN_POINT('Ctrl Pts',(0.884678262953381,-7.,22.851914580621));
#197=CARTESIAN_POINT('Ctrl Pts',(1.82450395935248,-6.82213019978396,22.9086619052755));
#198=CARTESIAN_POINT('Ctrl Pts',(3.54745879838116,-6.10621138487159,23.1097907400549));
#199=CARTESIAN_POINT('Ctrl Pts',(4.33107825842234,-5.56841667818933,23.2508632040995));
#200=CARTESIAN_POINT('Ctrl Pts',(5.56824994275666,-4.331244993855,23.5127626049426));
#201=CARTESIAN_POINT('Ctrl Pts',(6.10617390581753,-3.54755751915462,23.6511455760114));
#202=CARTESIAN_POINT('Ctrl Pts',(6.82218797466813,-1.82435639370785,23.8460389817369));
#203=CARTESIAN_POINT('Ctrl Pts',(7.,-0.884439836326377,23.9));
#204=CARTESIAN_POINT('Ctrl Pts',(7.,-2.77555756156289E-16,23.9));
#205=CARTESIAN_POINT('Ctrl Pts',(7.,-5.55111512312578E-16,23.9));
#206=CARTESIAN_POINT('Ctrl Pts',(7.,0.884439836326376,23.9));
#207=CARTESIAN_POINT('Ctrl Pts',(6.82218797466814,1.82435639370785,23.8460389817369));
#208=CARTESIAN_POINT('Ctrl Pts',(6.10617390581754,3.54755751915462,23.6511455760114));
#209=CARTESIAN_POINT('Ctrl Pts',(5.56824994275666,4.331244993855,23.5127626049426));
#210=CARTESIAN_POINT('Ctrl Pts',(4.33107825842234,5.56841667818933,23.2508632040995));
#211=CARTESIAN_POINT('Ctrl Pts',(3.54745879838116,6.10621138487159,23.1097907400549));
#212=CARTESIAN_POINT('Ctrl Pts',(1.82450395935248,6.82213019978396,22.9086619052755));
#213=CARTESIAN_POINT('Ctrl Pts',(0.884678262953382,7.,22.851914580621));
#214=CARTESIAN_POINT('Ctrl Pts',(-0.884678262953381,7.,22.851914580621));
#215=CARTESIAN_POINT('Ctrl Pts',(-1.82450395935248,6.82213019978396,22.9086619052755));
#216=CARTESIAN_POINT('Ctrl Pts',(-3.54745879838116,6.10621138487159,23.1097907400549));
#217=CARTESIAN_POINT('Ctrl Pts',(-4.33107825842234,5.56841667818933,23.2508632040995));
#218=CARTESIAN_POINT('Ctrl Pts',(-5.56824994275666,4.331244993855,23.5127626049426));
#219=CARTESIAN_POINT('Ctrl Pts',(-6.10617390581753,3.54755751915462,23.6511455760114));
#220=CARTESIAN_POINT('Ctrl Pts',(-6.82218797466813,1.82435639370785,23.8460389817369));
#221=CARTESIAN_POINT('Ctrl Pts',(-7.,0.884439836326378,23.9));
#222=CARTESIAN_POINT('Ctrl Pts',(-7.,-0.884439836326376,23.9));
#223=CARTESIAN_POINT('Ctrl Pts',(-6.82218797466814,-1.82435639370785,23.8460389817369));
#224=CARTESIAN_POINT('Ctrl Pts',(-6.10617390581754,-3.54755751915461,23.6511455760114));
#225=CARTESIAN_POINT('Ctrl Pts',(-5.56824994275666,-4.331244993855,23.5127626049426));
#226=CARTESIAN_POINT('Ctrl Pts',(-4.33107825842234,-5.56841667818933,23.2508632040995));
#227=CARTESIAN_POINT('Ctrl Pts',(-3.54745879838116,-6.10621138487159,23.1097907400549));
#228=CARTESIAN_POINT('Ctrl Pts',(-1.82450395935248,-6.82213019978396,22.9086619052755));
#229=CARTESIAN_POINT('Ctrl Pts',(-0.884678262953383,-7.,22.851914580621));
#230=CARTESIAN_POINT('Ctrl Pts',(-2.77555756156289E-16,-7.,22.851914580621));
#231=CARTESIAN_POINT('Origin',(0.,0.,0.));
#232=CARTESIAN_POINT('',(-8.65,-1.05931948126246E-15,62.));
#233=CARTESIAN_POINT('Origin',(0.,0.,62.));
#234=CARTESIAN_POINT('',(-8.65,-1.08477125294381E-15,25.4));
#235=CARTESIAN_POINT('',(-8.65,-1.05931948126246E-15,0.));
#236=CARTESIAN_POINT('',(0.,-8.65,23.8817398863651));
#237=CARTESIAN_POINT('Ctrl Pts',(0.,-8.65,23.8817398863651));
#238=CARTESIAN_POINT('Ctrl Pts',(-1.09593659179477,-8.65,23.8817398863651));
#239=CARTESIAN_POINT('Ctrl Pts',(-2.25827170329272,-8.42917282168322,23.9651100215695));
#240=CARTESIAN_POINT('Ctrl Pts',(-4.38646631714945,-7.54384995547841,24.2583546337248));
#241=CARTESIAN_POINT('Ctrl Pts',(-5.35318687175807,-6.87976044276921,24.4631839004332));
#242=CARTESIAN_POINT('Ctrl Pts',(-6.87937284556229,-5.35357446896498,24.8418413718129));
#243=CARTESIAN_POINT('Ctrl Pts',(-7.5437603327761,-4.38670027177317,25.0413556548739));
#244=CARTESIAN_POINT('Ctrl Pts',(-8.42930595917983,-2.25793314420863,25.322211005632));
#245=CARTESIAN_POINT('Ctrl Pts',(-8.65,-1.09538007493898,25.4));
#246=CARTESIAN_POINT('Ctrl Pts',(-8.65,-1.94289029309402E-15,25.4));
#247=CARTESIAN_POINT('Ctrl Pts',(-8.65,-1.11022302462516E-15,25.4));
#248=CARTESIAN_POINT('Ctrl Pts',(-8.65,1.09538007493898,25.4));
#249=CARTESIAN_POINT('Ctrl Pts',(-8.42930595917983,2.25793314420862,25.322211005632));
#250=CARTESIAN_POINT('Ctrl Pts',(-7.54376033277611,4.38670027177317,25.0413556548739));
#251=CARTESIAN_POINT('Ctrl Pts',(-6.87937284556229,5.35357446896498,24.8418413718129));
#252=CARTESIAN_POINT('Ctrl Pts',(-5.35318687175807,6.87976044276921,24.4631839004332));
#253=CARTESIAN_POINT('Ctrl Pts',(-4.38646631714945,7.5438499554784,24.2583546337248));
#254=CARTESIAN_POINT('Ctrl Pts',(-2.25827170329272,8.42917282168322,23.9651100215695));
#255=CARTESIAN_POINT('Ctrl Pts',(-1.09593659179477,8.65,23.8817398863651));
#256=CARTESIAN_POINT('Ctrl Pts',(1.09593659179477,8.65,23.8817398863651));
#257=CARTESIAN_POINT('Ctrl Pts',(2.25827170329272,8.42917282168322,23.9651100215695));
#258=CARTESIAN_POINT('Ctrl Pts',(4.38646631714945,7.54384995547841,24.2583546337248));
#259=CARTESIAN_POINT('Ctrl Pts',(5.35318687175807,6.87976044276921,24.4631839004332));
#260=CARTESIAN_POINT('Ctrl Pts',(6.87937284556229,5.35357446896498,24.8418413718129));
#261=CARTESIAN_POINT('Ctrl Pts',(7.5437603327761,4.38670027177317,25.0413556548739));
#262=CARTESIAN_POINT('Ctrl Pts',(8.42930595917983,2.25793314420862,25.322211005632));
#263=CARTESIAN_POINT('Ctrl Pts',(8.65,1.09538007493898,25.4));
#264=CARTESIAN_POINT('Ctrl Pts',(8.65,-1.09538007493898,25.4));
#265=CARTESIAN_POINT('Ctrl Pts',(8.42930595917983,-2.25793314420863,25.322211005632));
#266=CARTESIAN_POINT('Ctrl Pts',(7.5437603327761,-4.38670027177317,25.0413556548739));
#267=CARTESIAN_POINT('Ctrl Pts',(6.87937284556229,-5.35357446896498,24.8418413718129));
#268=CARTESIAN_POINT('Ctrl Pts',(5.35318687175807,-6.87976044276921,24.4631839004332));
#269=CARTESIAN_POINT('Ctrl Pts',(4.38646631714945,-7.54384995547841,24.2583546337248));
#270=CARTESIAN_POINT('Ctrl Pts',(2.25827170329271,-8.42917282168322,23.9651100215695));
#271=CARTESIAN_POINT('Ctrl Pts',(1.09593659179477,-8.65,23.8817398863651));
#272=CARTESIAN_POINT('Ctrl Pts',(-2.77555756156289E-16,-8.65,23.8817398863651));
#273=CARTESIAN_POINT('Origin',(0.,0.,62.));
#274=CARTESIAN_POINT('Origin',(0.,0.,0.));
#275=CARTESIAN_POINT('',(62.,-25.4,-3.11060286983428E-15));
#276=CARTESIAN_POINT('Origin',(62.,0.,0.));
#277=CARTESIAN_POINT('',(-62.,-25.4,-3.11060286983428E-15));
#278=CARTESIAN_POINT('',(0.,-25.4,-3.11060286983428E-15));
#279=CARTESIAN_POINT('Origin',(-62.,0.,0.));
#280=CARTESIAN_POINT('Origin',(-62.,0.,0.));
#281=CARTESIAN_POINT('',(-62.,23.9,2.92690584996217E-15));
#282=CARTESIAN_POINT('Origin',(-62.,0.,0.));
#283=CARTESIAN_POINT('Origin',(0.,0.,0.));
#284=CARTESIAN_POINT('',(62.,23.9,2.92690584996217E-15));
#285=CARTESIAN_POINT('Origin',(62.,0.,0.));
#286=CARTESIAN_POINT('',(0.,23.9,2.92690584996217E-15));
#287=CARTESIAN_POINT('Origin',(62.,0.,0.));
#288=UNCERTAINTY_MEASURE_WITH_UNIT(LENGTH_MEASURE(0.01),#292,
'DISTANCE_ACCURACY_VALUE',
'Maximum model space distance between geometric entities at asserted c
onnectivities');
#289=UNCERTAINTY_MEASURE_WITH_UNIT(LENGTH_MEASURE(0.01),#292,
'DISTANCE_ACCURACY_VALUE',
'Maximum model space distance between geometric entities at asserted c
onnectivities');
#290=(
GEOMETRIC_REPRESENTATION_CONTEXT(3)
GLOBAL_UNCERTAINTY_ASSIGNED_CONTEXT((#288))
GLOBAL_UNIT_ASSIGNED_CONTEXT((#292,#294,#295))
REPRESENTATION_CONTEXT('','3D')
);
#291=(
GEOMETRIC_REPRESENTATION_CONTEXT(3)
GLOBAL_UNCERTAINTY_ASSIGNED_CONTEXT((#289))
GLOBAL_UNIT_ASSIGNED_CONTEXT((#292,#294,#295))
REPRESENTATION_CONTEXT('','3D')
);
#292=(
LENGTH_UNIT()
NAMED_UNIT(*)
SI_UNIT(.MILLI.,.METRE.)
);
#293=(
LENGTH_UNIT()
NAMED_UNIT(*)
SI_UNIT(.CENTI.,.METRE.)
);
#294=(
NAMED_UNIT(*)
PLANE_ANGLE_UNIT()
SI_UNIT($,.RADIAN.)
);
#295=(
NAMED_UNIT(*)
SI_UNIT($,.STERADIAN.)
SOLID_ANGLE_UNIT()
);
#296=SHAPE_DEFINITION_REPRESENTATION(#297,#298);
#297=PRODUCT_DEFINITION_SHAPE('',$,#300);
#298=SHAPE_REPRESENTATION('',(#142),#290);
#299=PRODUCT_DEFINITION_CONTEXT('part definition',#304,'design');
#300=PRODUCT_DEFINITION('D8(R) 20\X\D703','D8(R) 20\X\D703',#301,#299);
#301=PRODUCT_DEFINITION_FORMATION('',$,#306);
#302=PRODUCT_RELATED_PRODUCT_CATEGORY('D8(R) 20\X\D703','D8(R) 20\X\D7
03',(#306));
#303=APPLICATION_PROTOCOL_DEFINITION('international standard',
'automotive_design',2009,#304);
#304=APPLICATION_CONTEXT(
'Core Data for Automotive Mechanical Design Process');
#305=PRODUCT_CONTEXT('part definition',#304,'mechanical');
#306=PRODUCT('D8(R) 20\X\D703','D8(R) 20\X\D703',$,(#305));
#307=PRESENTATION_STYLE_ASSIGNMENT((#308));
#308=SURFACE_STYLE_USAGE(.BOTH.,#311);
#309=SURFACE_STYLE_RENDERING_WITH_PROPERTIES($,#315,(#310));
#310=SURFACE_STYLE_TRANSPARENT(0.);
#311=SURFACE_SIDE_STYLE('',(#312,#309));
#312=SURFACE_STYLE_FILL_AREA(#313);
#313=FILL_AREA_STYLE('',(#314));
#314=FILL_AREA_STYLE_COLOUR('',#315);
#315=COLOUR_RGB('',0.749019607843137,0.749019607843137,0.749019607843137);
ENDSEC;
END-ISO-10303-21;
