ISO-10303-21;
HEADER;
/* Generated by software containing ST-Developer
 * from STEP Tools, Inc. (www.steptools.com) 
 */

FILE_DESCRIPTION(
/* description */ (''),
/* implementation_level */ '2;1');

FILE_NAME(
/* name */ 
'\\\\Tske00\\w\\Work\\TOSTE\\\X2\7D99624B\X0\\\02_\X2\6EB663A5\X0\\\\X2\6EB663A5752830C130FC30BA\X0\\\
D8(R)\\D8(R) 15\X\D702.stp',
/* time_stamp */ '2022-04-12T17:07:42+09:00',
/* author */ ('3dcad-eng'),
/* organization */ (''),
/* preprocessor_version */ 'ST-DEVELOPER v18.1',
/* originating_system */ 'Autodesk Inventor 2022',
/* authorisation */ '');

FILE_SCHEMA (('AUTOMOTIVE_DESIGN { 1 0 10303 214 3 1 1 }'));
ENDSEC;

DATA;
#10=MECHANICAL_DESIGN_GEOMETRIC_PRESENTATION_REPRESENTATION('',(#13),#291);
#11=SHAPE_REPRESENTATION_RELATIONSHIP('SRR','None',#298,#12);
#12=ADVANCED_BREP_SHAPE_REPRESENTATION('',(#14),#290);
#13=STYLED_ITEM('',(#307),#14);
#14=MANIFOLD_SOLID_BREP('\X2\30BD30EA30C330C9\X0\1',#123);
#15=FACE_BOUND('',#33,.T.);
#16=FACE_BOUND('',#35,.T.);
#17=FACE_BOUND('',#37,.T.);
#18=FACE_BOUND('',#39,.T.);
#19=FACE_BOUND('',#41,.T.);
#20=PLANE('',#147);
#21=PLANE('',#151);
#22=PLANE('',#155);
#23=FACE_OUTER_BOUND('',#30,.T.);
#24=FACE_OUTER_BOUND('',#31,.T.);
#25=FACE_OUTER_BOUND('',#32,.T.);
#26=FACE_OUTER_BOUND('',#34,.T.);
#27=FACE_OUTER_BOUND('',#36,.T.);
#28=FACE_OUTER_BOUND('',#38,.T.);
#29=FACE_OUTER_BOUND('',#40,.T.);
#30=EDGE_LOOP('',(#84,#85,#86,#87,#88));
#31=EDGE_LOOP('',(#89,#90,#91,#92,#93));
#32=EDGE_LOOP('',(#94));
#33=EDGE_LOOP('',(#95));
#34=EDGE_LOOP('',(#96,#97,#98,#99));
#35=EDGE_LOOP('',(#100,#101));
#36=EDGE_LOOP('',(#102));
#37=EDGE_LOOP('',(#103));
#38=EDGE_LOOP('',(#104,#105,#106,#107));
#39=EDGE_LOOP('',(#108,#109));
#40=EDGE_LOOP('',(#110));
#41=EDGE_LOOP('',(#111));
#42=B_SPLINE_CURVE_WITH_KNOTS('',3,(#195,#196,#197,#198,#199,#200,#201,
#202,#203,#204),.UNSPECIFIED.,.F.,.F.,(4,2,2,2,4),(0.,0.199064216839963,
0.398128433679927,0.597138054818489,0.796147675957052),.UNSPECIFIED.);
#43=B_SPLINE_CURVE_WITH_KNOTS('',3,(#205,#206,#207,#208,#209,#210,#211,
#212,#213,#214,#215,#216,#217,#218,#219,#220,#221,#222,#223,#224,#225,#226,
#227,#228,#229,#230),.UNSPECIFIED.,.F.,.F.,(4,2,2,2,2,2,2,2,2,2,2,2,4),
(0.796147675957052,0.995157297095614,1.19416691823418,1.39323113507414,
1.5922953519141,1.79135956875407,1.99042378559403,2.18943340673259,2.38844302787115,
2.58745264900972,2.78646227014828,2.98552648698824,3.18459070382821),
 .UNSPECIFIED.);
#44=B_SPLINE_CURVE_WITH_KNOTS('',3,(#237,#238,#239,#240,#241,#242,#243,
#244,#245,#246),.UNSPECIFIED.,.F.,.F.,(4,2,2,2,4),(0.,0.262605588413942,
0.525211176827885,0.787643443044174,1.05007570926046),.UNSPECIFIED.);
#45=B_SPLINE_CURVE_WITH_KNOTS('',3,(#247,#248,#249,#250,#251,#252,#253,
#254,#255,#256,#257,#258,#259,#260,#261,#262,#263,#264,#265,#266,#267,#268,
#269,#270,#271,#272),.UNSPECIFIED.,.F.,.F.,(4,2,2,2,2,2,2,2,2,2,2,2,4),
(1.05007570926046,1.31250797547675,1.57494024169304,1.83754583010699,2.10015141852093,
2.36275700693487,2.62536259534881,2.8877948615651,3.15022712778139,3.41265939399768,
3.67509166021397,3.93769724862792,4.20030283704186),.UNSPECIFIED.);
#46=LINE('',#193,#50);
#47=LINE('',#235,#51);
#48=LINE('',#278,#52);
#49=LINE('',#286,#53);
#50=VECTOR('',#162,5.25);
#51=VECTOR('',#167,6.9);
#52=VECTOR('',#174,19.05);
#53=VECTOR('',#185,17.85);
#54=CIRCLE('',#144,5.25);
#55=CIRCLE('',#146,6.9);
#56=CIRCLE('',#149,19.05);
#57=CIRCLE('',#150,19.05);
#58=CIRCLE('',#152,17.85);
#59=CIRCLE('',#154,17.85);
#60=VERTEX_POINT('',#190);
#61=VERTEX_POINT('',#192);
#62=VERTEX_POINT('',#194);
#63=VERTEX_POINT('',#232);
#64=VERTEX_POINT('',#234);
#65=VERTEX_POINT('',#236);
#66=VERTEX_POINT('',#275);
#67=VERTEX_POINT('',#277);
#68=VERTEX_POINT('',#281);
#69=VERTEX_POINT('',#284);
#70=EDGE_CURVE('',#60,#60,#54,.T.);
#71=EDGE_CURVE('',#60,#61,#46,.T.);
#72=EDGE_CURVE('',#62,#61,#42,.T.);
#73=EDGE_CURVE('',#61,#62,#43,.T.);
#74=EDGE_CURVE('',#63,#63,#55,.T.);
#75=EDGE_CURVE('',#63,#64,#47,.T.);
#76=EDGE_CURVE('',#65,#64,#44,.T.);
#77=EDGE_CURVE('',#64,#65,#45,.T.);
#78=EDGE_CURVE('',#66,#66,#56,.T.);
#79=EDGE_CURVE('',#66,#67,#48,.T.);
#80=EDGE_CURVE('',#67,#67,#57,.T.);
#81=EDGE_CURVE('',#68,#68,#58,.T.);
#82=EDGE_CURVE('',#69,#69,#59,.T.);
#83=EDGE_CURVE('',#69,#68,#49,.T.);
#84=ORIENTED_EDGE('',*,*,#70,.F.);
#85=ORIENTED_EDGE('',*,*,#71,.T.);
#86=ORIENTED_EDGE('',*,*,#72,.F.);
#87=ORIENTED_EDGE('',*,*,#73,.F.);
#88=ORIENTED_EDGE('',*,*,#71,.F.);
#89=ORIENTED_EDGE('',*,*,#74,.F.);
#90=ORIENTED_EDGE('',*,*,#75,.T.);
#91=ORIENTED_EDGE('',*,*,#76,.F.);
#92=ORIENTED_EDGE('',*,*,#77,.F.);
#93=ORIENTED_EDGE('',*,*,#75,.F.);
#94=ORIENTED_EDGE('',*,*,#74,.T.);
#95=ORIENTED_EDGE('',*,*,#70,.T.);
#96=ORIENTED_EDGE('',*,*,#78,.F.);
#97=ORIENTED_EDGE('',*,*,#79,.T.);
#98=ORIENTED_EDGE('',*,*,#80,.F.);
#99=ORIENTED_EDGE('',*,*,#79,.F.);
#100=ORIENTED_EDGE('',*,*,#76,.T.);
#101=ORIENTED_EDGE('',*,*,#77,.T.);
#102=ORIENTED_EDGE('',*,*,#80,.T.);
#103=ORIENTED_EDGE('',*,*,#81,.T.);
#104=ORIENTED_EDGE('',*,*,#82,.F.);
#105=ORIENTED_EDGE('',*,*,#83,.T.);
#106=ORIENTED_EDGE('',*,*,#81,.F.);
#107=ORIENTED_EDGE('',*,*,#83,.F.);
#108=ORIENTED_EDGE('',*,*,#72,.T.);
#109=ORIENTED_EDGE('',*,*,#73,.T.);
#110=ORIENTED_EDGE('',*,*,#78,.T.);
#111=ORIENTED_EDGE('',*,*,#82,.T.);
#112=CYLINDRICAL_SURFACE('',#143,5.25);
#113=CYLINDRICAL_SURFACE('',#145,6.9);
#114=CYLINDRICAL_SURFACE('',#148,19.05);
#115=CYLINDRICAL_SURFACE('',#153,17.85);
#116=ADVANCED_FACE('',(#23),#112,.F.);
#117=ADVANCED_FACE('',(#24),#113,.T.);
#118=ADVANCED_FACE('',(#25,#15),#20,.T.);
#119=ADVANCED_FACE('',(#26,#16),#114,.T.);
#120=ADVANCED_FACE('',(#27,#17),#21,.F.);
#121=ADVANCED_FACE('',(#28,#18),#115,.F.);
#122=ADVANCED_FACE('',(#29,#19),#22,.T.);
#123=CLOSED_SHELL('',(#116,#117,#118,#119,#120,#121,#122));
#124=DERIVED_UNIT_ELEMENT(#126,1.);
#125=DERIVED_UNIT_ELEMENT(#293,-3.);
#126=(
MASS_UNIT()
NAMED_UNIT(*)
SI_UNIT($,.GRAM.)
);
#127=DERIVED_UNIT((#124,#125));
#128=MEASURE_REPRESENTATION_ITEM('density measure',
POSITIVE_RATIO_MEASURE(1.),#127);
#129=PROPERTY_DEFINITION_REPRESENTATION(#134,#131);
#130=PROPERTY_DEFINITION_REPRESENTATION(#135,#132);
#131=REPRESENTATION('material name',(#133),#290);
#132=REPRESENTATION('density',(#128),#290);
#133=DESCRIPTIVE_REPRESENTATION_ITEM('\X2\4E00822C\X0\','\X2\4E00822C\X0\');
#134=PROPERTY_DEFINITION('material property','material name',#300);
#135=PROPERTY_DEFINITION('material property','density of part',#300);
#136=DATE_TIME_ROLE('creation_date');
#137=APPLIED_DATE_AND_TIME_ASSIGNMENT(#138,#136,(#300));
#138=DATE_AND_TIME(#139,#140);
#139=CALENDAR_DATE(2022,30,3);
#140=LOCAL_TIME(0,0,0.,#141);
#141=COORDINATED_UNIVERSAL_TIME_OFFSET(0,0,.BEHIND.);
#142=AXIS2_PLACEMENT_3D('placement',#188,#156,#157);
#143=AXIS2_PLACEMENT_3D('',#189,#158,#159);
#144=AXIS2_PLACEMENT_3D('',#191,#160,#161);
#145=AXIS2_PLACEMENT_3D('',#231,#163,#164);
#146=AXIS2_PLACEMENT_3D('',#233,#165,#166);
#147=AXIS2_PLACEMENT_3D('',#273,#168,#169);
#148=AXIS2_PLACEMENT_3D('',#274,#170,#171);
#149=AXIS2_PLACEMENT_3D('',#276,#172,#173);
#150=AXIS2_PLACEMENT_3D('',#279,#175,#176);
#151=AXIS2_PLACEMENT_3D('',#280,#177,#178);
#152=AXIS2_PLACEMENT_3D('',#282,#179,#180);
#153=AXIS2_PLACEMENT_3D('',#283,#181,#182);
#154=AXIS2_PLACEMENT_3D('',#285,#183,#184);
#155=AXIS2_PLACEMENT_3D('',#287,#186,#187);
#156=DIRECTION('axis',(0.,0.,1.));
#157=DIRECTION('refdir',(1.,0.,0.));
#158=DIRECTION('center_axis',(0.,0.,1.));
#159=DIRECTION('ref_axis',(-1.,0.,0.));
#160=DIRECTION('center_axis',(0.,0.,-1.));
#161=DIRECTION('ref_axis',(-1.,0.,0.));
#162=DIRECTION('',(0.,0.,-1.));
#163=DIRECTION('center_axis',(0.,0.,1.));
#164=DIRECTION('ref_axis',(1.,0.,0.));
#165=DIRECTION('center_axis',(0.,0.,1.));
#166=DIRECTION('ref_axis',(1.,0.,0.));
#167=DIRECTION('',(0.,0.,-1.));
#168=DIRECTION('center_axis',(0.,0.,1.));
#169=DIRECTION('ref_axis',(1.,0.,0.));
#170=DIRECTION('center_axis',(1.,0.,0.));
#171=DIRECTION('ref_axis',(0.,1.,0.));
#172=DIRECTION('center_axis',(1.,0.,0.));
#173=DIRECTION('ref_axis',(0.,1.,0.));
#174=DIRECTION('',(-1.,0.,0.));
#175=DIRECTION('center_axis',(-1.,0.,0.));
#176=DIRECTION('ref_axis',(0.,1.,0.));
#177=DIRECTION('center_axis',(1.,0.,0.));
#178=DIRECTION('ref_axis',(0.,0.,-1.));
#179=DIRECTION('center_axis',(1.,0.,0.));
#180=DIRECTION('ref_axis',(0.,-1.,0.));
#181=DIRECTION('center_axis',(1.,0.,0.));
#182=DIRECTION('ref_axis',(0.,-1.,0.));
#183=DIRECTION('center_axis',(-1.,0.,0.));
#184=DIRECTION('ref_axis',(0.,-1.,0.));
#185=DIRECTION('',(-1.,0.,0.));
#186=DIRECTION('center_axis',(1.,0.,0.));
#187=DIRECTION('ref_axis',(0.,0.,-1.));
#188=CARTESIAN_POINT('',(0.,0.,0.));
#189=CARTESIAN_POINT('Origin',(0.,0.,0.));
#190=CARTESIAN_POINT('',(5.25,6.42939569552361E-16,50.));
#191=CARTESIAN_POINT('Origin',(0.,0.,50.));
#192=CARTESIAN_POINT('',(5.25,3.2146978477618E-16,17.85));
#193=CARTESIAN_POINT('',(5.25,6.42939569552361E-16,0.));
#194=CARTESIAN_POINT('',(-1.38777878078145E-16,-5.25,17.0604806497355));
#195=CARTESIAN_POINT('Ctrl Pts',(-1.38777878078145E-16,-5.25,17.0604806497355));
#196=CARTESIAN_POINT('Ctrl Pts',(0.663547389466544,-5.25,17.0604806497355));
#197=CARTESIAN_POINT('Ctrl Pts',(1.36843100049058,-5.1165829412159,17.103242368248));
#198=CARTESIAN_POINT('Ctrl Pts',(2.66063485759537,-4.57963427536978,17.254775206822));
#199=CARTESIAN_POINT('Ctrl Pts',(3.24832638384679,-4.17629481861196,17.361050526167));
#200=CARTESIAN_POINT('Ctrl Pts',(4.17616756548637,-3.24845363697238,17.5583296285297));
#201=CARTESIAN_POINT('Ctrl Pts',(4.57960565254528,-2.66071023597279,17.662561461098));
#202=CARTESIAN_POINT('Ctrl Pts',(5.11662702603012,-1.36831841159556,17.8093559970416));
#203=CARTESIAN_POINT('Ctrl Pts',(5.25,-0.663365403795208,17.85));
#204=CARTESIAN_POINT('Ctrl Pts',(5.25,-1.38777878078145E-16,17.85));
#205=CARTESIAN_POINT('Ctrl Pts',(5.25,0.,17.85));
#206=CARTESIAN_POINT('Ctrl Pts',(5.25,0.663365403795208,17.85));
#207=CARTESIAN_POINT('Ctrl Pts',(5.11662702603012,1.36831841159556,17.8093559970416));
#208=CARTESIAN_POINT('Ctrl Pts',(4.57960565254528,2.66071023597279,17.662561461098));
#209=CARTESIAN_POINT('Ctrl Pts',(4.17616756548637,3.24845363697238,17.5583296285297));
#210=CARTESIAN_POINT('Ctrl Pts',(3.24832638384679,4.17629481861196,17.361050526167));
#211=CARTESIAN_POINT('Ctrl Pts',(2.66063485759537,4.57963427536978,17.254775206822));
#212=CARTESIAN_POINT('Ctrl Pts',(1.36843100049058,5.1165829412159,17.103242368248));
#213=CARTESIAN_POINT('Ctrl Pts',(0.663547389466545,5.25,17.0604806497355));
#214=CARTESIAN_POINT('Ctrl Pts',(-0.663547389466544,5.25,17.0604806497355));
#215=CARTESIAN_POINT('Ctrl Pts',(-1.36843100049058,5.1165829412159,17.103242368248));
#216=CARTESIAN_POINT('Ctrl Pts',(-2.66063485759537,4.57963427536978,17.254775206822));
#217=CARTESIAN_POINT('Ctrl Pts',(-3.24832638384679,4.17629481861196,17.361050526167));
#218=CARTESIAN_POINT('Ctrl Pts',(-4.17616756548637,3.24845363697238,17.5583296285297));
#219=CARTESIAN_POINT('Ctrl Pts',(-4.57960565254528,2.66071023597279,17.662561461098));
#220=CARTESIAN_POINT('Ctrl Pts',(-5.11662702603012,1.36831841159556,17.8093559970416));
#221=CARTESIAN_POINT('Ctrl Pts',(-5.25,0.663365403795208,17.85));
#222=CARTESIAN_POINT('Ctrl Pts',(-5.25,-0.663365403795207,17.85));
#223=CARTESIAN_POINT('Ctrl Pts',(-5.11662702603012,-1.36831841159556,17.8093559970416));
#224=CARTESIAN_POINT('Ctrl Pts',(-4.57960565254528,-2.66071023597279,17.662561461098));
#225=CARTESIAN_POINT('Ctrl Pts',(-4.17616756548637,-3.24845363697238,17.5583296285297));
#226=CARTESIAN_POINT('Ctrl Pts',(-3.24832638384679,-4.17629481861196,17.361050526167));
#227=CARTESIAN_POINT('Ctrl Pts',(-2.66063485759537,-4.57963427536978,17.254775206822));
#228=CARTESIAN_POINT('Ctrl Pts',(-1.36843100049058,-5.1165829412159,17.103242368248));
#229=CARTESIAN_POINT('Ctrl Pts',(-0.663547389466545,-5.25,17.0604806497355));
#230=CARTESIAN_POINT('Ctrl Pts',(2.77555756156289E-16,-5.25,17.0604806497355));
#231=CARTESIAN_POINT('Origin',(0.,0.,0.));
#232=CARTESIAN_POINT('',(-6.9,-8.45006291411674E-16,50.));
#233=CARTESIAN_POINT('Origin',(0.,0.,50.));
#234=CARTESIAN_POINT('',(-6.9,-9.77614658018415E-16,19.05));
#235=CARTESIAN_POINT('',(-6.9,-8.45006291411674E-16,0.));
#236=CARTESIAN_POINT('',(2.77555756156289E-16,-6.9,17.756477691254));
#237=CARTESIAN_POINT('Ctrl Pts',(2.77555756156289E-16,-6.9,17.756477691254));
#238=CARTESIAN_POINT('Ctrl Pts',(-0.875351961379808,-6.9,17.756477691254));
#239=CARTESIAN_POINT('Ctrl Pts',(-1.80292010296457,-6.72342292460577,17.8280276948112));
#240=CARTESIAN_POINT('Ctrl Pts',(-3.50017316633642,-6.01695390565804,18.0786958848054));
#241=CARTESIAN_POINT('Ctrl Pts',(-4.2706546629018,-5.48741891747256,18.253406418191));
#242=CARTESIAN_POINT('Ctrl Pts',(-5.48701737945522,-4.27105620091914,18.5756875638266));
#243=CARTESIAN_POINT('Ctrl Pts',(-6.01685966801011,-3.50041795612082,18.7452522434113));
#244=CARTESIAN_POINT('Ctrl Pts',(-6.72356022933444,-1.80257184580675,18.9838916530602));
#245=CARTESIAN_POINT('Ctrl Pts',(-6.9,-0.874774220720967,19.05));
#246=CARTESIAN_POINT('Ctrl Pts',(-6.9,-1.11022302462516E-15,19.05));
#247=CARTESIAN_POINT('Ctrl Pts',(-6.9,-1.11022302462516E-15,19.05));
#248=CARTESIAN_POINT('Ctrl Pts',(-6.9,0.874774220720964,19.05));
#249=CARTESIAN_POINT('Ctrl Pts',(-6.72356022933444,1.80257184580675,18.9838916530602));
#250=CARTESIAN_POINT('Ctrl Pts',(-6.01685966801011,3.50041795612081,18.7452522434113));
#251=CARTESIAN_POINT('Ctrl Pts',(-5.48701737945522,4.27105620091914,18.5756875638266));
#252=CARTESIAN_POINT('Ctrl Pts',(-4.2706546629018,5.48741891747256,18.253406418191));
#253=CARTESIAN_POINT('Ctrl Pts',(-3.50017316633642,6.01695390565804,18.0786958848054));
#254=CARTESIAN_POINT('Ctrl Pts',(-1.80292010296457,6.72342292460577,17.8280276948112));
#255=CARTESIAN_POINT('Ctrl Pts',(-0.875351961379809,6.9,17.756477691254));
#256=CARTESIAN_POINT('Ctrl Pts',(0.875351961379809,6.9,17.756477691254));
#257=CARTESIAN_POINT('Ctrl Pts',(1.80292010296457,6.72342292460577,17.8280276948112));
#258=CARTESIAN_POINT('Ctrl Pts',(3.50017316633642,6.01695390565804,18.0786958848054));
#259=CARTESIAN_POINT('Ctrl Pts',(4.2706546629018,5.48741891747256,18.253406418191));
#260=CARTESIAN_POINT('Ctrl Pts',(5.48701737945522,4.27105620091914,18.5756875638266));
#261=CARTESIAN_POINT('Ctrl Pts',(6.01685966801011,3.50041795612082,18.7452522434113));
#262=CARTESIAN_POINT('Ctrl Pts',(6.72356022933443,1.80257184580675,18.9838916530602));
#263=CARTESIAN_POINT('Ctrl Pts',(6.9,0.874774220720968,19.05));
#264=CARTESIAN_POINT('Ctrl Pts',(6.9,-0.874774220720965,19.05));
#265=CARTESIAN_POINT('Ctrl Pts',(6.72356022933443,-1.80257184580675,18.9838916530602));
#266=CARTESIAN_POINT('Ctrl Pts',(6.01685966801011,-3.50041795612082,18.7452522434113));
#267=CARTESIAN_POINT('Ctrl Pts',(5.48701737945522,-4.27105620091914,18.5756875638266));
#268=CARTESIAN_POINT('Ctrl Pts',(4.2706546629018,-5.48741891747256,18.253406418191));
#269=CARTESIAN_POINT('Ctrl Pts',(3.50017316633642,-6.01695390565804,18.0786958848054));
#270=CARTESIAN_POINT('Ctrl Pts',(1.80292010296457,-6.72342292460577,17.8280276948112));
#271=CARTESIAN_POINT('Ctrl Pts',(0.875351961379807,-6.9,17.756477691254));
#272=CARTESIAN_POINT('Ctrl Pts',(-1.38777878078145E-15,-6.9,17.756477691254));
#273=CARTESIAN_POINT('Origin',(0.,0.,50.));
#274=CARTESIAN_POINT('Origin',(0.,0.,0.));
#275=CARTESIAN_POINT('',(50.,-19.05,-2.33295215237571E-15));
#276=CARTESIAN_POINT('Origin',(50.,0.,0.));
#277=CARTESIAN_POINT('',(-50.,-19.05,-2.33295215237571E-15));
#278=CARTESIAN_POINT('',(0.,-19.05,-2.33295215237571E-15));
#279=CARTESIAN_POINT('Origin',(-50.,0.,0.));
#280=CARTESIAN_POINT('Origin',(-50.,0.,0.));
#281=CARTESIAN_POINT('',(-50.,17.85,2.18599453647803E-15));
#282=CARTESIAN_POINT('Origin',(-50.,0.,0.));
#283=CARTESIAN_POINT('Origin',(0.,0.,0.));
#284=CARTESIAN_POINT('',(50.,17.85,2.18599453647803E-15));
#285=CARTESIAN_POINT('Origin',(50.,0.,0.));
#286=CARTESIAN_POINT('',(0.,17.85,2.18599453647803E-15));
#287=CARTESIAN_POINT('Origin',(50.,0.,0.));
#288=UNCERTAINTY_MEASURE_WITH_UNIT(LENGTH_MEASURE(0.01),#292,
'DISTANCE_ACCURACY_VALUE',
'Maximum model space distance between geometric entities at asserted c
onnectivities');
#289=UNCERTAINTY_MEASURE_WITH_UNIT(LENGTH_MEASURE(0.01),#292,
'DISTANCE_ACCURACY_VALUE',
'Maximum model space distance between geometric entities at asserted c
onnectivities');
#290=(
GEOMETRIC_REPRESENTATION_CONTEXT(3)
GLOBAL_UNCERTAINTY_ASSIGNED_CONTEXT((#288))
GLOBAL_UNIT_ASSIGNED_CONTEXT((#292,#294,#295))
REPRESENTATION_CONTEXT('','3D')
);
#291=(
GEOMETRIC_REPRESENTATION_CONTEXT(3)
GLOBAL_UNCERTAINTY_ASSIGNED_CONTEXT((#289))
GLOBAL_UNIT_ASSIGNED_CONTEXT((#292,#294,#295))
REPRESENTATION_CONTEXT('','3D')
);
#292=(
LENGTH_UNIT()
NAMED_UNIT(*)
SI_UNIT(.MILLI.,.METRE.)
);
#293=(
LENGTH_UNIT()
NAMED_UNIT(*)
SI_UNIT(.CENTI.,.METRE.)
);
#294=(
NAMED_UNIT(*)
PLANE_ANGLE_UNIT()
SI_UNIT($,.RADIAN.)
);
#295=(
NAMED_UNIT(*)
SI_UNIT($,.STERADIAN.)
SOLID_ANGLE_UNIT()
);
#296=SHAPE_DEFINITION_REPRESENTATION(#297,#298);
#297=PRODUCT_DEFINITION_SHAPE('',$,#300);
#298=SHAPE_REPRESENTATION('',(#142),#290);
#299=PRODUCT_DEFINITION_CONTEXT('part definition',#304,'design');
#300=PRODUCT_DEFINITION('D8(R) 15\X\D702','D8(R) 15\X\D702',#301,#299);
#301=PRODUCT_DEFINITION_FORMATION('',$,#306);
#302=PRODUCT_RELATED_PRODUCT_CATEGORY('D8(R) 15\X\D702','D8(R) 15\X\D7
02',(#306));
#303=APPLICATION_PROTOCOL_DEFINITION('international standard',
'automotive_design',2009,#304);
#304=APPLICATION_CONTEXT(
'Core Data for Automotive Mechanical Design Process');
#305=PRODUCT_CONTEXT('part definition',#304,'mechanical');
#306=PRODUCT('D8(R) 15\X\D702','D8(R) 15\X\D702',$,(#305));
#307=PRESENTATION_STYLE_ASSIGNMENT((#308));
#308=SURFACE_STYLE_USAGE(.BOTH.,#311);
#309=SURFACE_STYLE_RENDERING_WITH_PROPERTIES($,#315,(#310));
#310=SURFACE_STYLE_TRANSPARENT(0.);
#311=SURFACE_SIDE_STYLE('',(#312,#309));
#312=SURFACE_STYLE_FILL_AREA(#313);
#313=FILL_AREA_STYLE('',(#314));
#314=FILL_AREA_STYLE_COLOUR('',#315);
#315=COLOUR_RGB('',0.749019607843137,0.749019607843137,0.749019607843137);
ENDSEC;
END-ISO-10303-21;
