ISO-10303-21;
HEADER;
/* Generated by software containing ST-Developer
 * from STEP Tools, Inc. (www.steptools.com) 
 */

FILE_DESCRIPTION(
/* description */ (''),
/* implementation_level */ '2;1');

FILE_NAME(
/* name */ 
'\\\\Tske00\\w\\Work\\TOSTE\\\X2\7D99624B\X0\\\01_\X2\30AF30E930F330D7\X0\\\
\X2\30AD30E330C330D7\X0\\\16AMD(11) 10.stp',
/* time_stamp */ '2022-04-12T09:23:12+09:00',
/* author */ ('3dcad-eng'),
/* organization */ (''),
/* preprocessor_version */ 'ST-DEVELOPER v18.1',
/* originating_system */ 'Autodesk Inventor 2022',
/* authorisation */ '');

FILE_SCHEMA (('AUTOMOTIVE_DESIGN { 1 0 10303 214 3 1 1 }'));
ENDSEC;

DATA;
#10=MECHANICAL_DESIGN_GEOMETRIC_PRESENTATION_REPRESENTATION('',(#13),#458);
#11=SHAPE_REPRESENTATION_RELATIONSHIP('SRR','None',#465,#12);
#12=ADVANCED_BREP_SHAPE_REPRESENTATION('',(#14),#457);
#13=STYLED_ITEM('',(#474),#14);
#14=MANIFOLD_SOLID_BREP('\X2\30BD30EA30C330C9\X0\1',#232);
#15=CYLINDRICAL_SURFACE('',#278,19.05);
#16=CYLINDRICAL_SURFACE('',#292,25.25);
#17=FACE_BOUND('',#51,.T.);
#18=PLANE('',#260);
#19=PLANE('',#270);
#20=PLANE('',#293);
#21=LINE('',#399,#26);
#22=LINE('',#415,#27);
#23=LINE('',#432,#28);
#24=LINE('',#444,#29);
#25=LINE('',#453,#30);
#26=VECTOR('',#312,23.0390141017566);
#27=VECTOR('',#331,20.4609858982434);
#28=VECTOR('',#354,19.05);
#29=VECTOR('',#369,22.5447879140046);
#30=VECTOR('',#382,25.25);
#31=CONICAL_SURFACE('',#257,23.0390141017566,0.401425727958696);
#32=CONICAL_SURFACE('',#267,20.4609858982434,0.401425727958705);
#33=CONICAL_SURFACE('',#285,22.5447879140046,1.22173047639603);
#34=FACE_OUTER_BOUND('',#48,.T.);
#35=FACE_OUTER_BOUND('',#49,.T.);
#36=FACE_OUTER_BOUND('',#50,.T.);
#37=FACE_OUTER_BOUND('',#52,.T.);
#38=FACE_OUTER_BOUND('',#53,.T.);
#39=FACE_OUTER_BOUND('',#54,.T.);
#40=FACE_OUTER_BOUND('',#55,.T.);
#41=FACE_OUTER_BOUND('',#56,.T.);
#42=FACE_OUTER_BOUND('',#57,.T.);
#43=FACE_OUTER_BOUND('',#58,.T.);
#44=FACE_OUTER_BOUND('',#59,.T.);
#45=FACE_OUTER_BOUND('',#60,.T.);
#46=FACE_OUTER_BOUND('',#61,.T.);
#47=FACE_OUTER_BOUND('',#62,.T.);
#48=EDGE_LOOP('',(#146,#147,#148,#149,#150));
#49=EDGE_LOOP('',(#151,#152,#153,#154,#155,#156));
#50=EDGE_LOOP('',(#157));
#51=EDGE_LOOP('',(#158));
#52=EDGE_LOOP('',(#159,#160,#161,#162,#163));
#53=EDGE_LOOP('',(#164,#165,#166,#167,#168,#169));
#54=EDGE_LOOP('',(#170));
#55=EDGE_LOOP('',(#171,#172,#173,#174,#175,#176));
#56=EDGE_LOOP('',(#177,#178,#179,#180,#181));
#57=EDGE_LOOP('',(#182,#183,#184,#185,#186,#187));
#58=EDGE_LOOP('',(#188,#189,#190,#191,#192,#193));
#59=EDGE_LOOP('',(#194,#195,#196,#197,#198,#199));
#60=EDGE_LOOP('',(#200,#201,#202,#203,#204,#205));
#61=EDGE_LOOP('',(#206,#207,#208,#209,#210));
#62=EDGE_LOOP('',(#211));
#63=CIRCLE('',#253,23.7529308283268);
#64=CIRCLE('',#254,0.8);
#65=CIRCLE('',#255,23.0165269455648);
#66=CIRCLE('',#256,23.0165269455648);
#67=CIRCLE('',#258,22.8546058241429);
#68=CIRCLE('',#259,22.8546058241429);
#69=CIRCLE('',#261,25.25);
#70=CIRCLE('',#263,19.7470691716733);
#71=CIRCLE('',#264,0.8);
#72=CIRCLE('',#265,20.4834730544352);
#73=CIRCLE('',#266,20.4834730544352);
#74=CIRCLE('',#268,20.6453941758571);
#75=CIRCLE('',#269,20.6453941758571);
#76=CIRCLE('',#272,1.2);
#77=CIRCLE('',#274,19.05);
#78=CIRCLE('',#275,19.05);
#79=CIRCLE('',#276,2.);
#80=CIRCLE('',#277,17.05);
#81=CIRCLE('',#279,19.05);
#82=CIRCLE('',#280,19.05);
#83=CIRCLE('',#282,1.99999999999999);
#84=CIRCLE('',#283,20.3659597133487);
#85=CIRCLE('',#284,20.3659597133487);
#86=CIRCLE('',#286,24.7236161146605);
#87=CIRCLE('',#287,24.7236161146605);
#88=CIRCLE('',#289,25.25);
#89=CIRCLE('',#290,25.25);
#90=CIRCLE('',#291,0.799999999999987);
#91=VERTEX_POINT('',#387);
#92=VERTEX_POINT('',#389);
#93=VERTEX_POINT('',#391);
#94=VERTEX_POINT('',#395);
#95=VERTEX_POINT('',#396);
#96=VERTEX_POINT('',#401);
#97=VERTEX_POINT('',#404);
#98=VERTEX_POINT('',#406);
#99=VERTEX_POINT('',#408);
#100=VERTEX_POINT('',#412);
#101=VERTEX_POINT('',#413);
#102=VERTEX_POINT('',#421);
#103=VERTEX_POINT('',#422);
#104=VERTEX_POINT('',#425);
#105=VERTEX_POINT('',#429);
#106=VERTEX_POINT('',#430);
#107=VERTEX_POINT('',#435);
#108=VERTEX_POINT('',#437);
#109=VERTEX_POINT('',#441);
#110=VERTEX_POINT('',#442);
#111=VERTEX_POINT('',#447);
#112=VERTEX_POINT('',#448);
#113=EDGE_CURVE('',#91,#91,#63,.T.);
#114=EDGE_CURVE('',#91,#92,#64,.T.);
#115=EDGE_CURVE('',#92,#93,#65,.T.);
#116=EDGE_CURVE('',#93,#92,#66,.T.);
#117=EDGE_CURVE('',#94,#95,#67,.T.);
#118=EDGE_CURVE('',#95,#94,#68,.T.);
#119=EDGE_CURVE('',#95,#93,#21,.T.);
#120=EDGE_CURVE('',#96,#96,#69,.T.);
#121=EDGE_CURVE('',#97,#97,#70,.T.);
#122=EDGE_CURVE('',#97,#98,#71,.T.);
#123=EDGE_CURVE('',#98,#99,#72,.T.);
#124=EDGE_CURVE('',#99,#98,#73,.T.);
#125=EDGE_CURVE('',#100,#101,#74,.T.);
#126=EDGE_CURVE('',#101,#99,#22,.T.);
#127=EDGE_CURVE('',#101,#100,#75,.T.);
#128=EDGE_CURVE('',#100,#94,#76,.T.);
#129=EDGE_CURVE('',#102,#103,#77,.T.);
#130=EDGE_CURVE('',#103,#102,#78,.T.);
#131=EDGE_CURVE('',#103,#104,#79,.T.);
#132=EDGE_CURVE('',#104,#104,#80,.T.);
#133=EDGE_CURVE('',#105,#106,#81,.T.);
#134=EDGE_CURVE('',#105,#102,#23,.T.);
#135=EDGE_CURVE('',#106,#105,#82,.T.);
#136=EDGE_CURVE('',#106,#107,#83,.T.);
#137=EDGE_CURVE('',#108,#107,#84,.T.);
#138=EDGE_CURVE('',#107,#108,#85,.T.);
#139=EDGE_CURVE('',#109,#110,#86,.T.);
#140=EDGE_CURVE('',#109,#108,#24,.T.);
#141=EDGE_CURVE('',#110,#109,#87,.T.);
#142=EDGE_CURVE('',#111,#112,#88,.T.);
#143=EDGE_CURVE('',#112,#111,#89,.T.);
#144=EDGE_CURVE('',#112,#110,#90,.T.);
#145=EDGE_CURVE('',#96,#111,#25,.T.);
#146=ORIENTED_EDGE('',*,*,#113,.T.);
#147=ORIENTED_EDGE('',*,*,#114,.T.);
#148=ORIENTED_EDGE('',*,*,#115,.T.);
#149=ORIENTED_EDGE('',*,*,#116,.T.);
#150=ORIENTED_EDGE('',*,*,#114,.F.);
#151=ORIENTED_EDGE('',*,*,#117,.F.);
#152=ORIENTED_EDGE('',*,*,#118,.F.);
#153=ORIENTED_EDGE('',*,*,#119,.T.);
#154=ORIENTED_EDGE('',*,*,#115,.F.);
#155=ORIENTED_EDGE('',*,*,#116,.F.);
#156=ORIENTED_EDGE('',*,*,#119,.F.);
#157=ORIENTED_EDGE('',*,*,#120,.T.);
#158=ORIENTED_EDGE('',*,*,#113,.F.);
#159=ORIENTED_EDGE('',*,*,#121,.T.);
#160=ORIENTED_EDGE('',*,*,#122,.T.);
#161=ORIENTED_EDGE('',*,*,#123,.T.);
#162=ORIENTED_EDGE('',*,*,#124,.T.);
#163=ORIENTED_EDGE('',*,*,#122,.F.);
#164=ORIENTED_EDGE('',*,*,#125,.T.);
#165=ORIENTED_EDGE('',*,*,#126,.T.);
#166=ORIENTED_EDGE('',*,*,#123,.F.);
#167=ORIENTED_EDGE('',*,*,#124,.F.);
#168=ORIENTED_EDGE('',*,*,#126,.F.);
#169=ORIENTED_EDGE('',*,*,#127,.T.);
#170=ORIENTED_EDGE('',*,*,#121,.F.);
#171=ORIENTED_EDGE('',*,*,#125,.F.);
#172=ORIENTED_EDGE('',*,*,#128,.T.);
#173=ORIENTED_EDGE('',*,*,#117,.T.);
#174=ORIENTED_EDGE('',*,*,#118,.T.);
#175=ORIENTED_EDGE('',*,*,#128,.F.);
#176=ORIENTED_EDGE('',*,*,#127,.F.);
#177=ORIENTED_EDGE('',*,*,#129,.F.);
#178=ORIENTED_EDGE('',*,*,#130,.F.);
#179=ORIENTED_EDGE('',*,*,#131,.T.);
#180=ORIENTED_EDGE('',*,*,#132,.T.);
#181=ORIENTED_EDGE('',*,*,#131,.F.);
#182=ORIENTED_EDGE('',*,*,#133,.F.);
#183=ORIENTED_EDGE('',*,*,#134,.T.);
#184=ORIENTED_EDGE('',*,*,#129,.T.);
#185=ORIENTED_EDGE('',*,*,#130,.T.);
#186=ORIENTED_EDGE('',*,*,#134,.F.);
#187=ORIENTED_EDGE('',*,*,#135,.F.);
#188=ORIENTED_EDGE('',*,*,#133,.T.);
#189=ORIENTED_EDGE('',*,*,#136,.T.);
#190=ORIENTED_EDGE('',*,*,#137,.F.);
#191=ORIENTED_EDGE('',*,*,#138,.F.);
#192=ORIENTED_EDGE('',*,*,#136,.F.);
#193=ORIENTED_EDGE('',*,*,#135,.T.);
#194=ORIENTED_EDGE('',*,*,#139,.F.);
#195=ORIENTED_EDGE('',*,*,#140,.T.);
#196=ORIENTED_EDGE('',*,*,#137,.T.);
#197=ORIENTED_EDGE('',*,*,#138,.T.);
#198=ORIENTED_EDGE('',*,*,#140,.F.);
#199=ORIENTED_EDGE('',*,*,#141,.F.);
#200=ORIENTED_EDGE('',*,*,#142,.F.);
#201=ORIENTED_EDGE('',*,*,#143,.F.);
#202=ORIENTED_EDGE('',*,*,#144,.T.);
#203=ORIENTED_EDGE('',*,*,#141,.T.);
#204=ORIENTED_EDGE('',*,*,#139,.T.);
#205=ORIENTED_EDGE('',*,*,#144,.F.);
#206=ORIENTED_EDGE('',*,*,#120,.F.);
#207=ORIENTED_EDGE('',*,*,#145,.T.);
#208=ORIENTED_EDGE('',*,*,#142,.T.);
#209=ORIENTED_EDGE('',*,*,#143,.T.);
#210=ORIENTED_EDGE('',*,*,#145,.F.);
#211=ORIENTED_EDGE('',*,*,#132,.F.);
#212=TOROIDAL_SURFACE('',#252,23.7529308283268,0.8);
#213=TOROIDAL_SURFACE('',#262,19.7470691716733,0.8);
#214=TOROIDAL_SURFACE('',#271,21.75,1.2);
#215=TOROIDAL_SURFACE('',#273,17.05,2.);
#216=TOROIDAL_SURFACE('',#281,21.05,1.99999999999999);
#217=TOROIDAL_SURFACE('',#288,24.45,0.799999999999987);
#218=ADVANCED_FACE('',(#34),#212,.T.);
#219=ADVANCED_FACE('',(#35),#31,.F.);
#220=ADVANCED_FACE('',(#36,#17),#18,.T.);
#221=ADVANCED_FACE('',(#37),#213,.T.);
#222=ADVANCED_FACE('',(#38),#32,.T.);
#223=ADVANCED_FACE('',(#39),#19,.T.);
#224=ADVANCED_FACE('',(#40),#214,.F.);
#225=ADVANCED_FACE('',(#41),#215,.T.);
#226=ADVANCED_FACE('',(#42),#15,.T.);
#227=ADVANCED_FACE('',(#43),#216,.F.);
#228=ADVANCED_FACE('',(#44),#33,.T.);
#229=ADVANCED_FACE('',(#45),#217,.T.);
#230=ADVANCED_FACE('',(#46),#16,.T.);
#231=ADVANCED_FACE('',(#47),#20,.T.);
#232=CLOSED_SHELL('',(#218,#219,#220,#221,#222,#223,#224,#225,#226,#227,
#228,#229,#230,#231));
#233=DERIVED_UNIT_ELEMENT(#235,1.);
#234=DERIVED_UNIT_ELEMENT(#460,-3.);
#235=(
MASS_UNIT()
NAMED_UNIT(*)
SI_UNIT($,.GRAM.)
);
#236=DERIVED_UNIT((#233,#234));
#237=MEASURE_REPRESENTATION_ITEM('density measure',
POSITIVE_RATIO_MEASURE(1.),#236);
#238=PROPERTY_DEFINITION_REPRESENTATION(#243,#240);
#239=PROPERTY_DEFINITION_REPRESENTATION(#244,#241);
#240=REPRESENTATION('material name',(#242),#457);
#241=REPRESENTATION('density',(#237),#457);
#242=DESCRIPTIVE_REPRESENTATION_ITEM('\X2\4E00822C\X0\','\X2\4E00822C\X0\');
#243=PROPERTY_DEFINITION('material property','material name',#467);
#244=PROPERTY_DEFINITION('material property','density of part',#467);
#245=DATE_TIME_ROLE('creation_date');
#246=APPLIED_DATE_AND_TIME_ASSIGNMENT(#247,#245,(#467));
#247=DATE_AND_TIME(#248,#249);
#248=CALENDAR_DATE(2022,23,3);
#249=LOCAL_TIME(0,0,0.,#250);
#250=COORDINATED_UNIVERSAL_TIME_OFFSET(0,0,.BEHIND.);
#251=AXIS2_PLACEMENT_3D('placement',#385,#294,#295);
#252=AXIS2_PLACEMENT_3D('',#386,#296,#297);
#253=AXIS2_PLACEMENT_3D('',#388,#298,#299);
#254=AXIS2_PLACEMENT_3D('',#390,#300,#301);
#255=AXIS2_PLACEMENT_3D('',#392,#302,#303);
#256=AXIS2_PLACEMENT_3D('',#393,#304,#305);
#257=AXIS2_PLACEMENT_3D('',#394,#306,#307);
#258=AXIS2_PLACEMENT_3D('',#397,#308,#309);
#259=AXIS2_PLACEMENT_3D('',#398,#310,#311);
#260=AXIS2_PLACEMENT_3D('',#400,#313,#314);
#261=AXIS2_PLACEMENT_3D('',#402,#315,#316);
#262=AXIS2_PLACEMENT_3D('',#403,#317,#318);
#263=AXIS2_PLACEMENT_3D('',#405,#319,#320);
#264=AXIS2_PLACEMENT_3D('',#407,#321,#322);
#265=AXIS2_PLACEMENT_3D('',#409,#323,#324);
#266=AXIS2_PLACEMENT_3D('',#410,#325,#326);
#267=AXIS2_PLACEMENT_3D('',#411,#327,#328);
#268=AXIS2_PLACEMENT_3D('',#414,#329,#330);
#269=AXIS2_PLACEMENT_3D('',#416,#332,#333);
#270=AXIS2_PLACEMENT_3D('',#417,#334,#335);
#271=AXIS2_PLACEMENT_3D('',#418,#336,#337);
#272=AXIS2_PLACEMENT_3D('',#419,#338,#339);
#273=AXIS2_PLACEMENT_3D('',#420,#340,#341);
#274=AXIS2_PLACEMENT_3D('',#423,#342,#343);
#275=AXIS2_PLACEMENT_3D('',#424,#344,#345);
#276=AXIS2_PLACEMENT_3D('',#426,#346,#347);
#277=AXIS2_PLACEMENT_3D('',#427,#348,#349);
#278=AXIS2_PLACEMENT_3D('',#428,#350,#351);
#279=AXIS2_PLACEMENT_3D('',#431,#352,#353);
#280=AXIS2_PLACEMENT_3D('',#433,#355,#356);
#281=AXIS2_PLACEMENT_3D('',#434,#357,#358);
#282=AXIS2_PLACEMENT_3D('',#436,#359,#360);
#283=AXIS2_PLACEMENT_3D('',#438,#361,#362);
#284=AXIS2_PLACEMENT_3D('',#439,#363,#364);
#285=AXIS2_PLACEMENT_3D('',#440,#365,#366);
#286=AXIS2_PLACEMENT_3D('',#443,#367,#368);
#287=AXIS2_PLACEMENT_3D('',#445,#370,#371);
#288=AXIS2_PLACEMENT_3D('',#446,#372,#373);
#289=AXIS2_PLACEMENT_3D('',#449,#374,#375);
#290=AXIS2_PLACEMENT_3D('',#450,#376,#377);
#291=AXIS2_PLACEMENT_3D('',#451,#378,#379);
#292=AXIS2_PLACEMENT_3D('',#452,#380,#381);
#293=AXIS2_PLACEMENT_3D('',#454,#383,#384);
#294=DIRECTION('axis',(0.,0.,1.));
#295=DIRECTION('refdir',(1.,0.,0.));
#296=DIRECTION('center_axis',(-1.,-1.22464679914735E-16,0.));
#297=DIRECTION('ref_axis',(0.,0.,1.));
#298=DIRECTION('center_axis',(1.,1.22464679914735E-16,0.));
#299=DIRECTION('ref_axis',(-1.22464679914735E-16,1.,1.22464679914735E-16));
#300=DIRECTION('center_axis',(1.22464679914735E-16,-1.,1.22464679914735E-16));
#301=DIRECTION('ref_axis',(0.,-1.22464679914735E-16,-1.));
#302=DIRECTION('center_axis',(-1.,-1.02501299735974E-16,-2.63719522409668E-32));
#303=DIRECTION('ref_axis',(-1.02501299735974E-16,1.,1.22464679914735E-16));
#304=DIRECTION('center_axis',(-1.,-1.02501299735974E-16,-2.63719522409668E-32));
#305=DIRECTION('ref_axis',(-1.02501299735974E-16,1.,1.22464679914735E-16));
#306=DIRECTION('center_axis',(1.,0.,0.));
#307=DIRECTION('ref_axis',(0.,-1.,0.));
#308=DIRECTION('center_axis',(1.,0.,0.));
#309=DIRECTION('ref_axis',(0.,0.,-1.));
#310=DIRECTION('center_axis',(1.,0.,0.));
#311=DIRECTION('ref_axis',(0.,0.,-1.));
#312=DIRECTION('',(0.92050485345244,0.390731128489274,4.78507625831622E-17));
#313=DIRECTION('center_axis',(1.,1.22464679914735E-16,0.));
#314=DIRECTION('ref_axis',(0.,0.,-1.));
#315=DIRECTION('center_axis',(1.,1.22464679914735E-16,0.));
#316=DIRECTION('ref_axis',(0.,0.,-1.));
#317=DIRECTION('center_axis',(1.,1.22464679914735E-16,0.));
#318=DIRECTION('ref_axis',(0.,0.,-1.));
#319=DIRECTION('center_axis',(-1.,-1.22464679914735E-16,0.));
#320=DIRECTION('ref_axis',(-1.22464679914735E-16,1.,-1.22464679914735E-16));
#321=DIRECTION('center_axis',(1.22464679914735E-16,-1.,-1.22464679914735E-16));
#322=DIRECTION('ref_axis',(0.,-1.22464679914735E-16,1.));
#323=DIRECTION('center_axis',(1.,1.01626719533357E-16,-1.63428229493927E-32));
#324=DIRECTION('ref_axis',(-1.01626719533357E-16,1.,0.));
#325=DIRECTION('center_axis',(1.,1.01626719533357E-16,-1.63428229493927E-32));
#326=DIRECTION('ref_axis',(-1.01626719533357E-16,1.,0.));
#327=DIRECTION('center_axis',(-1.,0.,0.));
#328=DIRECTION('ref_axis',(0.,-1.,0.));
#329=DIRECTION('center_axis',(1.,0.,0.));
#330=DIRECTION('ref_axis',(0.,0.,-1.));
#331=DIRECTION('',(0.920504853452437,-0.390731128489282,-4.78507625831633E-17));
#332=DIRECTION('center_axis',(1.,0.,0.));
#333=DIRECTION('ref_axis',(0.,0.,-1.));
#334=DIRECTION('center_axis',(1.,1.22464679914735E-16,0.));
#335=DIRECTION('ref_axis',(0.,0.,-1.));
#336=DIRECTION('center_axis',(1.,0.,0.));
#337=DIRECTION('ref_axis',(0.,0.,-1.));
#338=DIRECTION('center_axis',(0.,1.,1.22464679914735E-16));
#339=DIRECTION('ref_axis',(0.,-1.22464679914735E-16,1.));
#340=DIRECTION('center_axis',(1.,1.22464679914735E-16,0.));
#341=DIRECTION('ref_axis',(0.,0.,-1.));
#342=DIRECTION('center_axis',(1.,1.22464679914735E-16,0.));
#343=DIRECTION('ref_axis',(0.,0.,-1.));
#344=DIRECTION('center_axis',(1.,1.22464679914735E-16,0.));
#345=DIRECTION('ref_axis',(0.,0.,-1.));
#346=DIRECTION('center_axis',(1.22464679914735E-16,-1.,-1.22464679914735E-16));
#347=DIRECTION('ref_axis',(0.,-1.22464679914735E-16,1.));
#348=DIRECTION('center_axis',(1.,1.22464679914735E-16,0.));
#349=DIRECTION('ref_axis',(0.,0.,-1.));
#350=DIRECTION('center_axis',(1.,1.22464679914735E-16,0.));
#351=DIRECTION('ref_axis',(-2.30230404359405E-16,1.,0.));
#352=DIRECTION('center_axis',(1.,1.22464679914735E-16,0.));
#353=DIRECTION('ref_axis',(0.,0.,-1.));
#354=DIRECTION('',(-1.,-1.22464679914735E-16,0.));
#355=DIRECTION('center_axis',(1.,1.22464679914735E-16,0.));
#356=DIRECTION('ref_axis',(0.,0.,-1.));
#357=DIRECTION('center_axis',(1.,1.22464679914735E-16,0.));
#358=DIRECTION('ref_axis',(0.,0.,-1.));
#359=DIRECTION('center_axis',(1.22464679914735E-16,-1.,-1.22464679914735E-16));
#360=DIRECTION('ref_axis',(0.,-1.22464679914735E-16,1.));
#361=DIRECTION('center_axis',(1.,1.22464679914735E-16,0.));
#362=DIRECTION('ref_axis',(0.,0.,-1.));
#363=DIRECTION('center_axis',(1.,1.22464679914735E-16,0.));
#364=DIRECTION('ref_axis',(0.,0.,-1.));
#365=DIRECTION('center_axis',(1.,1.22464679914735E-16,0.));
#366=DIRECTION('ref_axis',(-2.30230404359405E-16,1.,0.));
#367=DIRECTION('center_axis',(1.,1.22464679914735E-16,0.));
#368=DIRECTION('ref_axis',(0.,0.,-1.));
#369=DIRECTION('',(-0.342020143325669,0.939692620785908,1.15079156022785E-16));
#370=DIRECTION('center_axis',(1.,1.22464679914735E-16,0.));
#371=DIRECTION('ref_axis',(0.,0.,-1.));
#372=DIRECTION('center_axis',(1.,1.22464679914735E-16,0.));
#373=DIRECTION('ref_axis',(0.,0.,-1.));
#374=DIRECTION('center_axis',(1.,1.22464679914735E-16,0.));
#375=DIRECTION('ref_axis',(0.,0.,-1.));
#376=DIRECTION('center_axis',(1.,1.22464679914735E-16,0.));
#377=DIRECTION('ref_axis',(0.,0.,-1.));
#378=DIRECTION('center_axis',(1.22464679914735E-16,-1.,-1.22464679914735E-16));
#379=DIRECTION('ref_axis',(0.,-1.22464679914735E-16,1.));
#380=DIRECTION('center_axis',(1.,1.22464679914735E-16,0.));
#381=DIRECTION('ref_axis',(-2.30230404359405E-16,1.,0.));
#382=DIRECTION('',(-1.,-1.22464679914735E-16,0.));
#383=DIRECTION('center_axis',(-1.,-1.22464679914735E-16,0.));
#384=DIRECTION('ref_axis',(0.,0.,1.));
#385=CARTESIAN_POINT('',(0.,0.,0.));
#386=CARTESIAN_POINT('Origin',(-0.8,0.,0.));
#387=CARTESIAN_POINT('',(1.78118451883367E-31,-2.8109233269961E-15,-23.7529308283268));
#388=CARTESIAN_POINT('Origin',(0.,9.79717439317883E-17,0.));
#389=CARTESIAN_POINT('',(-0.48741509720858,-2.78043099507094E-15,-23.0165269455648));
#390=CARTESIAN_POINT('Origin',(-0.8,-2.90889507092789E-15,-23.7529308283268));
#391=CARTESIAN_POINT('',(-0.487415097208576,23.0165269455648,2.81871160513747E-15));
#392=CARTESIAN_POINT('Origin',(-0.48741509720858,-2.22044604925031E-15,
-2.46519032881566E-31));
#393=CARTESIAN_POINT('Origin',(-0.48741509720858,-2.22044604925031E-15,
-2.46519032881566E-31));
#394=CARTESIAN_POINT('Origin',(-0.434438677093564,0.,0.));
#395=CARTESIAN_POINT('',(-0.868877354187129,-2.79888198683111E-15,22.8546058241429));
#396=CARTESIAN_POINT('',(-0.86887735418713,22.8546058241429,2.79888198683111E-15));
#397=CARTESIAN_POINT('Origin',(-0.868877354187129,0.,0.));
#398=CARTESIAN_POINT('Origin',(-0.868877354187129,0.,0.));
#399=CARTESIAN_POINT('',(-0.434438677093564,23.0390141017566,2.82146548752269E-15));
#400=CARTESIAN_POINT('Origin',(0.,0.,0.));
#401=CARTESIAN_POINT('',(9.85322934354826E-15,-25.25,-3.09223316784707E-15));
#402=CARTESIAN_POINT('Origin',(2.22044604925031E-15,2.46519032881566E-31,
0.));
#403=CARTESIAN_POINT('Origin',(-0.8,0.,0.));
#404=CARTESIAN_POINT('',(1.48079300845587E-31,-2.32034676143131E-15,19.7470691716733));
#405=CARTESIAN_POINT('Origin',(0.,9.79717439317883E-17,0.));
#406=CARTESIAN_POINT('',(-0.487415097208574,-2.47022136108698E-15,20.4834730544352));
#407=CARTESIAN_POINT('Origin',(-0.8,-2.4183185053631E-15,19.7470691716733));
#408=CARTESIAN_POINT('',(-0.487415097208571,20.4834730544352,2.50850197115351E-15));
#409=CARTESIAN_POINT('Origin',(-0.487415097208574,0.,2.50850197115351E-15));
#410=CARTESIAN_POINT('Origin',(-0.487415097208574,0.,2.50850197115351E-15));
#411=CARTESIAN_POINT('Origin',(-0.434438677093564,0.,0.));
#412=CARTESIAN_POINT('',(-0.868877354187127,-2.52833158945988E-15,20.6453941758571));
#413=CARTESIAN_POINT('',(-0.868877354187128,20.6453941758571,2.52833158945988E-15));
#414=CARTESIAN_POINT('Origin',(-0.868877354187127,0.,0.));
#415=CARTESIAN_POINT('',(-0.434438677093564,20.4609858982434,2.5057480887683E-15));
#416=CARTESIAN_POINT('Origin',(-0.868877354187127,0.,0.));
#417=CARTESIAN_POINT('Origin',(0.,0.,0.));
#418=CARTESIAN_POINT('Origin',(-0.4,0.,0.));
#419=CARTESIAN_POINT('Origin',(-0.4,-2.66360678814549E-15,21.75));
#420=CARTESIAN_POINT('Origin',(-9.,-1.10218211923262E-15,0.));
#421=CARTESIAN_POINT('',(-9.,-19.05,-2.33295215237571E-15));
#422=CARTESIAN_POINT('',(-9.,-3.43513427160833E-15,19.05));
#423=CARTESIAN_POINT('Origin',(-9.,-1.10218211923262E-15,0.));
#424=CARTESIAN_POINT('Origin',(-9.,-1.10218211923262E-15,0.));
#425=CARTESIAN_POINT('',(-11.,-3.43513427160833E-15,17.05));
#426=CARTESIAN_POINT('Origin',(-9.,-3.19020491177886E-15,17.05));
#427=CARTESIAN_POINT('Origin',(-11.,-1.34711147906209E-15,0.));
#428=CARTESIAN_POINT('Origin',(-7.75351526443494,-9.49531765073039E-16,
0.));
#429=CARTESIAN_POINT('',(-6.50703052886987,-19.05,-2.33295215237571E-15));
#430=CARTESIAN_POINT('',(-6.50703052886987,-3.12983356328917E-15,19.05));
#431=CARTESIAN_POINT('Origin',(-6.50703052886987,-7.9688141091346E-16,0.));
#432=CARTESIAN_POINT('',(-7.75351526443493,-19.05,-2.33295215237571E-15));
#433=CARTESIAN_POINT('Origin',(-6.50703052886987,-7.9688141091346E-16,0.));
#434=CARTESIAN_POINT('Origin',(-6.50703052886987,-7.96881410913459E-16,
0.));
#435=CARTESIAN_POINT('',(-4.62764528729806,-3.06083383631953E-15,20.3659597133487));
#436=CARTESIAN_POINT('Origin',(-6.50703052886987,-3.37476292311864E-15,
21.05));
#437=CARTESIAN_POINT('',(-4.62764528729805,-20.3659597133487,-2.49411073745164E-15));
#438=CARTESIAN_POINT('Origin',(-4.62764528729806,-5.6672309886789E-16,0.));
#439=CARTESIAN_POINT('Origin',(-4.62764528729806,-5.6672309886789E-16,0.));
#440=CARTESIAN_POINT('Origin',(-3.83461667667951,-4.69605103905262E-16,
0.));
#441=CARTESIAN_POINT('',(-3.04158806606095,-24.7236161146605,-3.02776973381669E-15));
#442=CARTESIAN_POINT('',(-3.04158806606095,-3.40025684275933E-15,24.7236161146605));
#443=CARTESIAN_POINT('Origin',(-3.04158806606095,-3.72487108942634E-16,
0.));
#444=CARTESIAN_POINT('',(-3.8346166766795,-22.5447879140046,-2.76094023563417E-15));
#445=CARTESIAN_POINT('Origin',(-3.04158806606095,-3.72487108942634E-16,
0.));
#446=CARTESIAN_POINT('Origin',(-2.28983396943224,-2.80423784124407E-16,
0.));
#447=CARTESIAN_POINT('',(-2.28983396943223,-25.25,-3.09223316784707E-15));
#448=CARTESIAN_POINT('',(-2.28983396943223,-3.37265695197147E-15,25.25));
#449=CARTESIAN_POINT('Origin',(-2.28983396943223,-2.80423784124406E-16,
0.));
#450=CARTESIAN_POINT('Origin',(-2.28983396943223,-2.80423784124406E-16,
0.));
#451=CARTESIAN_POINT('Origin',(-2.28983396943224,-3.27468520803969E-15,
24.45));
#452=CARTESIAN_POINT('Origin',(-1.14491698471611,-1.40211892062203E-16,
0.));
#453=CARTESIAN_POINT('',(-1.14491698471611,-25.25,-3.09223316784707E-15));
#454=CARTESIAN_POINT('Origin',(-11.,17.05,0.));
#455=UNCERTAINTY_MEASURE_WITH_UNIT(LENGTH_MEASURE(0.01),#459,
'DISTANCE_ACCURACY_VALUE',
'Maximum model space distance between geometric entities at asserted c
onnectivities');
#456=UNCERTAINTY_MEASURE_WITH_UNIT(LENGTH_MEASURE(0.01),#459,
'DISTANCE_ACCURACY_VALUE',
'Maximum model space distance between geometric entities at asserted c
onnectivities');
#457=(
GEOMETRIC_REPRESENTATION_CONTEXT(3)
GLOBAL_UNCERTAINTY_ASSIGNED_CONTEXT((#455))
GLOBAL_UNIT_ASSIGNED_CONTEXT((#459,#461,#462))
REPRESENTATION_CONTEXT('','3D')
);
#458=(
GEOMETRIC_REPRESENTATION_CONTEXT(3)
GLOBAL_UNCERTAINTY_ASSIGNED_CONTEXT((#456))
GLOBAL_UNIT_ASSIGNED_CONTEXT((#459,#461,#462))
REPRESENTATION_CONTEXT('','3D')
);
#459=(
LENGTH_UNIT()
NAMED_UNIT(*)
SI_UNIT(.MILLI.,.METRE.)
);
#460=(
LENGTH_UNIT()
NAMED_UNIT(*)
SI_UNIT(.CENTI.,.METRE.)
);
#461=(
NAMED_UNIT(*)
PLANE_ANGLE_UNIT()
SI_UNIT($,.RADIAN.)
);
#462=(
NAMED_UNIT(*)
SI_UNIT($,.STERADIAN.)
SOLID_ANGLE_UNIT()
);
#463=SHAPE_DEFINITION_REPRESENTATION(#464,#465);
#464=PRODUCT_DEFINITION_SHAPE('',$,#467);
#465=SHAPE_REPRESENTATION('',(#251),#457);
#466=PRODUCT_DEFINITION_CONTEXT('part definition',#471,'design');
#467=PRODUCT_DEFINITION('16AMD 20','16AMD(11) 10',#468,#466);
#468=PRODUCT_DEFINITION_FORMATION('',$,#473);
#469=PRODUCT_RELATED_PRODUCT_CATEGORY('16AMD(11) 10','16AMD(11) 10',(#473));
#470=APPLICATION_PROTOCOL_DEFINITION('international standard',
'automotive_design',2009,#471);
#471=APPLICATION_CONTEXT(
'Core Data for Automotive Mechanical Design Process');
#472=PRODUCT_CONTEXT('part definition',#471,'mechanical');
#473=PRODUCT('16AMD 20','16AMD(11) 10',$,(#472));
#474=PRESENTATION_STYLE_ASSIGNMENT((#475));
#475=SURFACE_STYLE_USAGE(.BOTH.,#478);
#476=SURFACE_STYLE_RENDERING_WITH_PROPERTIES($,#482,(#477));
#477=SURFACE_STYLE_TRANSPARENT(0.);
#478=SURFACE_SIDE_STYLE('',(#479,#476));
#479=SURFACE_STYLE_FILL_AREA(#480);
#480=FILL_AREA_STYLE('',(#481));
#481=FILL_AREA_STYLE_COLOUR('',#482);
#482=COLOUR_RGB('',0.749019607843137,0.749019607843137,0.749019607843137);
ENDSEC;
END-ISO-10303-21;
