ISO-10303-21;
HEADER;
/* Generated by software containing ST-Developer
 * from STEP Tools, Inc. (www.steptools.com) 
 */

FILE_DESCRIPTION(
/* description */ (''),
/* implementation_level */ '2;1');

FILE_NAME(
/* name */ 
'\\\\Tske00\\w\\Work\\TOSTE\\\X2\7D99624B\X0\\\01_\X2\30AF30E930F330D7\X0\\\
\X2\30AD30E330C330D7\X0\\\16AMD 60.stp',
/* time_stamp */ '2022-04-12T09:15:56+09:00',
/* author */ ('3dcad-eng'),
/* organization */ (''),
/* preprocessor_version */ 'ST-DEVELOPER v18.1',
/* originating_system */ 'Autodesk Inventor 2022',
/* authorisation */ '');

FILE_SCHEMA (('AUTOMOTIVE_DESIGN { 1 0 10303 214 3 1 1 }'));
ENDSEC;

DATA;
#10=MECHANICAL_DESIGN_GEOMETRIC_PRESENTATION_REPRESENTATION('',(#13),#351);
#11=SHAPE_REPRESENTATION_RELATIONSHIP('SRR','None',#358,#12);
#12=ADVANCED_BREP_SHAPE_REPRESENTATION('',(#14),#350);
#13=STYLED_ITEM('',(#367),#14);
#14=MANIFOLD_SOLID_BREP('\X2\30BD30EA30C330C9\X0\1',#177);
#15=CYLINDRICAL_SURFACE('',#226,91.5);
#16=FACE_BOUND('',#45,.T.);
#17=PLANE('',#205);
#18=PLANE('',#215);
#19=PLANE('',#227);
#20=LINE('',#310,#24);
#21=LINE('',#326,#25);
#22=LINE('',#336,#26);
#23=LINE('',#346,#27);
#24=VECTOR('',#246,88.2890141017566);
#25=VECTOR('',#265,85.7109858982435);
#26=VECTOR('',#278,85.1923577345301);
#27=VECTOR('',#293,91.5);
#28=CONICAL_SURFACE('',#202,88.2890141017566,0.401425727958697);
#29=CONICAL_SURFACE('',#212,85.7109858982435,0.401425727958697);
#30=CONICAL_SURFACE('',#218,85.1923577345301,1.22173047639603);
#31=FACE_OUTER_BOUND('',#42,.T.);
#32=FACE_OUTER_BOUND('',#43,.T.);
#33=FACE_OUTER_BOUND('',#44,.T.);
#34=FACE_OUTER_BOUND('',#46,.T.);
#35=FACE_OUTER_BOUND('',#47,.T.);
#36=FACE_OUTER_BOUND('',#48,.T.);
#37=FACE_OUTER_BOUND('',#49,.T.);
#38=FACE_OUTER_BOUND('',#50,.T.);
#39=FACE_OUTER_BOUND('',#51,.T.);
#40=FACE_OUTER_BOUND('',#52,.T.);
#41=FACE_OUTER_BOUND('',#53,.T.);
#42=EDGE_LOOP('',(#114,#115,#116,#117,#118));
#43=EDGE_LOOP('',(#119,#120,#121,#122,#123,#124));
#44=EDGE_LOOP('',(#125));
#45=EDGE_LOOP('',(#126));
#46=EDGE_LOOP('',(#127,#128,#129,#130,#131));
#47=EDGE_LOOP('',(#132,#133,#134,#135,#136,#137));
#48=EDGE_LOOP('',(#138));
#49=EDGE_LOOP('',(#139,#140,#141,#142,#143,#144));
#50=EDGE_LOOP('',(#145,#146,#147,#148,#149));
#51=EDGE_LOOP('',(#150,#151,#152,#153,#154,#155));
#52=EDGE_LOOP('',(#156,#157,#158,#159,#160));
#53=EDGE_LOOP('',(#161));
#54=CIRCLE('',#198,89.0029308283268);
#55=CIRCLE('',#199,0.8);
#56=CIRCLE('',#200,88.2665269455648);
#57=CIRCLE('',#201,88.2665269455648);
#58=CIRCLE('',#203,88.1046058241429);
#59=CIRCLE('',#204,88.1046058241429);
#60=CIRCLE('',#206,91.5);
#61=CIRCLE('',#208,84.9970691716733);
#62=CIRCLE('',#209,0.8);
#63=CIRCLE('',#210,85.7334730544352);
#64=CIRCLE('',#211,85.7334730544352);
#65=CIRCLE('',#213,85.8953941758571);
#66=CIRCLE('',#214,85.8953941758571);
#67=CIRCLE('',#217,1.2);
#68=CIRCLE('',#219,90.9736161146605);
#69=CIRCLE('',#220,79.4110993543997);
#70=CIRCLE('',#221,90.9736161146605);
#71=CIRCLE('',#223,91.5);
#72=CIRCLE('',#224,91.5);
#73=CIRCLE('',#225,0.799999999999999);
#74=VERTEX_POINT('',#298);
#75=VERTEX_POINT('',#300);
#76=VERTEX_POINT('',#302);
#77=VERTEX_POINT('',#306);
#78=VERTEX_POINT('',#307);
#79=VERTEX_POINT('',#312);
#80=VERTEX_POINT('',#315);
#81=VERTEX_POINT('',#317);
#82=VERTEX_POINT('',#319);
#83=VERTEX_POINT('',#323);
#84=VERTEX_POINT('',#324);
#85=VERTEX_POINT('',#332);
#86=VERTEX_POINT('',#333);
#87=VERTEX_POINT('',#335);
#88=VERTEX_POINT('',#340);
#89=VERTEX_POINT('',#341);
#90=EDGE_CURVE('',#74,#74,#54,.T.);
#91=EDGE_CURVE('',#74,#75,#55,.T.);
#92=EDGE_CURVE('',#75,#76,#56,.T.);
#93=EDGE_CURVE('',#76,#75,#57,.T.);
#94=EDGE_CURVE('',#77,#78,#58,.T.);
#95=EDGE_CURVE('',#78,#77,#59,.T.);
#96=EDGE_CURVE('',#78,#76,#20,.T.);
#97=EDGE_CURVE('',#79,#79,#60,.T.);
#98=EDGE_CURVE('',#80,#80,#61,.T.);
#99=EDGE_CURVE('',#80,#81,#62,.T.);
#100=EDGE_CURVE('',#81,#82,#63,.T.);
#101=EDGE_CURVE('',#82,#81,#64,.T.);
#102=EDGE_CURVE('',#83,#84,#65,.T.);
#103=EDGE_CURVE('',#84,#82,#21,.T.);
#104=EDGE_CURVE('',#84,#83,#66,.T.);
#105=EDGE_CURVE('',#83,#77,#67,.T.);
#106=EDGE_CURVE('',#85,#86,#68,.T.);
#107=EDGE_CURVE('',#85,#87,#22,.T.);
#108=EDGE_CURVE('',#87,#87,#69,.T.);
#109=EDGE_CURVE('',#86,#85,#70,.T.);
#110=EDGE_CURVE('',#88,#89,#71,.T.);
#111=EDGE_CURVE('',#89,#88,#72,.T.);
#112=EDGE_CURVE('',#89,#86,#73,.T.);
#113=EDGE_CURVE('',#79,#88,#23,.T.);
#114=ORIENTED_EDGE('',*,*,#90,.T.);
#115=ORIENTED_EDGE('',*,*,#91,.T.);
#116=ORIENTED_EDGE('',*,*,#92,.T.);
#117=ORIENTED_EDGE('',*,*,#93,.T.);
#118=ORIENTED_EDGE('',*,*,#91,.F.);
#119=ORIENTED_EDGE('',*,*,#94,.F.);
#120=ORIENTED_EDGE('',*,*,#95,.F.);
#121=ORIENTED_EDGE('',*,*,#96,.T.);
#122=ORIENTED_EDGE('',*,*,#92,.F.);
#123=ORIENTED_EDGE('',*,*,#93,.F.);
#124=ORIENTED_EDGE('',*,*,#96,.F.);
#125=ORIENTED_EDGE('',*,*,#97,.T.);
#126=ORIENTED_EDGE('',*,*,#90,.F.);
#127=ORIENTED_EDGE('',*,*,#98,.T.);
#128=ORIENTED_EDGE('',*,*,#99,.T.);
#129=ORIENTED_EDGE('',*,*,#100,.T.);
#130=ORIENTED_EDGE('',*,*,#101,.T.);
#131=ORIENTED_EDGE('',*,*,#99,.F.);
#132=ORIENTED_EDGE('',*,*,#102,.T.);
#133=ORIENTED_EDGE('',*,*,#103,.T.);
#134=ORIENTED_EDGE('',*,*,#100,.F.);
#135=ORIENTED_EDGE('',*,*,#101,.F.);
#136=ORIENTED_EDGE('',*,*,#103,.F.);
#137=ORIENTED_EDGE('',*,*,#104,.T.);
#138=ORIENTED_EDGE('',*,*,#98,.F.);
#139=ORIENTED_EDGE('',*,*,#102,.F.);
#140=ORIENTED_EDGE('',*,*,#105,.T.);
#141=ORIENTED_EDGE('',*,*,#94,.T.);
#142=ORIENTED_EDGE('',*,*,#95,.T.);
#143=ORIENTED_EDGE('',*,*,#105,.F.);
#144=ORIENTED_EDGE('',*,*,#104,.F.);
#145=ORIENTED_EDGE('',*,*,#106,.F.);
#146=ORIENTED_EDGE('',*,*,#107,.T.);
#147=ORIENTED_EDGE('',*,*,#108,.T.);
#148=ORIENTED_EDGE('',*,*,#107,.F.);
#149=ORIENTED_EDGE('',*,*,#109,.F.);
#150=ORIENTED_EDGE('',*,*,#110,.F.);
#151=ORIENTED_EDGE('',*,*,#111,.F.);
#152=ORIENTED_EDGE('',*,*,#112,.T.);
#153=ORIENTED_EDGE('',*,*,#109,.T.);
#154=ORIENTED_EDGE('',*,*,#106,.T.);
#155=ORIENTED_EDGE('',*,*,#112,.F.);
#156=ORIENTED_EDGE('',*,*,#97,.F.);
#157=ORIENTED_EDGE('',*,*,#113,.T.);
#158=ORIENTED_EDGE('',*,*,#110,.T.);
#159=ORIENTED_EDGE('',*,*,#111,.T.);
#160=ORIENTED_EDGE('',*,*,#113,.F.);
#161=ORIENTED_EDGE('',*,*,#108,.F.);
#162=TOROIDAL_SURFACE('',#197,89.0029308283268,0.8);
#163=TOROIDAL_SURFACE('',#207,84.9970691716733,0.8);
#164=TOROIDAL_SURFACE('',#216,87.,1.2);
#165=TOROIDAL_SURFACE('',#222,90.7,0.799999999999999);
#166=ADVANCED_FACE('',(#31),#162,.T.);
#167=ADVANCED_FACE('',(#32),#28,.F.);
#168=ADVANCED_FACE('',(#33,#16),#17,.T.);
#169=ADVANCED_FACE('',(#34),#163,.T.);
#170=ADVANCED_FACE('',(#35),#29,.T.);
#171=ADVANCED_FACE('',(#36),#18,.T.);
#172=ADVANCED_FACE('',(#37),#164,.F.);
#173=ADVANCED_FACE('',(#38),#30,.T.);
#174=ADVANCED_FACE('',(#39),#165,.T.);
#175=ADVANCED_FACE('',(#40),#15,.T.);
#176=ADVANCED_FACE('',(#41),#19,.T.);
#177=CLOSED_SHELL('',(#166,#167,#168,#169,#170,#171,#172,#173,#174,#175,
#176));
#178=DERIVED_UNIT_ELEMENT(#180,1.);
#179=DERIVED_UNIT_ELEMENT(#353,-3.);
#180=(
MASS_UNIT()
NAMED_UNIT(*)
SI_UNIT($,.GRAM.)
);
#181=DERIVED_UNIT((#178,#179));
#182=MEASURE_REPRESENTATION_ITEM('density measure',
POSITIVE_RATIO_MEASURE(1.),#181);
#183=PROPERTY_DEFINITION_REPRESENTATION(#188,#185);
#184=PROPERTY_DEFINITION_REPRESENTATION(#189,#186);
#185=REPRESENTATION('material name',(#187),#350);
#186=REPRESENTATION('density',(#182),#350);
#187=DESCRIPTIVE_REPRESENTATION_ITEM('\X2\4E00822C\X0\','\X2\4E00822C\X0\');
#188=PROPERTY_DEFINITION('material property','material name',#360);
#189=PROPERTY_DEFINITION('material property','density of part',#360);
#190=DATE_TIME_ROLE('creation_date');
#191=APPLIED_DATE_AND_TIME_ASSIGNMENT(#192,#190,(#360));
#192=DATE_AND_TIME(#193,#194);
#193=CALENDAR_DATE(2022,23,3);
#194=LOCAL_TIME(0,0,0.,#195);
#195=COORDINATED_UNIVERSAL_TIME_OFFSET(0,0,.BEHIND.);
#196=AXIS2_PLACEMENT_3D('placement',#296,#228,#229);
#197=AXIS2_PLACEMENT_3D('',#297,#230,#231);
#198=AXIS2_PLACEMENT_3D('',#299,#232,#233);
#199=AXIS2_PLACEMENT_3D('',#301,#234,#235);
#200=AXIS2_PLACEMENT_3D('',#303,#236,#237);
#201=AXIS2_PLACEMENT_3D('',#304,#238,#239);
#202=AXIS2_PLACEMENT_3D('',#305,#240,#241);
#203=AXIS2_PLACEMENT_3D('',#308,#242,#243);
#204=AXIS2_PLACEMENT_3D('',#309,#244,#245);
#205=AXIS2_PLACEMENT_3D('',#311,#247,#248);
#206=AXIS2_PLACEMENT_3D('',#313,#249,#250);
#207=AXIS2_PLACEMENT_3D('',#314,#251,#252);
#208=AXIS2_PLACEMENT_3D('',#316,#253,#254);
#209=AXIS2_PLACEMENT_3D('',#318,#255,#256);
#210=AXIS2_PLACEMENT_3D('',#320,#257,#258);
#211=AXIS2_PLACEMENT_3D('',#321,#259,#260);
#212=AXIS2_PLACEMENT_3D('',#322,#261,#262);
#213=AXIS2_PLACEMENT_3D('',#325,#263,#264);
#214=AXIS2_PLACEMENT_3D('',#327,#266,#267);
#215=AXIS2_PLACEMENT_3D('',#328,#268,#269);
#216=AXIS2_PLACEMENT_3D('',#329,#270,#271);
#217=AXIS2_PLACEMENT_3D('',#330,#272,#273);
#218=AXIS2_PLACEMENT_3D('',#331,#274,#275);
#219=AXIS2_PLACEMENT_3D('',#334,#276,#277);
#220=AXIS2_PLACEMENT_3D('',#337,#279,#280);
#221=AXIS2_PLACEMENT_3D('',#338,#281,#282);
#222=AXIS2_PLACEMENT_3D('',#339,#283,#284);
#223=AXIS2_PLACEMENT_3D('',#342,#285,#286);
#224=AXIS2_PLACEMENT_3D('',#343,#287,#288);
#225=AXIS2_PLACEMENT_3D('',#344,#289,#290);
#226=AXIS2_PLACEMENT_3D('',#345,#291,#292);
#227=AXIS2_PLACEMENT_3D('',#347,#294,#295);
#228=DIRECTION('axis',(0.,0.,1.));
#229=DIRECTION('refdir',(1.,0.,0.));
#230=DIRECTION('center_axis',(-1.,0.,0.));
#231=DIRECTION('ref_axis',(0.,0.,1.));
#232=DIRECTION('center_axis',(1.,0.,0.));
#233=DIRECTION('ref_axis',(0.,1.,1.22464679914735E-16));
#234=DIRECTION('center_axis',(0.,-1.,1.22464679914735E-16));
#235=DIRECTION('ref_axis',(0.,-1.22464679914735E-16,-1.));
#236=DIRECTION('center_axis',(-1.,0.,0.));
#237=DIRECTION('ref_axis',(0.,1.,1.22464679914735E-16));
#238=DIRECTION('center_axis',(-1.,0.,0.));
#239=DIRECTION('ref_axis',(0.,1.,1.22464679914735E-16));
#240=DIRECTION('center_axis',(1.,0.,0.));
#241=DIRECTION('ref_axis',(0.,-1.,0.));
#242=DIRECTION('center_axis',(1.,0.,0.));
#243=DIRECTION('ref_axis',(0.,0.,-1.));
#244=DIRECTION('center_axis',(1.,0.,0.));
#245=DIRECTION('ref_axis',(0.,0.,-1.));
#246=DIRECTION('',(0.92050485345244,0.390731128489275,4.78507625831623E-17));
#247=DIRECTION('center_axis',(1.,0.,0.));
#248=DIRECTION('ref_axis',(0.,0.,-1.));
#249=DIRECTION('center_axis',(1.,0.,0.));
#250=DIRECTION('ref_axis',(0.,0.,-1.));
#251=DIRECTION('center_axis',(1.,0.,0.));
#252=DIRECTION('ref_axis',(0.,0.,-1.));
#253=DIRECTION('center_axis',(-1.,0.,0.));
#254=DIRECTION('ref_axis',(0.,1.,-1.22464679914735E-16));
#255=DIRECTION('center_axis',(0.,-1.,-1.22464679914735E-16));
#256=DIRECTION('ref_axis',(0.,-1.22464679914735E-16,1.));
#257=DIRECTION('center_axis',(1.,0.,0.));
#258=DIRECTION('ref_axis',(0.,1.,0.));
#259=DIRECTION('center_axis',(1.,0.,0.));
#260=DIRECTION('ref_axis',(0.,1.,0.));
#261=DIRECTION('center_axis',(-1.,0.,0.));
#262=DIRECTION('ref_axis',(0.,-1.,0.));
#263=DIRECTION('center_axis',(1.,0.,0.));
#264=DIRECTION('ref_axis',(0.,0.,-1.));
#265=DIRECTION('',(0.92050485345244,-0.390731128489275,-4.78507625831624E-17));
#266=DIRECTION('center_axis',(1.,0.,0.));
#267=DIRECTION('ref_axis',(0.,0.,-1.));
#268=DIRECTION('center_axis',(1.,0.,0.));
#269=DIRECTION('ref_axis',(0.,0.,-1.));
#270=DIRECTION('center_axis',(1.,0.,0.));
#271=DIRECTION('ref_axis',(0.,0.,-1.));
#272=DIRECTION('center_axis',(0.,1.,1.22464679914735E-16));
#273=DIRECTION('ref_axis',(0.,-1.22464679914735E-16,1.));
#274=DIRECTION('center_axis',(1.,0.,0.));
#275=DIRECTION('ref_axis',(0.,1.,0.));
#276=DIRECTION('center_axis',(1.,0.,0.));
#277=DIRECTION('ref_axis',(0.,0.,-1.));
#278=DIRECTION('',(-0.342020143325669,0.939692620785908,1.15079156022785E-16));
#279=DIRECTION('center_axis',(1.,0.,0.));
#280=DIRECTION('ref_axis',(0.,0.,-1.));
#281=DIRECTION('center_axis',(1.,0.,0.));
#282=DIRECTION('ref_axis',(0.,0.,-1.));
#283=DIRECTION('center_axis',(1.,0.,0.));
#284=DIRECTION('ref_axis',(0.,0.,-1.));
#285=DIRECTION('center_axis',(1.,0.,0.));
#286=DIRECTION('ref_axis',(0.,0.,-1.));
#287=DIRECTION('center_axis',(1.,0.,0.));
#288=DIRECTION('ref_axis',(0.,0.,-1.));
#289=DIRECTION('center_axis',(0.,-1.,-1.22464679914735E-16));
#290=DIRECTION('ref_axis',(0.,-1.22464679914735E-16,1.));
#291=DIRECTION('center_axis',(1.,0.,0.));
#292=DIRECTION('ref_axis',(0.,1.,0.));
#293=DIRECTION('',(-1.,0.,0.));
#294=DIRECTION('center_axis',(-1.,0.,0.));
#295=DIRECTION('ref_axis',(0.,0.,1.));
#296=CARTESIAN_POINT('',(0.,0.,0.));
#297=CARTESIAN_POINT('Origin',(-0.8,0.,0.));
#298=CARTESIAN_POINT('',(0.,-1.08997154353644E-14,-89.0029308283268));
#299=CARTESIAN_POINT('Origin',(0.,0.,0.));
#300=CARTESIAN_POINT('',(-0.487415097208576,-1.0809531969574E-14,-88.2665269455648));
#301=CARTESIAN_POINT('Origin',(-0.8,-1.08997154353644E-14,-89.0029308283268));
#302=CARTESIAN_POINT('',(-0.487415097208571,88.2665269455648,1.0809531969574E-14));
#303=CARTESIAN_POINT('Origin',(-0.487415097208576,0.,0.));
#304=CARTESIAN_POINT('Origin',(-0.487415097208576,0.,0.));
#305=CARTESIAN_POINT('Origin',(-0.434438677093564,0.,0.));
#306=CARTESIAN_POINT('',(-0.868877354187127,-1.07897023512676E-14,88.1046058241429));
#307=CARTESIAN_POINT('',(-0.868877354187128,88.1046058241429,1.07897023512676E-14));
#308=CARTESIAN_POINT('Origin',(-0.868877354187127,0.,0.));
#309=CARTESIAN_POINT('Origin',(-0.868877354187127,0.,0.));
#310=CARTESIAN_POINT('',(-0.434438677093564,88.2890141017566,1.08122858519592E-14));
#311=CARTESIAN_POINT('Origin',(0.,0.,0.));
#312=CARTESIAN_POINT('',(0.,-91.5,-1.12055182121983E-14));
#313=CARTESIAN_POINT('Origin',(0.,0.,0.));
#314=CARTESIAN_POINT('Origin',(-0.8,0.,0.));
#315=CARTESIAN_POINT('',(0.,-1.04091388697996E-14,84.9970691716733));
#316=CARTESIAN_POINT('Origin',(0.,0.,0.));
#317=CARTESIAN_POINT('',(-0.487415097208581,-1.049932233559E-14,85.7334730544352));
#318=CARTESIAN_POINT('Origin',(-0.8,-1.04091388697996E-14,84.9970691716733));
#319=CARTESIAN_POINT('',(-0.487415097208574,85.7334730544352,1.049932233559E-14));
#320=CARTESIAN_POINT('Origin',(-0.487415097208581,0.,1.049932233559E-14));
#321=CARTESIAN_POINT('Origin',(-0.487415097208581,0.,1.049932233559E-14));
#322=CARTESIAN_POINT('Origin',(-0.434438677093563,0.,0.));
#323=CARTESIAN_POINT('',(-0.868877354187125,-1.05191519538964E-14,85.8953941758571));
#324=CARTESIAN_POINT('',(-0.868877354187126,85.8953941758571,1.05191519538964E-14));
#325=CARTESIAN_POINT('Origin',(-0.868877354187125,0.,0.));
#326=CARTESIAN_POINT('',(-0.434438677093563,85.7109858982435,1.04965684532048E-14));
#327=CARTESIAN_POINT('Origin',(-0.868877354187125,0.,0.));
#328=CARTESIAN_POINT('Origin',(0.,0.,0.));
#329=CARTESIAN_POINT('Origin',(-0.4,0.,0.));
#330=CARTESIAN_POINT('Origin',(-0.4,-1.0654427152582E-14,87.));
#331=CARTESIAN_POINT('Origin',(-7.89579403303048,0.,0.));
#332=CARTESIAN_POINT('',(-5.79158806606096,-90.9736161146605,-1.11410547781679E-14));
#333=CARTESIAN_POINT('',(-5.79158806606096,-1.11410547781679E-14,90.9736161146605));
#334=CARTESIAN_POINT('Origin',(-5.79158806606096,0.,0.));
#335=CARTESIAN_POINT('',(-10.,-79.4110993543997,-9.7250548641138E-15));
#336=CARTESIAN_POINT('',(-7.89579403303048,-85.1923577345301,-1.04330548211409E-14));
#337=CARTESIAN_POINT('Origin',(-10.,0.,0.));
#338=CARTESIAN_POINT('Origin',(-5.79158806606096,0.,0.));
#339=CARTESIAN_POINT('Origin',(-5.03983396943223,0.,0.));
#340=CARTESIAN_POINT('',(-5.03983396943223,-91.5,-1.12055182121983E-14));
#341=CARTESIAN_POINT('',(-5.03983396943223,-1.12055182121983E-14,91.5));
#342=CARTESIAN_POINT('Origin',(-5.03983396943223,0.,0.));
#343=CARTESIAN_POINT('Origin',(-5.03983396943223,0.,0.));
#344=CARTESIAN_POINT('Origin',(-5.03983396943223,-1.11075464682665E-14,
90.7));
#345=CARTESIAN_POINT('Origin',(-2.51991698471612,0.,0.));
#346=CARTESIAN_POINT('',(-2.51991698471612,-91.5,-1.12055182121983E-14));
#347=CARTESIAN_POINT('Origin',(-10.,79.4110993543997,0.));
#348=UNCERTAINTY_MEASURE_WITH_UNIT(LENGTH_MEASURE(0.01),#352,
'DISTANCE_ACCURACY_VALUE',
'Maximum model space distance between geometric entities at asserted c
onnectivities');
#349=UNCERTAINTY_MEASURE_WITH_UNIT(LENGTH_MEASURE(0.01),#352,
'DISTANCE_ACCURACY_VALUE',
'Maximum model space distance between geometric entities at asserted c
onnectivities');
#350=(
GEOMETRIC_REPRESENTATION_CONTEXT(3)
GLOBAL_UNCERTAINTY_ASSIGNED_CONTEXT((#348))
GLOBAL_UNIT_ASSIGNED_CONTEXT((#352,#354,#355))
REPRESENTATION_CONTEXT('','3D')
);
#351=(
GEOMETRIC_REPRESENTATION_CONTEXT(3)
GLOBAL_UNCERTAINTY_ASSIGNED_CONTEXT((#349))
GLOBAL_UNIT_ASSIGNED_CONTEXT((#352,#354,#355))
REPRESENTATION_CONTEXT('','3D')
);
#352=(
LENGTH_UNIT()
NAMED_UNIT(*)
SI_UNIT(.MILLI.,.METRE.)
);
#353=(
LENGTH_UNIT()
NAMED_UNIT(*)
SI_UNIT(.CENTI.,.METRE.)
);
#354=(
NAMED_UNIT(*)
PLANE_ANGLE_UNIT()
SI_UNIT($,.RADIAN.)
);
#355=(
NAMED_UNIT(*)
SI_UNIT($,.STERADIAN.)
SOLID_ANGLE_UNIT()
);
#356=SHAPE_DEFINITION_REPRESENTATION(#357,#358);
#357=PRODUCT_DEFINITION_SHAPE('',$,#360);
#358=SHAPE_REPRESENTATION('',(#196),#350);
#359=PRODUCT_DEFINITION_CONTEXT('part definition',#364,'design');
#360=PRODUCT_DEFINITION('16AMD 60','16AMD 60',#361,#359);
#361=PRODUCT_DEFINITION_FORMATION('',$,#366);
#362=PRODUCT_RELATED_PRODUCT_CATEGORY('16AMD 60','16AMD 60',(#366));
#363=APPLICATION_PROTOCOL_DEFINITION('international standard',
'automotive_design',2009,#364);
#364=APPLICATION_CONTEXT(
'Core Data for Automotive Mechanical Design Process');
#365=PRODUCT_CONTEXT('part definition',#364,'mechanical');
#366=PRODUCT('16AMD 60','16AMD 60',$,(#365));
#367=PRESENTATION_STYLE_ASSIGNMENT((#368));
#368=SURFACE_STYLE_USAGE(.BOTH.,#371);
#369=SURFACE_STYLE_RENDERING_WITH_PROPERTIES($,#375,(#370));
#370=SURFACE_STYLE_TRANSPARENT(0.);
#371=SURFACE_SIDE_STYLE('',(#372,#369));
#372=SURFACE_STYLE_FILL_AREA(#373);
#373=FILL_AREA_STYLE('',(#374));
#374=FILL_AREA_STYLE_COLOUR('',#375);
#375=COLOUR_RGB('',0.749019607843137,0.749019607843137,0.749019607843137);
ENDSEC;
END-ISO-10303-21;
