ISO-10303-21;
HEADER;
/* Generated by software containing ST-Developer
 * from STEP Tools, Inc. (www.steptools.com) 
 */

FILE_DESCRIPTION(
/* description */ (''),
/* implementation_level */ '2;1');

FILE_NAME(
/* name */ 
'\\\\Tske00\\w\\Work\\TOSTE\\\X2\7D99624B\X0\\\01_\X2\30AF30E930F330D7\X0\\\
\X2\30D830EB30FC30EB\X0\\\L14MDW 40.stp',
/* time_stamp */ '2022-04-12T09:57:04+09:00',
/* author */ ('nishioka'),
/* organization */ (''),
/* preprocessor_version */ 'ST-DEVELOPER v18.1',
/* originating_system */ 'Autodesk Inventor 2022',
/* authorisation */ '');

FILE_SCHEMA (('AUTOMOTIVE_DESIGN { 1 0 10303 214 3 1 1 }'));
ENDSEC;

DATA;
#10=MECHANICAL_DESIGN_GEOMETRIC_PRESENTATION_REPRESENTATION('',(#13),#497);
#11=SHAPE_REPRESENTATION_RELATIONSHIP('SRR','None',#504,#12);
#12=ADVANCED_BREP_SHAPE_REPRESENTATION('',(#14),#496);
#13=STYLED_ITEM('',(#513),#14);
#14=MANIFOLD_SOLID_BREP('\X2\30BD30EA30C330C9\X0\1',#255);
#15=CYLINDRICAL_SURFACE('',#297,50.8);
#16=CYLINDRICAL_SURFACE('',#312,59.5);
#17=CYLINDRICAL_SURFACE('',#317,48.8);
#18=FACE_BOUND('',#57,.T.);
#19=FACE_BOUND('',#61,.T.);
#20=FACE_BOUND('',#71,.T.);
#21=PLANE('',#283);
#22=PLANE('',#293);
#23=PLANE('',#319);
#24=LINE('',#431,#30);
#25=LINE('',#449,#31);
#26=LINE('',#460,#32);
#27=LINE('',#473,#33);
#28=LINE('',#482,#34);
#29=LINE('',#491,#35);
#30=VECTOR('',#336,56.2890141017566);
#31=VECTOR('',#359,53.7109858982434);
#32=VECTOR('',#372,50.8);
#33=VECTOR('',#389,55.5447879140046);
#34=VECTOR('',#402,59.5);
#35=VECTOR('',#413,48.8);
#36=CONICAL_SURFACE('',#280,56.2890141017566,0.401425727958695);
#37=CONICAL_SURFACE('',#290,53.7109858982434,0.401425727958678);
#38=CONICAL_SURFACE('',#305,55.5447879140046,1.22173047639603);
#39=FACE_OUTER_BOUND('',#54,.T.);
#40=FACE_OUTER_BOUND('',#55,.T.);
#41=FACE_OUTER_BOUND('',#56,.T.);
#42=FACE_OUTER_BOUND('',#58,.T.);
#43=FACE_OUTER_BOUND('',#59,.T.);
#44=FACE_OUTER_BOUND('',#60,.T.);
#45=FACE_OUTER_BOUND('',#62,.T.);
#46=FACE_OUTER_BOUND('',#63,.T.);
#47=FACE_OUTER_BOUND('',#64,.T.);
#48=FACE_OUTER_BOUND('',#65,.T.);
#49=FACE_OUTER_BOUND('',#66,.T.);
#50=FACE_OUTER_BOUND('',#67,.T.);
#51=FACE_OUTER_BOUND('',#68,.T.);
#52=FACE_OUTER_BOUND('',#69,.T.);
#53=FACE_OUTER_BOUND('',#70,.T.);
#54=EDGE_LOOP('',(#162,#163,#164,#165,#166));
#55=EDGE_LOOP('',(#167,#168,#169,#170,#171,#172));
#56=EDGE_LOOP('',(#173));
#57=EDGE_LOOP('',(#174));
#58=EDGE_LOOP('',(#175,#176,#177,#178,#179));
#59=EDGE_LOOP('',(#180,#181,#182,#183,#184,#185));
#60=EDGE_LOOP('',(#186));
#61=EDGE_LOOP('',(#187));
#62=EDGE_LOOP('',(#188,#189,#190,#191,#192,#193));
#63=EDGE_LOOP('',(#194,#195,#196,#197,#198));
#64=EDGE_LOOP('',(#199,#200,#201,#202,#203,#204));
#65=EDGE_LOOP('',(#205,#206,#207,#208,#209,#210));
#66=EDGE_LOOP('',(#211,#212,#213,#214,#215,#216));
#67=EDGE_LOOP('',(#217,#218,#219,#220,#221));
#68=EDGE_LOOP('',(#222,#223,#224,#225,#226));
#69=EDGE_LOOP('',(#227,#228,#229,#230,#231));
#70=EDGE_LOOP('',(#232));
#71=EDGE_LOOP('',(#233));
#72=CIRCLE('',#276,57.0029308283268);
#73=CIRCLE('',#277,0.8);
#74=CIRCLE('',#278,56.2665269455648);
#75=CIRCLE('',#279,56.2665269455648);
#76=CIRCLE('',#281,56.1046058241429);
#77=CIRCLE('',#282,56.1046058241429);
#78=CIRCLE('',#284,59.5);
#79=CIRCLE('',#286,52.9970691716732);
#80=CIRCLE('',#287,0.8);
#81=CIRCLE('',#288,53.7334730544352);
#82=CIRCLE('',#289,53.7334730544352);
#83=CIRCLE('',#291,53.8953941758571);
#84=CIRCLE('',#292,53.8953941758571);
#85=CIRCLE('',#294,49.1);
#86=CIRCLE('',#296,1.2);
#87=CIRCLE('',#298,50.8);
#88=CIRCLE('',#299,50.8);
#89=CIRCLE('',#300,50.8);
#90=CIRCLE('',#302,2.);
#91=CIRCLE('',#303,52.1159597133487);
#92=CIRCLE('',#304,52.1159597133487);
#93=CIRCLE('',#306,58.9736161146605);
#94=CIRCLE('',#307,58.9736161146605);
#95=CIRCLE('',#309,59.5);
#96=CIRCLE('',#310,59.5);
#97=CIRCLE('',#311,0.799999999999998);
#98=CIRCLE('',#314,48.8);
#99=CIRCLE('',#315,48.8);
#100=CIRCLE('',#316,0.3);
#101=CIRCLE('',#318,48.8);
#102=VERTEX_POINT('',#420);
#103=VERTEX_POINT('',#422);
#104=VERTEX_POINT('',#424);
#105=VERTEX_POINT('',#428);
#106=VERTEX_POINT('',#429);
#107=VERTEX_POINT('',#434);
#108=VERTEX_POINT('',#437);
#109=VERTEX_POINT('',#439);
#110=VERTEX_POINT('',#441);
#111=VERTEX_POINT('',#445);
#112=VERTEX_POINT('',#446);
#113=VERTEX_POINT('',#451);
#114=VERTEX_POINT('',#456);
#115=VERTEX_POINT('',#457);
#116=VERTEX_POINT('',#459);
#117=VERTEX_POINT('',#464);
#118=VERTEX_POINT('',#466);
#119=VERTEX_POINT('',#470);
#120=VERTEX_POINT('',#471);
#121=VERTEX_POINT('',#476);
#122=VERTEX_POINT('',#477);
#123=VERTEX_POINT('',#484);
#124=VERTEX_POINT('',#485);
#125=VERTEX_POINT('',#490);
#126=EDGE_CURVE('',#102,#102,#72,.T.);
#127=EDGE_CURVE('',#102,#103,#73,.T.);
#128=EDGE_CURVE('',#103,#104,#74,.T.);
#129=EDGE_CURVE('',#104,#103,#75,.T.);
#130=EDGE_CURVE('',#105,#106,#76,.T.);
#131=EDGE_CURVE('',#105,#104,#24,.T.);
#132=EDGE_CURVE('',#106,#105,#77,.T.);
#133=EDGE_CURVE('',#107,#107,#78,.T.);
#134=EDGE_CURVE('',#108,#108,#79,.T.);
#135=EDGE_CURVE('',#108,#109,#80,.T.);
#136=EDGE_CURVE('',#109,#110,#81,.T.);
#137=EDGE_CURVE('',#110,#109,#82,.T.);
#138=EDGE_CURVE('',#111,#112,#83,.T.);
#139=EDGE_CURVE('',#112,#111,#84,.T.);
#140=EDGE_CURVE('',#111,#110,#25,.T.);
#141=EDGE_CURVE('',#113,#113,#85,.T.);
#142=EDGE_CURVE('',#112,#106,#86,.T.);
#143=EDGE_CURVE('',#114,#115,#87,.T.);
#144=EDGE_CURVE('',#114,#116,#26,.T.);
#145=EDGE_CURVE('',#116,#116,#88,.T.);
#146=EDGE_CURVE('',#115,#114,#89,.T.);
#147=EDGE_CURVE('',#115,#117,#90,.T.);
#148=EDGE_CURVE('',#118,#117,#91,.T.);
#149=EDGE_CURVE('',#117,#118,#92,.T.);
#150=EDGE_CURVE('',#119,#120,#93,.T.);
#151=EDGE_CURVE('',#119,#118,#27,.T.);
#152=EDGE_CURVE('',#120,#119,#94,.T.);
#153=EDGE_CURVE('',#121,#122,#95,.T.);
#154=EDGE_CURVE('',#122,#121,#96,.T.);
#155=EDGE_CURVE('',#122,#120,#97,.T.);
#156=EDGE_CURVE('',#107,#121,#28,.T.);
#157=EDGE_CURVE('',#123,#124,#98,.T.);
#158=EDGE_CURVE('',#124,#123,#99,.T.);
#159=EDGE_CURVE('',#124,#113,#100,.T.);
#160=EDGE_CURVE('',#123,#125,#29,.T.);
#161=EDGE_CURVE('',#125,#125,#101,.T.);
#162=ORIENTED_EDGE('',*,*,#126,.T.);
#163=ORIENTED_EDGE('',*,*,#127,.T.);
#164=ORIENTED_EDGE('',*,*,#128,.T.);
#165=ORIENTED_EDGE('',*,*,#129,.T.);
#166=ORIENTED_EDGE('',*,*,#127,.F.);
#167=ORIENTED_EDGE('',*,*,#130,.F.);
#168=ORIENTED_EDGE('',*,*,#131,.T.);
#169=ORIENTED_EDGE('',*,*,#128,.F.);
#170=ORIENTED_EDGE('',*,*,#129,.F.);
#171=ORIENTED_EDGE('',*,*,#131,.F.);
#172=ORIENTED_EDGE('',*,*,#132,.F.);
#173=ORIENTED_EDGE('',*,*,#133,.T.);
#174=ORIENTED_EDGE('',*,*,#126,.F.);
#175=ORIENTED_EDGE('',*,*,#134,.T.);
#176=ORIENTED_EDGE('',*,*,#135,.T.);
#177=ORIENTED_EDGE('',*,*,#136,.T.);
#178=ORIENTED_EDGE('',*,*,#137,.T.);
#179=ORIENTED_EDGE('',*,*,#135,.F.);
#180=ORIENTED_EDGE('',*,*,#138,.T.);
#181=ORIENTED_EDGE('',*,*,#139,.T.);
#182=ORIENTED_EDGE('',*,*,#140,.T.);
#183=ORIENTED_EDGE('',*,*,#136,.F.);
#184=ORIENTED_EDGE('',*,*,#137,.F.);
#185=ORIENTED_EDGE('',*,*,#140,.F.);
#186=ORIENTED_EDGE('',*,*,#134,.F.);
#187=ORIENTED_EDGE('',*,*,#141,.F.);
#188=ORIENTED_EDGE('',*,*,#138,.F.);
#189=ORIENTED_EDGE('',*,*,#139,.F.);
#190=ORIENTED_EDGE('',*,*,#142,.T.);
#191=ORIENTED_EDGE('',*,*,#132,.T.);
#192=ORIENTED_EDGE('',*,*,#130,.T.);
#193=ORIENTED_EDGE('',*,*,#142,.F.);
#194=ORIENTED_EDGE('',*,*,#143,.F.);
#195=ORIENTED_EDGE('',*,*,#144,.T.);
#196=ORIENTED_EDGE('',*,*,#145,.T.);
#197=ORIENTED_EDGE('',*,*,#144,.F.);
#198=ORIENTED_EDGE('',*,*,#146,.F.);
#199=ORIENTED_EDGE('',*,*,#143,.T.);
#200=ORIENTED_EDGE('',*,*,#147,.T.);
#201=ORIENTED_EDGE('',*,*,#148,.F.);
#202=ORIENTED_EDGE('',*,*,#149,.F.);
#203=ORIENTED_EDGE('',*,*,#147,.F.);
#204=ORIENTED_EDGE('',*,*,#146,.T.);
#205=ORIENTED_EDGE('',*,*,#150,.F.);
#206=ORIENTED_EDGE('',*,*,#151,.T.);
#207=ORIENTED_EDGE('',*,*,#148,.T.);
#208=ORIENTED_EDGE('',*,*,#149,.T.);
#209=ORIENTED_EDGE('',*,*,#151,.F.);
#210=ORIENTED_EDGE('',*,*,#152,.F.);
#211=ORIENTED_EDGE('',*,*,#153,.F.);
#212=ORIENTED_EDGE('',*,*,#154,.F.);
#213=ORIENTED_EDGE('',*,*,#155,.T.);
#214=ORIENTED_EDGE('',*,*,#152,.T.);
#215=ORIENTED_EDGE('',*,*,#150,.T.);
#216=ORIENTED_EDGE('',*,*,#155,.F.);
#217=ORIENTED_EDGE('',*,*,#133,.F.);
#218=ORIENTED_EDGE('',*,*,#156,.T.);
#219=ORIENTED_EDGE('',*,*,#153,.T.);
#220=ORIENTED_EDGE('',*,*,#154,.T.);
#221=ORIENTED_EDGE('',*,*,#156,.F.);
#222=ORIENTED_EDGE('',*,*,#157,.F.);
#223=ORIENTED_EDGE('',*,*,#158,.F.);
#224=ORIENTED_EDGE('',*,*,#159,.T.);
#225=ORIENTED_EDGE('',*,*,#141,.T.);
#226=ORIENTED_EDGE('',*,*,#159,.F.);
#227=ORIENTED_EDGE('',*,*,#157,.T.);
#228=ORIENTED_EDGE('',*,*,#158,.T.);
#229=ORIENTED_EDGE('',*,*,#160,.T.);
#230=ORIENTED_EDGE('',*,*,#161,.F.);
#231=ORIENTED_EDGE('',*,*,#160,.F.);
#232=ORIENTED_EDGE('',*,*,#145,.F.);
#233=ORIENTED_EDGE('',*,*,#161,.T.);
#234=TOROIDAL_SURFACE('',#275,57.0029308283268,0.8);
#235=TOROIDAL_SURFACE('',#285,52.9970691716732,0.8);
#236=TOROIDAL_SURFACE('',#295,55.,1.2);
#237=TOROIDAL_SURFACE('',#301,52.8,2.);
#238=TOROIDAL_SURFACE('',#308,58.7,0.799999999999998);
#239=TOROIDAL_SURFACE('',#313,49.1,0.3);
#240=ADVANCED_FACE('',(#39),#234,.T.);
#241=ADVANCED_FACE('',(#40),#36,.F.);
#242=ADVANCED_FACE('',(#41,#18),#21,.T.);
#243=ADVANCED_FACE('',(#42),#235,.T.);
#244=ADVANCED_FACE('',(#43),#37,.T.);
#245=ADVANCED_FACE('',(#44,#19),#22,.T.);
#246=ADVANCED_FACE('',(#45),#236,.F.);
#247=ADVANCED_FACE('',(#46),#15,.T.);
#248=ADVANCED_FACE('',(#47),#237,.F.);
#249=ADVANCED_FACE('',(#48),#38,.T.);
#250=ADVANCED_FACE('',(#49),#238,.T.);
#251=ADVANCED_FACE('',(#50),#16,.T.);
#252=ADVANCED_FACE('',(#51),#239,.T.);
#253=ADVANCED_FACE('',(#52),#17,.F.);
#254=ADVANCED_FACE('',(#53,#20),#23,.T.);
#255=CLOSED_SHELL('',(#240,#241,#242,#243,#244,#245,#246,#247,#248,#249,
#250,#251,#252,#253,#254));
#256=DERIVED_UNIT_ELEMENT(#258,1.);
#257=DERIVED_UNIT_ELEMENT(#499,-3.);
#258=(
MASS_UNIT()
NAMED_UNIT(*)
SI_UNIT($,.GRAM.)
);
#259=DERIVED_UNIT((#256,#257));
#260=MEASURE_REPRESENTATION_ITEM('density measure',
POSITIVE_RATIO_MEASURE(1.),#259);
#261=PROPERTY_DEFINITION_REPRESENTATION(#266,#263);
#262=PROPERTY_DEFINITION_REPRESENTATION(#267,#264);
#263=REPRESENTATION('material name',(#265),#496);
#264=REPRESENTATION('density',(#260),#496);
#265=DESCRIPTIVE_REPRESENTATION_ITEM('\X2\4E00822C\X0\','\X2\4E00822C\X0\');
#266=PROPERTY_DEFINITION('material property','material name',#506);
#267=PROPERTY_DEFINITION('material property','density of part',#506);
#268=DATE_TIME_ROLE('creation_date');
#269=APPLIED_DATE_AND_TIME_ASSIGNMENT(#270,#268,(#506));
#270=DATE_AND_TIME(#271,#272);
#271=CALENDAR_DATE(2022,23,3);
#272=LOCAL_TIME(0,0,0.,#273);
#273=COORDINATED_UNIVERSAL_TIME_OFFSET(0,0,.BEHIND.);
#274=AXIS2_PLACEMENT_3D('placement',#418,#320,#321);
#275=AXIS2_PLACEMENT_3D('',#419,#322,#323);
#276=AXIS2_PLACEMENT_3D('',#421,#324,#325);
#277=AXIS2_PLACEMENT_3D('',#423,#326,#327);
#278=AXIS2_PLACEMENT_3D('',#425,#328,#329);
#279=AXIS2_PLACEMENT_3D('',#426,#330,#331);
#280=AXIS2_PLACEMENT_3D('',#427,#332,#333);
#281=AXIS2_PLACEMENT_3D('',#430,#334,#335);
#282=AXIS2_PLACEMENT_3D('',#432,#337,#338);
#283=AXIS2_PLACEMENT_3D('',#433,#339,#340);
#284=AXIS2_PLACEMENT_3D('',#435,#341,#342);
#285=AXIS2_PLACEMENT_3D('',#436,#343,#344);
#286=AXIS2_PLACEMENT_3D('',#438,#345,#346);
#287=AXIS2_PLACEMENT_3D('',#440,#347,#348);
#288=AXIS2_PLACEMENT_3D('',#442,#349,#350);
#289=AXIS2_PLACEMENT_3D('',#443,#351,#352);
#290=AXIS2_PLACEMENT_3D('',#444,#353,#354);
#291=AXIS2_PLACEMENT_3D('',#447,#355,#356);
#292=AXIS2_PLACEMENT_3D('',#448,#357,#358);
#293=AXIS2_PLACEMENT_3D('',#450,#360,#361);
#294=AXIS2_PLACEMENT_3D('',#452,#362,#363);
#295=AXIS2_PLACEMENT_3D('',#453,#364,#365);
#296=AXIS2_PLACEMENT_3D('',#454,#366,#367);
#297=AXIS2_PLACEMENT_3D('',#455,#368,#369);
#298=AXIS2_PLACEMENT_3D('',#458,#370,#371);
#299=AXIS2_PLACEMENT_3D('',#461,#373,#374);
#300=AXIS2_PLACEMENT_3D('',#462,#375,#376);
#301=AXIS2_PLACEMENT_3D('',#463,#377,#378);
#302=AXIS2_PLACEMENT_3D('',#465,#379,#380);
#303=AXIS2_PLACEMENT_3D('',#467,#381,#382);
#304=AXIS2_PLACEMENT_3D('',#468,#383,#384);
#305=AXIS2_PLACEMENT_3D('',#469,#385,#386);
#306=AXIS2_PLACEMENT_3D('',#472,#387,#388);
#307=AXIS2_PLACEMENT_3D('',#474,#390,#391);
#308=AXIS2_PLACEMENT_3D('',#475,#392,#393);
#309=AXIS2_PLACEMENT_3D('',#478,#394,#395);
#310=AXIS2_PLACEMENT_3D('',#479,#396,#397);
#311=AXIS2_PLACEMENT_3D('',#480,#398,#399);
#312=AXIS2_PLACEMENT_3D('',#481,#400,#401);
#313=AXIS2_PLACEMENT_3D('',#483,#403,#404);
#314=AXIS2_PLACEMENT_3D('',#486,#405,#406);
#315=AXIS2_PLACEMENT_3D('',#487,#407,#408);
#316=AXIS2_PLACEMENT_3D('',#488,#409,#410);
#317=AXIS2_PLACEMENT_3D('',#489,#411,#412);
#318=AXIS2_PLACEMENT_3D('',#492,#414,#415);
#319=AXIS2_PLACEMENT_3D('',#493,#416,#417);
#320=DIRECTION('axis',(0.,0.,1.));
#321=DIRECTION('refdir',(1.,0.,0.));
#322=DIRECTION('center_axis',(-1.,-1.64477485129653E-16,0.));
#323=DIRECTION('ref_axis',(0.,0.,1.));
#324=DIRECTION('center_axis',(1.,1.64477485129653E-16,0.));
#325=DIRECTION('ref_axis',(1.64477485129653E-16,-1.,-1.22464679914735E-16));
#326=DIRECTION('center_axis',(1.64477485129653E-16,-1.,1.22464679914735E-16));
#327=DIRECTION('ref_axis',(0.,-1.22464679914735E-16,-1.));
#328=DIRECTION('center_axis',(-1.,-1.43053381210458E-16,-1.17141065881531E-32));
#329=DIRECTION('ref_axis',(1.43053381210458E-16,-1.,-1.22464679914735E-16));
#330=DIRECTION('center_axis',(-1.,-1.43053381210458E-16,-1.17141065881531E-32));
#331=DIRECTION('ref_axis',(1.43053381210458E-16,-1.,-1.22464679914735E-16));
#332=DIRECTION('center_axis',(1.,0.,0.));
#333=DIRECTION('ref_axis',(0.,1.,0.));
#334=DIRECTION('center_axis',(1.,0.,0.));
#335=DIRECTION('ref_axis',(0.,0.,-1.));
#336=DIRECTION('',(0.920504853452441,-0.390731128489273,-4.78507625831621E-17));
#337=DIRECTION('center_axis',(1.,0.,0.));
#338=DIRECTION('ref_axis',(0.,0.,-1.));
#339=DIRECTION('center_axis',(1.,1.64477485129653E-16,0.));
#340=DIRECTION('ref_axis',(0.,0.,-1.));
#341=DIRECTION('center_axis',(1.,1.64477485129653E-16,0.));
#342=DIRECTION('ref_axis',(0.,0.,-1.));
#343=DIRECTION('center_axis',(1.,1.64477485129653E-16,0.));
#344=DIRECTION('ref_axis',(0.,0.,-1.));
#345=DIRECTION('center_axis',(-1.,-1.64477485129653E-16,0.));
#346=DIRECTION('ref_axis',(1.64477485129653E-16,-1.,1.22464679914735E-16));
#347=DIRECTION('center_axis',(1.64477485129653E-16,-1.,-1.22464679914735E-16));
#348=DIRECTION('ref_axis',(0.,-1.22464679914735E-16,1.));
#349=DIRECTION('center_axis',(1.,1.35592177183887E-16,-3.30111257425696E-32));
#350=DIRECTION('ref_axis',(1.35592177183887E-16,-1.,1.83512450521728E-32));
#351=DIRECTION('center_axis',(1.,1.35592177183887E-16,-3.30111257425696E-32));
#352=DIRECTION('ref_axis',(1.35592177183887E-16,-1.,1.83512450521728E-32));
#353=DIRECTION('center_axis',(-1.,0.,0.));
#354=DIRECTION('ref_axis',(0.,1.,0.));
#355=DIRECTION('center_axis',(1.,0.,0.));
#356=DIRECTION('ref_axis',(0.,0.,-1.));
#357=DIRECTION('center_axis',(1.,0.,0.));
#358=DIRECTION('ref_axis',(0.,0.,-1.));
#359=DIRECTION('',(0.920504853452447,0.390731128489258,4.78507625831602E-17));
#360=DIRECTION('center_axis',(1.,1.64477485129653E-16,0.));
#361=DIRECTION('ref_axis',(0.,0.,-1.));
#362=DIRECTION('center_axis',(1.,1.64477485129653E-16,0.));
#363=DIRECTION('ref_axis',(0.,0.,-1.));
#364=DIRECTION('center_axis',(1.,0.,0.));
#365=DIRECTION('ref_axis',(0.,0.,-1.));
#366=DIRECTION('center_axis',(0.,1.,1.22464679914735E-16));
#367=DIRECTION('ref_axis',(0.,-1.22464679914735E-16,1.));
#368=DIRECTION('center_axis',(1.,1.64477485129653E-16,0.));
#369=DIRECTION('ref_axis',(-1.77880041310374E-16,1.,0.));
#370=DIRECTION('center_axis',(1.,1.64477485129653E-16,0.));
#371=DIRECTION('ref_axis',(0.,0.,-1.));
#372=DIRECTION('',(-1.,-1.64477485129653E-16,0.));
#373=DIRECTION('center_axis',(1.,1.64477485129653E-16,0.));
#374=DIRECTION('ref_axis',(0.,0.,-1.));
#375=DIRECTION('center_axis',(1.,1.64477485129653E-16,0.));
#376=DIRECTION('ref_axis',(0.,0.,-1.));
#377=DIRECTION('center_axis',(1.,1.64477485129653E-16,0.));
#378=DIRECTION('ref_axis',(0.,0.,-1.));
#379=DIRECTION('center_axis',(1.64477485129653E-16,-1.,-1.22464679914735E-16));
#380=DIRECTION('ref_axis',(0.,-1.22464679914735E-16,1.));
#381=DIRECTION('center_axis',(1.,1.64477485129653E-16,0.));
#382=DIRECTION('ref_axis',(0.,0.,-1.));
#383=DIRECTION('center_axis',(1.,1.64477485129653E-16,0.));
#384=DIRECTION('ref_axis',(0.,0.,-1.));
#385=DIRECTION('center_axis',(1.,1.64477485129653E-16,0.));
#386=DIRECTION('ref_axis',(-1.77880041310374E-16,1.,0.));
#387=DIRECTION('center_axis',(1.,1.64477485129653E-16,0.));
#388=DIRECTION('ref_axis',(0.,0.,-1.));
#389=DIRECTION('',(-0.342020143325668,0.939692620785909,1.15079156022785E-16));
#390=DIRECTION('center_axis',(1.,1.64477485129653E-16,0.));
#391=DIRECTION('ref_axis',(0.,0.,-1.));
#392=DIRECTION('center_axis',(1.,1.64477485129653E-16,0.));
#393=DIRECTION('ref_axis',(0.,0.,-1.));
#394=DIRECTION('center_axis',(1.,1.64477485129653E-16,0.));
#395=DIRECTION('ref_axis',(0.,0.,-1.));
#396=DIRECTION('center_axis',(1.,1.64477485129653E-16,0.));
#397=DIRECTION('ref_axis',(0.,0.,-1.));
#398=DIRECTION('center_axis',(1.64477485129653E-16,-1.,-1.22464679914735E-16));
#399=DIRECTION('ref_axis',(0.,-1.22464679914735E-16,1.));
#400=DIRECTION('center_axis',(1.,1.64477485129653E-16,0.));
#401=DIRECTION('ref_axis',(-1.77880041310374E-16,1.,0.));
#402=DIRECTION('',(-1.,-1.64477485129653E-16,0.));
#403=DIRECTION('center_axis',(1.,1.64477485129653E-16,0.));
#404=DIRECTION('ref_axis',(0.,0.,-1.));
#405=DIRECTION('center_axis',(1.,1.64477485129653E-16,0.));
#406=DIRECTION('ref_axis',(0.,0.,-1.));
#407=DIRECTION('center_axis',(1.,1.64477485129653E-16,0.));
#408=DIRECTION('ref_axis',(0.,0.,-1.));
#409=DIRECTION('center_axis',(1.64477485129653E-16,-1.,-1.22464679914735E-16));
#410=DIRECTION('ref_axis',(0.,-1.22464679914735E-16,1.));
#411=DIRECTION('center_axis',(1.,1.64477485129653E-16,0.));
#412=DIRECTION('ref_axis',(-1.77880041310374E-16,1.,0.));
#413=DIRECTION('',(-1.,-1.64477485129653E-16,0.));
#414=DIRECTION('center_axis',(1.,1.64477485129653E-16,0.));
#415=DIRECTION('ref_axis',(0.,0.,-1.));
#416=DIRECTION('center_axis',(-1.,-1.64477485129653E-16,0.));
#417=DIRECTION('ref_axis',(0.,0.,1.));
#418=CARTESIAN_POINT('',(0.,0.,0.));
#419=CARTESIAN_POINT('Origin',(-0.800000000000009,0.,0.));
#420=CARTESIAN_POINT('',(-9.71445146547012E-16,-6.84926368998911E-15,-57.0029308283268));
#421=CARTESIAN_POINT('Origin',(-9.71445146547012E-16,1.31581988103724E-16,
0.));
#422=CARTESIAN_POINT('',(-0.487415097208593,-6.83924903360179E-15,-56.2665269455648));
#423=CARTESIAN_POINT('Origin',(-0.800000000000009,-6.98084567809283E-15,
-57.0029308283268));
#424=CARTESIAN_POINT('',(-0.487415097208582,-56.2665269455648,-6.89066221230242E-15));
#425=CARTESIAN_POINT('Origin',(-0.487415097208593,-4.44089209850063E-15,
0.));
#426=CARTESIAN_POINT('Origin',(-0.487415097208593,-4.44089209850063E-15,
0.));
#427=CARTESIAN_POINT('Origin',(-0.434438677093575,0.,0.));
#428=CARTESIAN_POINT('',(-0.868877354187142,-56.1046058241429,-6.87083259399606E-15));
#429=CARTESIAN_POINT('',(-0.868877354187141,-6.87083259399606E-15,56.1046058241429));
#430=CARTESIAN_POINT('Origin',(-0.868877354187141,0.,0.));
#431=CARTESIAN_POINT('',(-0.434438677093575,-56.2890141017566,-6.89341609468764E-15));
#432=CARTESIAN_POINT('Origin',(-0.868877354187141,0.,0.));
#433=CARTESIAN_POINT('Origin',(-9.0205620750794E-15,49.1,0.));
#434=CARTESIAN_POINT('',(1.09634523681734E-14,-59.5,-7.28664845492675E-15));
#435=CARTESIAN_POINT('Origin',(0.,0.,0.));
#436=CARTESIAN_POINT('Origin',(-0.800000000000009,0.,0.));
#437=CARTESIAN_POINT('',(-9.71445146547011E-16,-6.35868712442433E-15,52.9970691716732));
#438=CARTESIAN_POINT('Origin',(-9.71445146547012E-16,1.31581988103724E-16,
0.));
#439=CARTESIAN_POINT('',(-0.487415097208602,-6.52903939961783E-15,53.7334730544352));
#440=CARTESIAN_POINT('Origin',(-0.800000000000009,-6.49026911252805E-15,
52.9970691716732));
#441=CARTESIAN_POINT('',(-0.487415097208587,-53.7334730544352,-6.58045257831846E-15));
#442=CARTESIAN_POINT('Origin',(-0.487415097208602,4.44089209850063E-15,
-6.58045257831846E-15));
#443=CARTESIAN_POINT('Origin',(-0.487415097208602,4.44089209850063E-15,
-6.58045257831846E-15));
#444=CARTESIAN_POINT('Origin',(-0.434438677093574,0.,0.));
#445=CARTESIAN_POINT('',(-0.86887735418714,-53.8953941758571,-6.60028219662483E-15));
#446=CARTESIAN_POINT('',(-0.868877354187139,-6.60028219662483E-15,53.8953941758571));
#447=CARTESIAN_POINT('Origin',(-0.868877354187139,0.,0.));
#448=CARTESIAN_POINT('Origin',(-0.868877354187139,0.,0.));
#449=CARTESIAN_POINT('',(-0.434438677093574,-53.7109858982434,-6.57769869593325E-15));
#450=CARTESIAN_POINT('Origin',(-9.0205620750794E-15,49.1,0.));
#451=CARTESIAN_POINT('',(4.94502857083277E-31,-6.0130157838135E-15,49.1));
#452=CARTESIAN_POINT('Origin',(0.,0.,0.));
#453=CARTESIAN_POINT('Origin',(-0.400000000000009,0.,0.));
#454=CARTESIAN_POINT('Origin',(-0.400000000000009,-6.73555739531044E-15,
55.));
#455=CARTESIAN_POINT('Origin',(-30.7084780572677,-5.05085324301852E-15,
0.));
#456=CARTESIAN_POINT('',(-7.41695611453537,-50.8,-6.22120573966855E-15));
#457=CARTESIAN_POINT('',(-7.41695611453538,-7.44112802870433E-15,50.8));
#458=CARTESIAN_POINT('Origin',(-7.41695611453538,-1.21992228903578E-15,
0.));
#459=CARTESIAN_POINT('',(-54.,-50.8,-6.22120573966855E-15));
#460=CARTESIAN_POINT('',(-30.7084780572677,-50.8,-6.22120573966855E-15));
#461=CARTESIAN_POINT('Origin',(-54.,-8.88178419700125E-15,0.));
#462=CARTESIAN_POINT('Origin',(-7.41695611453538,-1.21992228903578E-15,
0.));
#463=CARTESIAN_POINT('Origin',(-7.41695611453538,-1.21992228903578E-15,
0.));
#464=CARTESIAN_POINT('',(-5.53757087296356,-7.29317005565675E-15,52.1159597133487));
#465=CARTESIAN_POINT('Origin',(-7.41695611453538,-7.6860573885338E-15,52.8));
#466=CARTESIAN_POINT('',(-5.53757087296356,-52.1159597133487,-6.38236432474448E-15));
#467=CARTESIAN_POINT('Origin',(-5.53757087296356,-9.10805730912262E-16,
0.));
#468=CARTESIAN_POINT('Origin',(-5.53757087296356,-9.10805730912262E-16,
0.));
#469=CARTESIAN_POINT('Origin',(-4.28957946951226,-7.05539243409167E-16,
0.));
#470=CARTESIAN_POINT('',(-3.04158806606095,-58.9736161146605,-7.22218502089638E-15));
#471=CARTESIAN_POINT('',(-3.04158806606096,-7.72245777680245E-15,58.9736161146605));
#472=CARTESIAN_POINT('Origin',(-3.04158806606096,-5.0027275590607E-16,0.));
#473=CARTESIAN_POINT('',(-4.28957946951225,-55.5447879140046,-6.80227467282043E-15));
#474=CARTESIAN_POINT('Origin',(-3.04158806606096,-5.0027275590607E-16,0.));
#475=CARTESIAN_POINT('Origin',(-2.28983396943224,-3.76626132656664E-16,
0.));
#476=CARTESIAN_POINT('',(-2.28983396943223,-59.5,-7.28664845492675E-15));
#477=CARTESIAN_POINT('',(-2.28983396943224,-7.66327458758342E-15,59.5));
#478=CARTESIAN_POINT('Origin',(-2.28983396943224,-3.76626132656664E-16,
0.));
#479=CARTESIAN_POINT('Origin',(-2.28983396943224,-3.76626132656664E-16,
0.));
#480=CARTESIAN_POINT('Origin',(-2.28983396943224,-7.56530284365163E-15,
58.7));
#481=CARTESIAN_POINT('Origin',(-1.14491698471611,-1.8831306632833E-16,0.));
#482=CARTESIAN_POINT('',(-1.1449169847161,-59.5,-7.28664845492675E-15));
#483=CARTESIAN_POINT('Origin',(-0.300000000000002,-4.93432455388957E-17,
0.));
#484=CARTESIAN_POINT('',(-0.299999999999994,-48.8,-5.97627637983908E-15));
#485=CARTESIAN_POINT('',(-0.300000000000002,-6.02561962537798E-15,48.8));
#486=CARTESIAN_POINT('Origin',(-0.300000000000002,-4.93432455388957E-17,
0.));
#487=CARTESIAN_POINT('Origin',(-0.300000000000002,-4.93432455388957E-17,
0.));
#488=CARTESIAN_POINT('Origin',(-0.300000000000002,-6.0623590293524E-15,
49.1));
#489=CARTESIAN_POINT('Origin',(-27.15,-4.46556372127007E-15,0.));
#490=CARTESIAN_POINT('',(-54.,-48.8,-5.97627637983908E-15));
#491=CARTESIAN_POINT('',(-27.15,-48.8,-5.97627637983908E-15));
#492=CARTESIAN_POINT('Origin',(-54.,-8.88178419700125E-15,0.));
#493=CARTESIAN_POINT('Origin',(-54.,50.8,0.));
#494=UNCERTAINTY_MEASURE_WITH_UNIT(LENGTH_MEASURE(0.01),#498,
'DISTANCE_ACCURACY_VALUE',
'Maximum model space distance between geometric entities at asserted c
onnectivities');
#495=UNCERTAINTY_MEASURE_WITH_UNIT(LENGTH_MEASURE(0.01),#498,
'DISTANCE_ACCURACY_VALUE',
'Maximum model space distance between geometric entities at asserted c
onnectivities');
#496=(
GEOMETRIC_REPRESENTATION_CONTEXT(3)
GLOBAL_UNCERTAINTY_ASSIGNED_CONTEXT((#494))
GLOBAL_UNIT_ASSIGNED_CONTEXT((#498,#500,#501))
REPRESENTATION_CONTEXT('','3D')
);
#497=(
GEOMETRIC_REPRESENTATION_CONTEXT(3)
GLOBAL_UNCERTAINTY_ASSIGNED_CONTEXT((#495))
GLOBAL_UNIT_ASSIGNED_CONTEXT((#498,#500,#501))
REPRESENTATION_CONTEXT('','3D')
);
#498=(
LENGTH_UNIT()
NAMED_UNIT(*)
SI_UNIT(.MILLI.,.METRE.)
);
#499=(
LENGTH_UNIT()
NAMED_UNIT(*)
SI_UNIT(.CENTI.,.METRE.)
);
#500=(
NAMED_UNIT(*)
PLANE_ANGLE_UNIT()
SI_UNIT($,.RADIAN.)
);
#501=(
NAMED_UNIT(*)
SI_UNIT($,.STERADIAN.)
SOLID_ANGLE_UNIT()
);
#502=SHAPE_DEFINITION_REPRESENTATION(#503,#504);
#503=PRODUCT_DEFINITION_SHAPE('',$,#506);
#504=SHAPE_REPRESENTATION('',(#274),#496);
#505=PRODUCT_DEFINITION_CONTEXT('part definition',#510,'design');
#506=PRODUCT_DEFINITION('L14MDW 40','L14MDW 40',#507,#505);
#507=PRODUCT_DEFINITION_FORMATION('',$,#512);
#508=PRODUCT_RELATED_PRODUCT_CATEGORY('L14MDW 40','L14MDW 40',(#512));
#509=APPLICATION_PROTOCOL_DEFINITION('international standard',
'automotive_design',2009,#510);
#510=APPLICATION_CONTEXT(
'Core Data for Automotive Mechanical Design Process');
#511=PRODUCT_CONTEXT('part definition',#510,'mechanical');
#512=PRODUCT('L14MDW 40','L14MDW 40',$,(#511));
#513=PRESENTATION_STYLE_ASSIGNMENT((#514));
#514=SURFACE_STYLE_USAGE(.BOTH.,#517);
#515=SURFACE_STYLE_RENDERING_WITH_PROPERTIES($,#521,(#516));
#516=SURFACE_STYLE_TRANSPARENT(0.);
#517=SURFACE_SIDE_STYLE('',(#518,#515));
#518=SURFACE_STYLE_FILL_AREA(#519);
#519=FILL_AREA_STYLE('',(#520));
#520=FILL_AREA_STYLE_COLOUR('',#521);
#521=COLOUR_RGB('',0.749019607843137,0.749019607843137,0.749019607843137);
ENDSEC;
END-ISO-10303-21;
