ISO-10303-21;
HEADER;
/* Generated by software containing ST-Developer
 * from STEP Tools, Inc. (www.steptools.com) 
 */

FILE_DESCRIPTION(
/* description */ (''),
/* implementation_level */ '2;1');

FILE_NAME(
/* name */ 
'W:\\Work\\TOSTE\\\X2\958B767A\X0\\\3D\X2\30C730FC30BF590963DB\X0\\\DA
TA\\\X2\88DC5668985E\X0\\\ST-CXC\\ST-CXC_25.stp',
/* time_stamp */ '2021-08-20T14:31:22+09:00',
/* author */ ('m'),
/* organization */ (''),
/* preprocessor_version */ 'ST-DEVELOPER v18.1',
/* originating_system */ 'Autodesk Inventor 2021',
/* authorisation */ '');

FILE_SCHEMA (('AUTOMOTIVE_DESIGN { 1 0 10303 214 3 1 1 }'));
ENDSEC;

DATA;
#10=MECHANICAL_DESIGN_GEOMETRIC_PRESENTATION_REPRESENTATION('',(#13),#371);
#11=SHAPE_REPRESENTATION_RELATIONSHIP('SRR','None',#378,#12);
#12=ADVANCED_BREP_SHAPE_REPRESENTATION('',(#14),#370);
#13=STYLED_ITEM('',(#387),#14);
#14=MANIFOLD_SOLID_BREP('\X2\30BD30EA30C330C9\X0\1',#199);
#15=FACE_BOUND('',#46,.T.);
#16=FACE_BOUND('',#49,.T.);
#17=FACE_BOUND('',#54,.T.);
#18=FACE_BOUND('',#57,.T.);
#19=PLANE('',#230);
#20=PLANE('',#234);
#21=PLANE('',#242);
#22=PLANE('',#246);
#23=CONICAL_SURFACE('',#222,35.25,1.22173047639603);
#24=CONICAL_SURFACE('',#226,41.275,0.171480968889728);
#25=CONICAL_SURFACE('',#238,35.2499999999999,1.22173047639603);
#26=FACE_OUTER_BOUND('',#40,.T.);
#27=FACE_OUTER_BOUND('',#41,.T.);
#28=FACE_OUTER_BOUND('',#42,.T.);
#29=FACE_OUTER_BOUND('',#43,.T.);
#30=FACE_OUTER_BOUND('',#44,.T.);
#31=FACE_OUTER_BOUND('',#45,.T.);
#32=FACE_OUTER_BOUND('',#47,.T.);
#33=FACE_OUTER_BOUND('',#48,.T.);
#34=FACE_OUTER_BOUND('',#50,.T.);
#35=FACE_OUTER_BOUND('',#51,.T.);
#36=FACE_OUTER_BOUND('',#52,.T.);
#37=FACE_OUTER_BOUND('',#53,.T.);
#38=FACE_OUTER_BOUND('',#55,.T.);
#39=FACE_OUTER_BOUND('',#56,.T.);
#40=EDGE_LOOP('',(#130,#131,#132,#133));
#41=EDGE_LOOP('',(#134,#135,#136,#137));
#42=EDGE_LOOP('',(#138,#139,#140,#141));
#43=EDGE_LOOP('',(#142,#143,#144,#145));
#44=EDGE_LOOP('',(#146,#147,#148,#149));
#45=EDGE_LOOP('',(#150));
#46=EDGE_LOOP('',(#151));
#47=EDGE_LOOP('',(#152,#153,#154,#155));
#48=EDGE_LOOP('',(#156));
#49=EDGE_LOOP('',(#157));
#50=EDGE_LOOP('',(#158,#159,#160,#161));
#51=EDGE_LOOP('',(#162,#163,#164,#165));
#52=EDGE_LOOP('',(#166,#167,#168,#169));
#53=EDGE_LOOP('',(#170));
#54=EDGE_LOOP('',(#171));
#55=EDGE_LOOP('',(#172,#173,#174,#175));
#56=EDGE_LOOP('',(#176));
#57=EDGE_LOOP('',(#177));
#58=LINE('',#320,#68);
#59=LINE('',#325,#69);
#60=LINE('',#329,#70);
#61=LINE('',#333,#71);
#62=LINE('',#337,#72);
#63=LINE('',#344,#73);
#64=LINE('',#351,#74);
#65=LINE('',#355,#75);
#66=LINE('',#359,#76);
#67=LINE('',#365,#77);
#68=VECTOR('',#253,38.75);
#69=VECTOR('',#260,35.25);
#70=VECTOR('',#265,31.75);
#71=VECTOR('',#270,41.275);
#72=VECTOR('',#275,50.8);
#73=VECTOR('',#284,67.4999999999999);
#74=VECTOR('',#293,31.7499999999999);
#75=VECTOR('',#298,35.2499999999999);
#76=VECTOR('',#303,38.7499999999999);
#77=VECTOR('',#310,29.75);
#78=CIRCLE('',#220,38.75);
#79=CIRCLE('',#221,38.75);
#80=CIRCLE('',#223,31.75);
#81=CIRCLE('',#225,31.75);
#82=CIRCLE('',#227,50.8);
#83=CIRCLE('',#229,50.7999999999999);
#84=CIRCLE('',#231,67.4999999999999);
#85=CIRCLE('',#233,67.4999999999999);
#86=CIRCLE('',#235,31.7500000000001);
#87=CIRCLE('',#237,31.7499999999999);
#88=CIRCLE('',#239,38.7499999999999);
#89=CIRCLE('',#241,38.7499999999999);
#90=CIRCLE('',#243,29.75);
#91=CIRCLE('',#245,29.75);
#92=VERTEX_POINT('',#317);
#93=VERTEX_POINT('',#319);
#94=VERTEX_POINT('',#323);
#95=VERTEX_POINT('',#327);
#96=VERTEX_POINT('',#331);
#97=VERTEX_POINT('',#335);
#98=VERTEX_POINT('',#339);
#99=VERTEX_POINT('',#342);
#100=VERTEX_POINT('',#346);
#101=VERTEX_POINT('',#349);
#102=VERTEX_POINT('',#353);
#103=VERTEX_POINT('',#357);
#104=VERTEX_POINT('',#361);
#105=VERTEX_POINT('',#364);
#106=EDGE_CURVE('',#92,#92,#78,.T.);
#107=EDGE_CURVE('',#92,#93,#58,.T.);
#108=EDGE_CURVE('',#93,#93,#79,.T.);
#109=EDGE_CURVE('',#94,#94,#80,.T.);
#110=EDGE_CURVE('',#94,#92,#59,.T.);
#111=EDGE_CURVE('',#95,#95,#81,.T.);
#112=EDGE_CURVE('',#95,#94,#60,.T.);
#113=EDGE_CURVE('',#96,#96,#82,.T.);
#114=EDGE_CURVE('',#96,#95,#61,.T.);
#115=EDGE_CURVE('',#97,#97,#83,.T.);
#116=EDGE_CURVE('',#97,#96,#62,.T.);
#117=EDGE_CURVE('',#98,#98,#84,.T.);
#118=EDGE_CURVE('',#99,#99,#85,.T.);
#119=EDGE_CURVE('',#99,#98,#63,.T.);
#120=EDGE_CURVE('',#100,#100,#86,.T.);
#121=EDGE_CURVE('',#101,#101,#87,.T.);
#122=EDGE_CURVE('',#101,#100,#64,.T.);
#123=EDGE_CURVE('',#102,#102,#88,.T.);
#124=EDGE_CURVE('',#102,#101,#65,.T.);
#125=EDGE_CURVE('',#103,#103,#89,.T.);
#126=EDGE_CURVE('',#103,#102,#66,.T.);
#127=EDGE_CURVE('',#104,#104,#90,.T.);
#128=EDGE_CURVE('',#104,#105,#67,.T.);
#129=EDGE_CURVE('',#105,#105,#91,.T.);
#130=ORIENTED_EDGE('',*,*,#106,.F.);
#131=ORIENTED_EDGE('',*,*,#107,.T.);
#132=ORIENTED_EDGE('',*,*,#108,.T.);
#133=ORIENTED_EDGE('',*,*,#107,.F.);
#134=ORIENTED_EDGE('',*,*,#109,.F.);
#135=ORIENTED_EDGE('',*,*,#110,.T.);
#136=ORIENTED_EDGE('',*,*,#106,.T.);
#137=ORIENTED_EDGE('',*,*,#110,.F.);
#138=ORIENTED_EDGE('',*,*,#111,.F.);
#139=ORIENTED_EDGE('',*,*,#112,.T.);
#140=ORIENTED_EDGE('',*,*,#109,.T.);
#141=ORIENTED_EDGE('',*,*,#112,.F.);
#142=ORIENTED_EDGE('',*,*,#113,.F.);
#143=ORIENTED_EDGE('',*,*,#114,.T.);
#144=ORIENTED_EDGE('',*,*,#111,.T.);
#145=ORIENTED_EDGE('',*,*,#114,.F.);
#146=ORIENTED_EDGE('',*,*,#115,.F.);
#147=ORIENTED_EDGE('',*,*,#116,.T.);
#148=ORIENTED_EDGE('',*,*,#113,.T.);
#149=ORIENTED_EDGE('',*,*,#116,.F.);
#150=ORIENTED_EDGE('',*,*,#117,.F.);
#151=ORIENTED_EDGE('',*,*,#115,.T.);
#152=ORIENTED_EDGE('',*,*,#118,.F.);
#153=ORIENTED_EDGE('',*,*,#119,.T.);
#154=ORIENTED_EDGE('',*,*,#117,.T.);
#155=ORIENTED_EDGE('',*,*,#119,.F.);
#156=ORIENTED_EDGE('',*,*,#118,.T.);
#157=ORIENTED_EDGE('',*,*,#120,.F.);
#158=ORIENTED_EDGE('',*,*,#121,.F.);
#159=ORIENTED_EDGE('',*,*,#122,.T.);
#160=ORIENTED_EDGE('',*,*,#120,.T.);
#161=ORIENTED_EDGE('',*,*,#122,.F.);
#162=ORIENTED_EDGE('',*,*,#123,.F.);
#163=ORIENTED_EDGE('',*,*,#124,.T.);
#164=ORIENTED_EDGE('',*,*,#121,.T.);
#165=ORIENTED_EDGE('',*,*,#124,.F.);
#166=ORIENTED_EDGE('',*,*,#125,.F.);
#167=ORIENTED_EDGE('',*,*,#126,.T.);
#168=ORIENTED_EDGE('',*,*,#123,.T.);
#169=ORIENTED_EDGE('',*,*,#126,.F.);
#170=ORIENTED_EDGE('',*,*,#125,.T.);
#171=ORIENTED_EDGE('',*,*,#127,.F.);
#172=ORIENTED_EDGE('',*,*,#127,.T.);
#173=ORIENTED_EDGE('',*,*,#128,.T.);
#174=ORIENTED_EDGE('',*,*,#129,.F.);
#175=ORIENTED_EDGE('',*,*,#128,.F.);
#176=ORIENTED_EDGE('',*,*,#108,.F.);
#177=ORIENTED_EDGE('',*,*,#129,.T.);
#178=CYLINDRICAL_SURFACE('',#219,38.75);
#179=CYLINDRICAL_SURFACE('',#224,31.75);
#180=CYLINDRICAL_SURFACE('',#228,50.8);
#181=CYLINDRICAL_SURFACE('',#232,67.4999999999999);
#182=CYLINDRICAL_SURFACE('',#236,31.7499999999999);
#183=CYLINDRICAL_SURFACE('',#240,38.7499999999999);
#184=CYLINDRICAL_SURFACE('',#244,29.75);
#185=ADVANCED_FACE('',(#26),#178,.T.);
#186=ADVANCED_FACE('',(#27),#23,.T.);
#187=ADVANCED_FACE('',(#28),#179,.T.);
#188=ADVANCED_FACE('',(#29),#24,.T.);
#189=ADVANCED_FACE('',(#30),#180,.T.);
#190=ADVANCED_FACE('',(#31,#15),#19,.T.);
#191=ADVANCED_FACE('',(#32),#181,.T.);
#192=ADVANCED_FACE('',(#33,#16),#20,.T.);
#193=ADVANCED_FACE('',(#34),#182,.T.);
#194=ADVANCED_FACE('',(#35),#25,.T.);
#195=ADVANCED_FACE('',(#36),#183,.T.);
#196=ADVANCED_FACE('',(#37,#17),#21,.T.);
#197=ADVANCED_FACE('',(#38),#184,.F.);
#198=ADVANCED_FACE('',(#39,#18),#22,.T.);
#199=CLOSED_SHELL('',(#185,#186,#187,#188,#189,#190,#191,#192,#193,#194,
#195,#196,#197,#198));
#200=DERIVED_UNIT_ELEMENT(#202,1.);
#201=DERIVED_UNIT_ELEMENT(#373,-3.);
#202=(
MASS_UNIT()
NAMED_UNIT(*)
SI_UNIT($,.GRAM.)
);
#203=DERIVED_UNIT((#200,#201));
#204=MEASURE_REPRESENTATION_ITEM('density measure',
POSITIVE_RATIO_MEASURE(1.),#203);
#205=PROPERTY_DEFINITION_REPRESENTATION(#210,#207);
#206=PROPERTY_DEFINITION_REPRESENTATION(#211,#208);
#207=REPRESENTATION('material name',(#209),#370);
#208=REPRESENTATION('density',(#204),#370);
#209=DESCRIPTIVE_REPRESENTATION_ITEM('\X2\4E00822C\X0\','\X2\4E00822C\X0\');
#210=PROPERTY_DEFINITION('material property','material name',#380);
#211=PROPERTY_DEFINITION('material property','density of part',#380);
#212=DATE_TIME_ROLE('creation_date');
#213=APPLIED_DATE_AND_TIME_ASSIGNMENT(#214,#212,(#380));
#214=DATE_AND_TIME(#215,#216);
#215=CALENDAR_DATE(2006,9,2);
#216=LOCAL_TIME(0,0,0.,#217);
#217=COORDINATED_UNIVERSAL_TIME_OFFSET(0,0,.BEHIND.);
#218=AXIS2_PLACEMENT_3D('placement',#315,#247,#248);
#219=AXIS2_PLACEMENT_3D('',#316,#249,#250);
#220=AXIS2_PLACEMENT_3D('',#318,#251,#252);
#221=AXIS2_PLACEMENT_3D('',#321,#254,#255);
#222=AXIS2_PLACEMENT_3D('',#322,#256,#257);
#223=AXIS2_PLACEMENT_3D('',#324,#258,#259);
#224=AXIS2_PLACEMENT_3D('',#326,#261,#262);
#225=AXIS2_PLACEMENT_3D('',#328,#263,#264);
#226=AXIS2_PLACEMENT_3D('',#330,#266,#267);
#227=AXIS2_PLACEMENT_3D('',#332,#268,#269);
#228=AXIS2_PLACEMENT_3D('',#334,#271,#272);
#229=AXIS2_PLACEMENT_3D('',#336,#273,#274);
#230=AXIS2_PLACEMENT_3D('',#338,#276,#277);
#231=AXIS2_PLACEMENT_3D('',#340,#278,#279);
#232=AXIS2_PLACEMENT_3D('',#341,#280,#281);
#233=AXIS2_PLACEMENT_3D('',#343,#282,#283);
#234=AXIS2_PLACEMENT_3D('',#345,#285,#286);
#235=AXIS2_PLACEMENT_3D('',#347,#287,#288);
#236=AXIS2_PLACEMENT_3D('',#348,#289,#290);
#237=AXIS2_PLACEMENT_3D('',#350,#291,#292);
#238=AXIS2_PLACEMENT_3D('',#352,#294,#295);
#239=AXIS2_PLACEMENT_3D('',#354,#296,#297);
#240=AXIS2_PLACEMENT_3D('',#356,#299,#300);
#241=AXIS2_PLACEMENT_3D('',#358,#301,#302);
#242=AXIS2_PLACEMENT_3D('',#360,#304,#305);
#243=AXIS2_PLACEMENT_3D('',#362,#306,#307);
#244=AXIS2_PLACEMENT_3D('',#363,#308,#309);
#245=AXIS2_PLACEMENT_3D('',#366,#311,#312);
#246=AXIS2_PLACEMENT_3D('',#367,#313,#314);
#247=DIRECTION('axis',(0.,0.,1.));
#248=DIRECTION('refdir',(1.,0.,0.));
#249=DIRECTION('center_axis',(-1.,0.,2.44921270764475E-16));
#250=DIRECTION('ref_axis',(2.44921270764475E-16,0.,1.));
#251=DIRECTION('center_axis',(-1.,0.,2.44921270764475E-16));
#252=DIRECTION('ref_axis',(2.44921270764475E-16,0.,1.));
#253=DIRECTION('',(1.,0.,-2.44921270764475E-16));
#254=DIRECTION('center_axis',(-1.,0.,2.44921270764475E-16));
#255=DIRECTION('ref_axis',(2.44921270764475E-16,0.,1.));
#256=DIRECTION('center_axis',(1.,0.,-2.44921270764475E-16));
#257=DIRECTION('ref_axis',(2.44921270764475E-16,0.,1.));
#258=DIRECTION('center_axis',(-1.,0.,2.44921270764475E-16));
#259=DIRECTION('ref_axis',(2.44921270764475E-16,0.,1.));
#260=DIRECTION('',(0.342020143325668,-1.15079156022785E-16,-0.939692620785908));
#261=DIRECTION('center_axis',(-1.,0.,2.44921270764475E-16));
#262=DIRECTION('ref_axis',(2.44921270764475E-16,0.,1.));
#263=DIRECTION('center_axis',(-1.,0.,2.44921270764475E-16));
#264=DIRECTION('ref_axis',(2.44921270764475E-16,0.,1.));
#265=DIRECTION('',(1.,0.,-2.44921270764475E-16));
#266=DIRECTION('center_axis',(-1.,0.,2.44921270764475E-16));
#267=DIRECTION('ref_axis',(2.44921270764475E-16,0.,1.));
#268=DIRECTION('center_axis',(-1.,0.,2.44921270764475E-16));
#269=DIRECTION('ref_axis',(2.44921270764475E-16,0.,1.));
#270=DIRECTION('',(0.985333132379502,2.08975913817442E-17,0.170641783380268));
#271=DIRECTION('center_axis',(-1.,0.,2.44921270764475E-16));
#272=DIRECTION('ref_axis',(2.44921270764475E-16,0.,1.));
#273=DIRECTION('center_axis',(-1.,0.,2.44921270764475E-16));
#274=DIRECTION('ref_axis',(2.44921270764475E-16,0.,1.));
#275=DIRECTION('',(1.,0.,-2.44921270764475E-16));
#276=DIRECTION('center_axis',(1.,0.,-2.44921270764475E-16));
#277=DIRECTION('ref_axis',(-2.44921270764475E-16,0.,-1.));
#278=DIRECTION('center_axis',(-1.,0.,2.44921270764475E-16));
#279=DIRECTION('ref_axis',(2.44921270764475E-16,0.,1.));
#280=DIRECTION('center_axis',(-1.,0.,2.44921270764475E-16));
#281=DIRECTION('ref_axis',(2.44921270764475E-16,0.,1.));
#282=DIRECTION('center_axis',(-1.,0.,2.44921270764475E-16));
#283=DIRECTION('ref_axis',(2.44921270764475E-16,0.,1.));
#284=DIRECTION('',(1.,0.,-2.44921270764475E-16));
#285=DIRECTION('center_axis',(-1.,0.,2.44921270764475E-16));
#286=DIRECTION('ref_axis',(2.44921270764475E-16,0.,1.));
#287=DIRECTION('center_axis',(-1.,0.,2.44921270764475E-16));
#288=DIRECTION('ref_axis',(2.44921270764475E-16,0.,1.));
#289=DIRECTION('center_axis',(-1.,0.,2.44921270764475E-16));
#290=DIRECTION('ref_axis',(2.44921270764475E-16,0.,1.));
#291=DIRECTION('center_axis',(-1.,0.,2.44921270764475E-16));
#292=DIRECTION('ref_axis',(2.44921270764475E-16,0.,1.));
#293=DIRECTION('',(1.,0.,-2.44921270764475E-16));
#294=DIRECTION('center_axis',(-1.,0.,2.44921270764475E-16));
#295=DIRECTION('ref_axis',(2.44921270764475E-16,0.,1.));
#296=DIRECTION('center_axis',(-1.,0.,2.44921270764475E-16));
#297=DIRECTION('ref_axis',(2.44921270764475E-16,0.,1.));
#298=DIRECTION('',(0.34202014332567,1.15079156022785E-16,0.939692620785908));
#299=DIRECTION('center_axis',(-1.,0.,2.44921270764475E-16));
#300=DIRECTION('ref_axis',(2.44921270764475E-16,0.,1.));
#301=DIRECTION('center_axis',(-1.,0.,2.44921270764475E-16));
#302=DIRECTION('ref_axis',(2.44921270764475E-16,0.,1.));
#303=DIRECTION('',(1.,0.,-2.44921270764475E-16));
#304=DIRECTION('center_axis',(-1.,0.,2.44921270764475E-16));
#305=DIRECTION('ref_axis',(2.44921270764475E-16,0.,1.));
#306=DIRECTION('center_axis',(-1.,0.,2.44921270764475E-16));
#307=DIRECTION('ref_axis',(2.44921270764475E-16,0.,1.));
#308=DIRECTION('center_axis',(-1.,0.,2.44921270764475E-16));
#309=DIRECTION('ref_axis',(2.44921270764475E-16,0.,1.));
#310=DIRECTION('',(1.,0.,-2.44921270764475E-16));
#311=DIRECTION('center_axis',(-1.,0.,2.44921270764475E-16));
#312=DIRECTION('ref_axis',(2.44921270764475E-16,0.,1.));
#313=DIRECTION('center_axis',(1.,0.,-2.44921270764475E-16));
#314=DIRECTION('ref_axis',(-2.44921270764475E-16,0.,-1.));
#315=CARTESIAN_POINT('',(0.,0.,0.));
#316=CARTESIAN_POINT('Origin',(-1.42500000000001,0.,3.4901281083938E-16));
#317=CARTESIAN_POINT('',(-2.85000000000002,-4.74550634669599E-15,-38.75));
#318=CARTESIAN_POINT('Origin',(-2.85000000000001,0.,6.98025621678757E-16));
#319=CARTESIAN_POINT('',(-1.88737914186277E-14,-4.74550634669599E-15,-38.75));
#320=CARTESIAN_POINT('',(-1.42500000000002,-4.74550634669599E-15,-38.75));
#321=CARTESIAN_POINT('Origin',(-9.49069924212342E-15,0.,2.32447411882431E-30));
#322=CARTESIAN_POINT('Origin',(-4.12389581993172,0.,1.01002980471798E-15));
#323=CARTESIAN_POINT('',(-5.39779163986343,-3.88825358729284E-15,-31.75));
#324=CARTESIAN_POINT('Origin',(-5.39779163986343,0.,1.32203398775721E-15));
#325=CARTESIAN_POINT('',(-4.12389581993173,-4.31687996699442E-15,-35.25));
#326=CARTESIAN_POINT('Origin',(-15.1988958199317,0.,3.72253287843455E-15));
#327=CARTESIAN_POINT('',(-25.,-3.88825358729284E-15,-31.75));
#328=CARTESIAN_POINT('Origin',(-25.,0.,6.12303176911189E-15));
#329=CARTESIAN_POINT('',(-15.1988958199317,-3.88825358729284E-15,-31.75));
#330=CARTESIAN_POINT('Origin',(-80.,0.,1.9593701661158E-14));
#331=CARTESIAN_POINT('',(-135.,-6.22120573966855E-15,-50.8));
#332=CARTESIAN_POINT('Origin',(-135.,0.,3.30643715532042E-14));
#333=CARTESIAN_POINT('',(-80.,-5.0547296634807E-15,-41.275));
#334=CARTESIAN_POINT('Origin',(-343.875,0.,8.4222301984134E-14));
#335=CARTESIAN_POINT('',(-552.75,-6.22120573966855E-15,-50.7999999999998));
#336=CARTESIAN_POINT('Origin',(-552.75,0.,1.35380232415064E-13));
#337=CARTESIAN_POINT('',(-343.875,-6.22120573966855E-15,-50.7999999999999));
#338=CARTESIAN_POINT('Origin',(-552.75,0.,59.1500000000001));
#339=CARTESIAN_POINT('',(-552.75,-8.26636589424463E-15,-67.4999999999998));
#340=CARTESIAN_POINT('Origin',(-552.75,0.,1.35380232415064E-13));
#341=CARTESIAN_POINT('Origin',(-566.625,0.,1.38778515046921E-13));
#342=CARTESIAN_POINT('',(-571.25,-8.26636589424463E-15,-67.4999999999998));
#343=CARTESIAN_POINT('Origin',(-571.25,0.,1.39911275924207E-13));
#344=CARTESIAN_POINT('',(-566.625,-8.26636589424463E-15,-67.4999999999998));
#345=CARTESIAN_POINT('Origin',(-571.25,0.,49.6250000000001));
#346=CARTESIAN_POINT('',(-571.25,-3.88825358729284E-15,-31.7499999999998));
#347=CARTESIAN_POINT('Origin',(-571.25,0.,1.39911275924207E-13));
#348=CARTESIAN_POINT('Origin',(-585.051104180068,0.,1.43291459897942E-13));
#349=CARTESIAN_POINT('',(-594.602208360137,-3.88825358729284E-15,-31.7499999999998));
#350=CARTESIAN_POINT('Origin',(-594.602208360137,0.,1.45630728470928E-13));
#351=CARTESIAN_POINT('',(-585.051104180068,-3.88825358729284E-15,-31.7499999999998));
#352=CARTESIAN_POINT('Origin',(-595.876104180068,0.,1.45942732653967E-13));
#353=CARTESIAN_POINT('',(-597.15,-4.74550634669599E-15,-38.7499999999998));
#354=CARTESIAN_POINT('Origin',(-597.15,0.,1.46254736837006E-13));
#355=CARTESIAN_POINT('',(-595.876104180068,-4.31687996699441E-15,-35.2499999999998));
#356=CARTESIAN_POINT('Origin',(-598.575,0.,1.46603749647846E-13));
#357=CARTESIAN_POINT('',(-600.,-4.74550634669599E-15,-38.7499999999998));
#358=CARTESIAN_POINT('Origin',(-600.,0.,1.46952762458685E-13));
#359=CARTESIAN_POINT('',(-598.575,-4.74550634669599E-15,-38.7499999999998));
#360=CARTESIAN_POINT('Origin',(-600.,0.,34.2500000000001));
#361=CARTESIAN_POINT('',(-600.,-3.64332422746337E-15,-29.7499999999998));
#362=CARTESIAN_POINT('Origin',(-600.,0.,1.46952762458685E-13));
#363=CARTESIAN_POINT('Origin',(-300.,0.,7.34763812293426E-14));
#364=CARTESIAN_POINT('',(0.,-3.64332422746337E-15,-29.75));
#365=CARTESIAN_POINT('',(-300.,-3.64332422746337E-15,-29.7499999999999));
#366=CARTESIAN_POINT('Origin',(-7.28640780524313E-15,0.,1.78459625896834E-30));
#367=CARTESIAN_POINT('Origin',(-1.29189274183631E-32,0.,34.25));
#368=UNCERTAINTY_MEASURE_WITH_UNIT(LENGTH_MEASURE(0.01),#372,
'DISTANCE_ACCURACY_VALUE',
'Maximum model space distance between geometric entities at asserted c
onnectivities');
#369=UNCERTAINTY_MEASURE_WITH_UNIT(LENGTH_MEASURE(0.01),#372,
'DISTANCE_ACCURACY_VALUE',
'Maximum model space distance between geometric entities at asserted c
onnectivities');
#370=(
GEOMETRIC_REPRESENTATION_CONTEXT(3)
GLOBAL_UNCERTAINTY_ASSIGNED_CONTEXT((#368))
GLOBAL_UNIT_ASSIGNED_CONTEXT((#372,#374,#375))
REPRESENTATION_CONTEXT('','3D')
);
#371=(
GEOMETRIC_REPRESENTATION_CONTEXT(3)
GLOBAL_UNCERTAINTY_ASSIGNED_CONTEXT((#369))
GLOBAL_UNIT_ASSIGNED_CONTEXT((#372,#374,#375))
REPRESENTATION_CONTEXT('','3D')
);
#372=(
LENGTH_UNIT()
NAMED_UNIT(*)
SI_UNIT(.MILLI.,.METRE.)
);
#373=(
LENGTH_UNIT()
NAMED_UNIT(*)
SI_UNIT(.CENTI.,.METRE.)
);
#374=(
NAMED_UNIT(*)
PLANE_ANGLE_UNIT()
SI_UNIT($,.RADIAN.)
);
#375=(
NAMED_UNIT(*)
SI_UNIT($,.STERADIAN.)
SOLID_ANGLE_UNIT()
);
#376=SHAPE_DEFINITION_REPRESENTATION(#377,#378);
#377=PRODUCT_DEFINITION_SHAPE('',$,#380);
#378=SHAPE_REPRESENTATION('',(#218),#370);
#379=PRODUCT_DEFINITION_CONTEXT('part definition',#384,'design');
#380=PRODUCT_DEFINITION('ST-CXC_25','ST-CXC_25',#381,#379);
#381=PRODUCT_DEFINITION_FORMATION('',$,#386);
#382=PRODUCT_RELATED_PRODUCT_CATEGORY('ST-CXC_25','ST-CXC_25',(#386));
#383=APPLICATION_PROTOCOL_DEFINITION('international standard',
'automotive_design',2009,#384);
#384=APPLICATION_CONTEXT(
'Core Data for Automotive Mechanical Design Process');
#385=PRODUCT_CONTEXT('part definition',#384,'mechanical');
#386=PRODUCT('ST-CXC_25','ST-CXC_25',$,(#385));
#387=PRESENTATION_STYLE_ASSIGNMENT((#388));
#388=SURFACE_STYLE_USAGE(.BOTH.,#391);
#389=SURFACE_STYLE_RENDERING_WITH_PROPERTIES($,#395,(#390));
#390=SURFACE_STYLE_TRANSPARENT(0.);
#391=SURFACE_SIDE_STYLE('',(#392,#389));
#392=SURFACE_STYLE_FILL_AREA(#393);
#393=FILL_AREA_STYLE('',(#394));
#394=FILL_AREA_STYLE_COLOUR('',#395);
#395=COLOUR_RGB('',0.749019607843137,0.749019607843137,0.749019607843137);
ENDSEC;
END-ISO-10303-21;
