ISO-10303-21;
HEADER;
/* Generated by software containing ST-Developer
 * from STEP Tools, Inc. (www.steptools.com) 
 */

FILE_DESCRIPTION(
/* description */ (''),
/* implementation_level */ '2;1');

FILE_NAME(
/* name */ 
'W:\\Work\\TOSTE\\\X2\958B767A\X0\\\3D\X2\30C730FC30BF590963DB\X0\\\DA
TA\\\X2\88DC5668985E\X0\\\ST-CXC\\ST-CXC_10.stp',
/* time_stamp */ '2021-08-20T14:31:24+09:00',
/* author */ ('m'),
/* organization */ (''),
/* preprocessor_version */ 'ST-DEVELOPER v18.1',
/* originating_system */ 'Autodesk Inventor 2021',
/* authorisation */ '');

FILE_SCHEMA (('AUTOMOTIVE_DESIGN { 1 0 10303 214 3 1 1 }'));
ENDSEC;

DATA;
#10=MECHANICAL_DESIGN_GEOMETRIC_PRESENTATION_REPRESENTATION('',(#13),#421);
#11=SHAPE_REPRESENTATION_RELATIONSHIP('SRR','None',#428,#12);
#12=ADVANCED_BREP_SHAPE_REPRESENTATION('',(#14),#420);
#13=STYLED_ITEM('',(#437),#14);
#14=MANIFOLD_SOLID_BREP('\X2\30BD30EA30C330C9\X0\1',#227);
#15=FACE_BOUND('',#49,.T.);
#16=FACE_BOUND('',#52,.T.);
#17=FACE_BOUND('',#59,.T.);
#18=FACE_BOUND('',#62,.T.);
#19=PLANE('',#258);
#20=PLANE('',#262);
#21=PLANE('',#274);
#22=PLANE('',#278);
#23=CONICAL_SURFACE('',#250,18.975,1.22173047639603);
#24=CONICAL_SURFACE('',#254,22.225,0.32253982021539);
#25=CONICAL_SURFACE('',#266,15.875,0.339147307858149);
#26=CONICAL_SURFACE('',#270,18.975,1.22173047639603);
#27=FACE_OUTER_BOUND('',#43,.T.);
#28=FACE_OUTER_BOUND('',#44,.T.);
#29=FACE_OUTER_BOUND('',#45,.T.);
#30=FACE_OUTER_BOUND('',#46,.T.);
#31=FACE_OUTER_BOUND('',#47,.T.);
#32=FACE_OUTER_BOUND('',#48,.T.);
#33=FACE_OUTER_BOUND('',#50,.T.);
#34=FACE_OUTER_BOUND('',#51,.T.);
#35=FACE_OUTER_BOUND('',#53,.T.);
#36=FACE_OUTER_BOUND('',#54,.T.);
#37=FACE_OUTER_BOUND('',#55,.T.);
#38=FACE_OUTER_BOUND('',#56,.T.);
#39=FACE_OUTER_BOUND('',#57,.T.);
#40=FACE_OUTER_BOUND('',#58,.T.);
#41=FACE_OUTER_BOUND('',#60,.T.);
#42=FACE_OUTER_BOUND('',#61,.T.);
#43=EDGE_LOOP('',(#147,#148,#149,#150));
#44=EDGE_LOOP('',(#151,#152,#153,#154));
#45=EDGE_LOOP('',(#155,#156,#157,#158));
#46=EDGE_LOOP('',(#159,#160,#161,#162));
#47=EDGE_LOOP('',(#163,#164,#165,#166));
#48=EDGE_LOOP('',(#167));
#49=EDGE_LOOP('',(#168));
#50=EDGE_LOOP('',(#169,#170,#171,#172));
#51=EDGE_LOOP('',(#173));
#52=EDGE_LOOP('',(#174));
#53=EDGE_LOOP('',(#175,#176,#177,#178));
#54=EDGE_LOOP('',(#179,#180,#181,#182));
#55=EDGE_LOOP('',(#183,#184,#185,#186));
#56=EDGE_LOOP('',(#187,#188,#189,#190));
#57=EDGE_LOOP('',(#191,#192,#193,#194));
#58=EDGE_LOOP('',(#195));
#59=EDGE_LOOP('',(#196));
#60=EDGE_LOOP('',(#197,#198,#199,#200));
#61=EDGE_LOOP('',(#201));
#62=EDGE_LOOP('',(#202));
#63=LINE('',#362,#75);
#64=LINE('',#367,#76);
#65=LINE('',#371,#77);
#66=LINE('',#375,#78);
#67=LINE('',#379,#79);
#68=LINE('',#386,#80);
#69=LINE('',#393,#81);
#70=LINE('',#397,#82);
#71=LINE('',#401,#83);
#72=LINE('',#405,#84);
#73=LINE('',#409,#85);
#74=LINE('',#415,#86);
#75=VECTOR('',#285,25.25);
#76=VECTOR('',#292,18.975);
#77=VECTOR('',#297,12.7);
#78=VECTOR('',#302,22.225);
#79=VECTOR('',#307,31.75);
#80=VECTOR('',#316,45.75);
#81=VECTOR('',#325,19.05);
#82=VECTOR('',#330,15.875);
#83=VECTOR('',#335,12.7);
#84=VECTOR('',#340,18.975);
#85=VECTOR('',#345,25.25);
#86=VECTOR('',#352,10.7);
#87=CIRCLE('',#248,25.25);
#88=CIRCLE('',#249,25.25);
#89=CIRCLE('',#251,12.7);
#90=CIRCLE('',#253,12.7);
#91=CIRCLE('',#255,31.75);
#92=CIRCLE('',#257,31.75);
#93=CIRCLE('',#259,45.75);
#94=CIRCLE('',#261,45.75);
#95=CIRCLE('',#263,19.05);
#96=CIRCLE('',#265,19.05);
#97=CIRCLE('',#267,12.7);
#98=CIRCLE('',#269,12.7);
#99=CIRCLE('',#271,25.25);
#100=CIRCLE('',#273,25.25);
#101=CIRCLE('',#275,10.7);
#102=CIRCLE('',#277,10.6999999999999);
#103=VERTEX_POINT('',#359);
#104=VERTEX_POINT('',#361);
#105=VERTEX_POINT('',#365);
#106=VERTEX_POINT('',#369);
#107=VERTEX_POINT('',#373);
#108=VERTEX_POINT('',#377);
#109=VERTEX_POINT('',#381);
#110=VERTEX_POINT('',#384);
#111=VERTEX_POINT('',#388);
#112=VERTEX_POINT('',#391);
#113=VERTEX_POINT('',#395);
#114=VERTEX_POINT('',#399);
#115=VERTEX_POINT('',#403);
#116=VERTEX_POINT('',#407);
#117=VERTEX_POINT('',#411);
#118=VERTEX_POINT('',#414);
#119=EDGE_CURVE('',#103,#103,#87,.T.);
#120=EDGE_CURVE('',#103,#104,#63,.T.);
#121=EDGE_CURVE('',#104,#104,#88,.T.);
#122=EDGE_CURVE('',#105,#105,#89,.T.);
#123=EDGE_CURVE('',#105,#103,#64,.T.);
#124=EDGE_CURVE('',#106,#106,#90,.T.);
#125=EDGE_CURVE('',#106,#105,#65,.T.);
#126=EDGE_CURVE('',#107,#107,#91,.T.);
#127=EDGE_CURVE('',#107,#106,#66,.T.);
#128=EDGE_CURVE('',#108,#108,#92,.T.);
#129=EDGE_CURVE('',#108,#107,#67,.T.);
#130=EDGE_CURVE('',#109,#109,#93,.T.);
#131=EDGE_CURVE('',#110,#110,#94,.T.);
#132=EDGE_CURVE('',#110,#109,#68,.T.);
#133=EDGE_CURVE('',#111,#111,#95,.T.);
#134=EDGE_CURVE('',#112,#112,#96,.T.);
#135=EDGE_CURVE('',#112,#111,#69,.T.);
#136=EDGE_CURVE('',#113,#113,#97,.T.);
#137=EDGE_CURVE('',#113,#112,#70,.T.);
#138=EDGE_CURVE('',#114,#114,#98,.T.);
#139=EDGE_CURVE('',#114,#113,#71,.T.);
#140=EDGE_CURVE('',#115,#115,#99,.T.);
#141=EDGE_CURVE('',#115,#114,#72,.T.);
#142=EDGE_CURVE('',#116,#116,#100,.T.);
#143=EDGE_CURVE('',#116,#115,#73,.T.);
#144=EDGE_CURVE('',#117,#117,#101,.T.);
#145=EDGE_CURVE('',#117,#118,#74,.T.);
#146=EDGE_CURVE('',#118,#118,#102,.T.);
#147=ORIENTED_EDGE('',*,*,#119,.F.);
#148=ORIENTED_EDGE('',*,*,#120,.T.);
#149=ORIENTED_EDGE('',*,*,#121,.T.);
#150=ORIENTED_EDGE('',*,*,#120,.F.);
#151=ORIENTED_EDGE('',*,*,#122,.F.);
#152=ORIENTED_EDGE('',*,*,#123,.T.);
#153=ORIENTED_EDGE('',*,*,#119,.T.);
#154=ORIENTED_EDGE('',*,*,#123,.F.);
#155=ORIENTED_EDGE('',*,*,#124,.F.);
#156=ORIENTED_EDGE('',*,*,#125,.T.);
#157=ORIENTED_EDGE('',*,*,#122,.T.);
#158=ORIENTED_EDGE('',*,*,#125,.F.);
#159=ORIENTED_EDGE('',*,*,#126,.F.);
#160=ORIENTED_EDGE('',*,*,#127,.T.);
#161=ORIENTED_EDGE('',*,*,#124,.T.);
#162=ORIENTED_EDGE('',*,*,#127,.F.);
#163=ORIENTED_EDGE('',*,*,#128,.F.);
#164=ORIENTED_EDGE('',*,*,#129,.T.);
#165=ORIENTED_EDGE('',*,*,#126,.T.);
#166=ORIENTED_EDGE('',*,*,#129,.F.);
#167=ORIENTED_EDGE('',*,*,#130,.F.);
#168=ORIENTED_EDGE('',*,*,#128,.T.);
#169=ORIENTED_EDGE('',*,*,#131,.F.);
#170=ORIENTED_EDGE('',*,*,#132,.T.);
#171=ORIENTED_EDGE('',*,*,#130,.T.);
#172=ORIENTED_EDGE('',*,*,#132,.F.);
#173=ORIENTED_EDGE('',*,*,#131,.T.);
#174=ORIENTED_EDGE('',*,*,#133,.F.);
#175=ORIENTED_EDGE('',*,*,#134,.F.);
#176=ORIENTED_EDGE('',*,*,#135,.T.);
#177=ORIENTED_EDGE('',*,*,#133,.T.);
#178=ORIENTED_EDGE('',*,*,#135,.F.);
#179=ORIENTED_EDGE('',*,*,#136,.F.);
#180=ORIENTED_EDGE('',*,*,#137,.T.);
#181=ORIENTED_EDGE('',*,*,#134,.T.);
#182=ORIENTED_EDGE('',*,*,#137,.F.);
#183=ORIENTED_EDGE('',*,*,#138,.F.);
#184=ORIENTED_EDGE('',*,*,#139,.T.);
#185=ORIENTED_EDGE('',*,*,#136,.T.);
#186=ORIENTED_EDGE('',*,*,#139,.F.);
#187=ORIENTED_EDGE('',*,*,#140,.F.);
#188=ORIENTED_EDGE('',*,*,#141,.T.);
#189=ORIENTED_EDGE('',*,*,#138,.T.);
#190=ORIENTED_EDGE('',*,*,#141,.F.);
#191=ORIENTED_EDGE('',*,*,#142,.F.);
#192=ORIENTED_EDGE('',*,*,#143,.T.);
#193=ORIENTED_EDGE('',*,*,#140,.T.);
#194=ORIENTED_EDGE('',*,*,#143,.F.);
#195=ORIENTED_EDGE('',*,*,#142,.T.);
#196=ORIENTED_EDGE('',*,*,#144,.F.);
#197=ORIENTED_EDGE('',*,*,#144,.T.);
#198=ORIENTED_EDGE('',*,*,#145,.T.);
#199=ORIENTED_EDGE('',*,*,#146,.F.);
#200=ORIENTED_EDGE('',*,*,#145,.F.);
#201=ORIENTED_EDGE('',*,*,#121,.F.);
#202=ORIENTED_EDGE('',*,*,#146,.T.);
#203=CYLINDRICAL_SURFACE('',#247,25.25);
#204=CYLINDRICAL_SURFACE('',#252,12.7);
#205=CYLINDRICAL_SURFACE('',#256,31.75);
#206=CYLINDRICAL_SURFACE('',#260,45.75);
#207=CYLINDRICAL_SURFACE('',#264,19.05);
#208=CYLINDRICAL_SURFACE('',#268,12.7);
#209=CYLINDRICAL_SURFACE('',#272,25.25);
#210=CYLINDRICAL_SURFACE('',#276,10.7);
#211=ADVANCED_FACE('',(#27),#203,.T.);
#212=ADVANCED_FACE('',(#28),#23,.T.);
#213=ADVANCED_FACE('',(#29),#204,.T.);
#214=ADVANCED_FACE('',(#30),#24,.T.);
#215=ADVANCED_FACE('',(#31),#205,.T.);
#216=ADVANCED_FACE('',(#32,#15),#19,.T.);
#217=ADVANCED_FACE('',(#33),#206,.T.);
#218=ADVANCED_FACE('',(#34,#16),#20,.T.);
#219=ADVANCED_FACE('',(#35),#207,.T.);
#220=ADVANCED_FACE('',(#36),#25,.T.);
#221=ADVANCED_FACE('',(#37),#208,.T.);
#222=ADVANCED_FACE('',(#38),#26,.T.);
#223=ADVANCED_FACE('',(#39),#209,.T.);
#224=ADVANCED_FACE('',(#40,#17),#21,.T.);
#225=ADVANCED_FACE('',(#41),#210,.F.);
#226=ADVANCED_FACE('',(#42,#18),#22,.T.);
#227=CLOSED_SHELL('',(#211,#212,#213,#214,#215,#216,#217,#218,#219,#220,
#221,#222,#223,#224,#225,#226));
#228=DERIVED_UNIT_ELEMENT(#230,1.);
#229=DERIVED_UNIT_ELEMENT(#423,-3.);
#230=(
MASS_UNIT()
NAMED_UNIT(*)
SI_UNIT($,.GRAM.)
);
#231=DERIVED_UNIT((#228,#229));
#232=MEASURE_REPRESENTATION_ITEM('density measure',
POSITIVE_RATIO_MEASURE(1.),#231);
#233=PROPERTY_DEFINITION_REPRESENTATION(#238,#235);
#234=PROPERTY_DEFINITION_REPRESENTATION(#239,#236);
#235=REPRESENTATION('material name',(#237),#420);
#236=REPRESENTATION('density',(#232),#420);
#237=DESCRIPTIVE_REPRESENTATION_ITEM('\X2\4E00822C\X0\','\X2\4E00822C\X0\');
#238=PROPERTY_DEFINITION('material property','material name',#430);
#239=PROPERTY_DEFINITION('material property','density of part',#430);
#240=DATE_TIME_ROLE('creation_date');
#241=APPLIED_DATE_AND_TIME_ASSIGNMENT(#242,#240,(#430));
#242=DATE_AND_TIME(#243,#244);
#243=CALENDAR_DATE(2006,9,2);
#244=LOCAL_TIME(0,0,0.,#245);
#245=COORDINATED_UNIVERSAL_TIME_OFFSET(0,0,.BEHIND.);
#246=AXIS2_PLACEMENT_3D('placement',#357,#279,#280);
#247=AXIS2_PLACEMENT_3D('',#358,#281,#282);
#248=AXIS2_PLACEMENT_3D('',#360,#283,#284);
#249=AXIS2_PLACEMENT_3D('',#363,#286,#287);
#250=AXIS2_PLACEMENT_3D('',#364,#288,#289);
#251=AXIS2_PLACEMENT_3D('',#366,#290,#291);
#252=AXIS2_PLACEMENT_3D('',#368,#293,#294);
#253=AXIS2_PLACEMENT_3D('',#370,#295,#296);
#254=AXIS2_PLACEMENT_3D('',#372,#298,#299);
#255=AXIS2_PLACEMENT_3D('',#374,#300,#301);
#256=AXIS2_PLACEMENT_3D('',#376,#303,#304);
#257=AXIS2_PLACEMENT_3D('',#378,#305,#306);
#258=AXIS2_PLACEMENT_3D('',#380,#308,#309);
#259=AXIS2_PLACEMENT_3D('',#382,#310,#311);
#260=AXIS2_PLACEMENT_3D('',#383,#312,#313);
#261=AXIS2_PLACEMENT_3D('',#385,#314,#315);
#262=AXIS2_PLACEMENT_3D('',#387,#317,#318);
#263=AXIS2_PLACEMENT_3D('',#389,#319,#320);
#264=AXIS2_PLACEMENT_3D('',#390,#321,#322);
#265=AXIS2_PLACEMENT_3D('',#392,#323,#324);
#266=AXIS2_PLACEMENT_3D('',#394,#326,#327);
#267=AXIS2_PLACEMENT_3D('',#396,#328,#329);
#268=AXIS2_PLACEMENT_3D('',#398,#331,#332);
#269=AXIS2_PLACEMENT_3D('',#400,#333,#334);
#270=AXIS2_PLACEMENT_3D('',#402,#336,#337);
#271=AXIS2_PLACEMENT_3D('',#404,#338,#339);
#272=AXIS2_PLACEMENT_3D('',#406,#341,#342);
#273=AXIS2_PLACEMENT_3D('',#408,#343,#344);
#274=AXIS2_PLACEMENT_3D('',#410,#346,#347);
#275=AXIS2_PLACEMENT_3D('',#412,#348,#349);
#276=AXIS2_PLACEMENT_3D('',#413,#350,#351);
#277=AXIS2_PLACEMENT_3D('',#416,#353,#354);
#278=AXIS2_PLACEMENT_3D('',#417,#355,#356);
#279=DIRECTION('axis',(0.,0.,1.));
#280=DIRECTION('refdir',(1.,0.,0.));
#281=DIRECTION('center_axis',(-1.,0.,2.44921270764475E-16));
#282=DIRECTION('ref_axis',(2.44921270764475E-16,0.,1.));
#283=DIRECTION('center_axis',(-1.,0.,2.44921270764475E-16));
#284=DIRECTION('ref_axis',(2.44921270764475E-16,0.,1.));
#285=DIRECTION('',(1.,0.,-2.44921270764475E-16));
#286=DIRECTION('center_axis',(-1.,0.,2.44921270764475E-16));
#287=DIRECTION('ref_axis',(2.44921270764475E-16,0.,1.));
#288=DIRECTION('center_axis',(1.,0.,-2.44921270764475E-16));
#289=DIRECTION('ref_axis',(2.44921270764475E-16,0.,1.));
#290=DIRECTION('center_axis',(-1.,0.,2.44921270764475E-16));
#291=DIRECTION('ref_axis',(2.44921270764475E-16,0.,1.));
#292=DIRECTION('',(0.342020143325668,-1.15079156022785E-16,-0.939692620785908));
#293=DIRECTION('center_axis',(-1.,0.,2.44921270764475E-16));
#294=DIRECTION('ref_axis',(2.44921270764475E-16,0.,1.));
#295=DIRECTION('center_axis',(-1.,0.,2.44921270764475E-16));
#296=DIRECTION('ref_axis',(2.44921270764475E-16,0.,1.));
#297=DIRECTION('',(1.,0.,-2.44921270764475E-16));
#298=DIRECTION('center_axis',(-1.,0.,2.44921270764475E-16));
#299=DIRECTION('ref_axis',(2.44921270764475E-16,0.,1.));
#300=DIRECTION('center_axis',(-1.,0.,2.44921270764475E-16));
#301=DIRECTION('ref_axis',(2.44921270764475E-16,0.,1.));
#302=DIRECTION('',(0.948433414823147,3.88184171315211E-17,0.316976430743525));
#303=DIRECTION('center_axis',(-1.,0.,2.44921270764475E-16));
#304=DIRECTION('ref_axis',(2.44921270764475E-16,0.,1.));
#305=DIRECTION('center_axis',(-1.,0.,2.44921270764475E-16));
#306=DIRECTION('ref_axis',(2.44921270764475E-16,0.,1.));
#307=DIRECTION('',(1.,0.,-2.44921270764475E-16));
#308=DIRECTION('center_axis',(1.,0.,-2.44921270764475E-16));
#309=DIRECTION('ref_axis',(-2.44921270764475E-16,0.,-1.));
#310=DIRECTION('center_axis',(-1.,0.,2.44921270764475E-16));
#311=DIRECTION('ref_axis',(2.44921270764475E-16,0.,1.));
#312=DIRECTION('center_axis',(-1.,0.,2.44921270764475E-16));
#313=DIRECTION('ref_axis',(2.44921270764475E-16,0.,1.));
#314=DIRECTION('center_axis',(-1.,0.,2.44921270764475E-16));
#315=DIRECTION('ref_axis',(2.44921270764475E-16,0.,1.));
#316=DIRECTION('',(1.,0.,-2.44921270764475E-16));
#317=DIRECTION('center_axis',(-1.,0.,2.44921270764475E-16));
#318=DIRECTION('ref_axis',(2.44921270764475E-16,0.,1.));
#319=DIRECTION('center_axis',(-1.,0.,2.44921270764475E-16));
#320=DIRECTION('ref_axis',(2.44921270764475E-16,0.,1.));
#321=DIRECTION('center_axis',(-1.,0.,2.44921270764475E-16));
#322=DIRECTION('ref_axis',(2.44921270764475E-16,0.,1.));
#323=DIRECTION('center_axis',(-1.,0.,2.44921270764475E-16));
#324=DIRECTION('ref_axis',(2.44921270764475E-16,0.,1.));
#325=DIRECTION('',(1.,0.,-2.44921270764475E-16));
#326=DIRECTION('center_axis',(1.,0.,-2.44921270764475E-16));
#327=DIRECTION('ref_axis',(2.44921270764475E-16,0.,1.));
#328=DIRECTION('center_axis',(-1.,0.,2.44921270764475E-16));
#329=DIRECTION('ref_axis',(2.44921270764475E-16,0.,1.));
#330=DIRECTION('',(0.943038684585921,-4.07419283144127E-17,-0.332683091506701));
#331=DIRECTION('center_axis',(-1.,0.,2.44921270764475E-16));
#332=DIRECTION('ref_axis',(2.44921270764475E-16,0.,1.));
#333=DIRECTION('center_axis',(-1.,0.,2.44921270764475E-16));
#334=DIRECTION('ref_axis',(2.44921270764475E-16,0.,1.));
#335=DIRECTION('',(1.,0.,-2.44921270764475E-16));
#336=DIRECTION('center_axis',(-1.,0.,2.44921270764475E-16));
#337=DIRECTION('ref_axis',(2.44921270764475E-16,0.,1.));
#338=DIRECTION('center_axis',(-1.,0.,2.44921270764475E-16));
#339=DIRECTION('ref_axis',(2.44921270764475E-16,0.,1.));
#340=DIRECTION('',(0.342020143325671,1.15079156022785E-16,0.939692620785908));
#341=DIRECTION('center_axis',(-1.,0.,2.44921270764475E-16));
#342=DIRECTION('ref_axis',(2.44921270764475E-16,0.,1.));
#343=DIRECTION('center_axis',(-1.,0.,2.44921270764475E-16));
#344=DIRECTION('ref_axis',(2.44921270764475E-16,0.,1.));
#345=DIRECTION('',(1.,0.,-2.44921270764475E-16));
#346=DIRECTION('center_axis',(-1.,0.,2.44921270764475E-16));
#347=DIRECTION('ref_axis',(2.44921270764475E-16,0.,1.));
#348=DIRECTION('center_axis',(-1.,0.,2.44921270764475E-16));
#349=DIRECTION('ref_axis',(2.44921270764475E-16,0.,1.));
#350=DIRECTION('center_axis',(-1.,0.,2.44921270764475E-16));
#351=DIRECTION('ref_axis',(2.44921270764475E-16,0.,1.));
#352=DIRECTION('',(1.,0.,-2.44921270764475E-16));
#353=DIRECTION('center_axis',(-1.,0.,2.44921270764475E-16));
#354=DIRECTION('ref_axis',(2.44921270764475E-16,0.,1.));
#355=DIRECTION('center_axis',(1.,0.,-2.44921270764475E-16));
#356=DIRECTION('ref_axis',(-2.44921270764475E-16,0.,-1.));
#357=CARTESIAN_POINT('',(0.,0.,0.));
#358=CARTESIAN_POINT('Origin',(-1.42500000000001,0.,3.49012810839379E-16));
#359=CARTESIAN_POINT('',(-2.85000000000001,-3.09223316784707E-15,-25.25));
#360=CARTESIAN_POINT('Origin',(-2.85000000000001,0.,6.98025621678756E-16));
#361=CARTESIAN_POINT('',(-1.22124532708767E-14,-3.09223316784707E-15,-25.25));
#362=CARTESIAN_POINT('',(-1.42500000000001,-3.09223316784707E-15,-25.25));
#363=CARTESIAN_POINT('Origin',(-6.184262086803E-15,0.,1.51465732904036E-30));
#364=CARTESIAN_POINT('Origin',(-5.13391322002043,0.,1.25740454984194E-15));
#365=CARTESIAN_POINT('',(-7.41782644004085,-1.55530143491714E-15,-12.7));
#366=CARTESIAN_POINT('Origin',(-7.41782644004085,0.,1.81678347800513E-15));
#367=CARTESIAN_POINT('',(-5.13391322002043,-2.3237673013821E-15,-18.975));
#368=CARTESIAN_POINT('Origin',(-16.2089132200204,0.,3.96990762355851E-15));
#369=CARTESIAN_POINT('',(-25.,-1.55530143491714E-15,-12.7));
#370=CARTESIAN_POINT('Origin',(-25.,0.,6.12303176911189E-15));
#371=CARTESIAN_POINT('',(-16.2089132200204,-1.55530143491714E-15,-12.7));
#372=CARTESIAN_POINT('Origin',(-53.5,0.,1.31032879858994E-14));
#373=CARTESIAN_POINT('',(-82.,-3.88825358729285E-15,-31.75));
#374=CARTESIAN_POINT('Origin',(-82.,0.,2.0083544202687E-14));
#375=CARTESIAN_POINT('',(-53.5,-2.72177751110499E-15,-22.225));
#376=CARTESIAN_POINT('Origin',(-156.875,0.,3.84220243511771E-14));
#377=CARTESIAN_POINT('',(-231.75,-3.88825358729285E-15,-31.7499999999999));
#378=CARTESIAN_POINT('Origin',(-231.75,0.,5.67605044996672E-14));
#379=CARTESIAN_POINT('',(-156.875,-3.88825358729285E-15,-31.75));
#380=CARTESIAN_POINT('Origin',(-231.75,0.,38.75));
#381=CARTESIAN_POINT('',(-231.75,-5.60275910609914E-15,-45.7499999999999));
#382=CARTESIAN_POINT('Origin',(-231.75,0.,5.67605044996672E-14));
#383=CARTESIAN_POINT('Origin',(-243.375,0.,5.96077142723042E-14));
#384=CARTESIAN_POINT('',(-247.25,-5.60275910609914E-15,-45.7499999999999));
#385=CARTESIAN_POINT('Origin',(-247.25,0.,6.05567841965166E-14));
#386=CARTESIAN_POINT('',(-243.375,-5.60275910609914E-15,-45.7499999999999));
#387=CARTESIAN_POINT('Origin',(-247.25,0.,32.4000000000001));
#388=CARTESIAN_POINT('',(-247.25,-2.33295215237571E-15,-19.0499999999999));
#389=CARTESIAN_POINT('Origin',(-247.25,0.,6.05567841965165E-14));
#390=CARTESIAN_POINT('Origin',(-252.375,0.,6.18120057091845E-14));
#391=CARTESIAN_POINT('',(-257.5,-2.33295215237571E-15,-19.0499999999999));
#392=CARTESIAN_POINT('Origin',(-257.5,0.,6.30672272218524E-14));
#393=CARTESIAN_POINT('',(-252.375,-2.33295215237571E-15,-19.0499999999999));
#394=CARTESIAN_POINT('Origin',(-266.5,0.,6.52715186587327E-14));
#395=CARTESIAN_POINT('',(-275.5,-1.55530143491714E-15,-12.6999999999999));
#396=CARTESIAN_POINT('Origin',(-275.5,0.,6.7475810095613E-14));
#397=CARTESIAN_POINT('',(-266.5,-1.94412679364642E-15,-15.8749999999999));
#398=CARTESIAN_POINT('Origin',(-284.04108677998,0.,6.95677039234752E-14));
#399=CARTESIAN_POINT('',(-292.582173559959,-1.55530143491714E-15,-12.6999999999999));
#400=CARTESIAN_POINT('Origin',(-292.582173559959,0.,7.16595977513375E-14));
#401=CARTESIAN_POINT('',(-284.04108677998,-1.55530143491714E-15,-12.6999999999999));
#402=CARTESIAN_POINT('Origin',(-294.86608677998,0.,7.22189766795007E-14));
#403=CARTESIAN_POINT('',(-297.15,-3.09223316784707E-15,-25.2499999999999));
#404=CARTESIAN_POINT('Origin',(-297.15,0.,7.27783556076639E-14));
#405=CARTESIAN_POINT('',(-294.86608677998,-2.3237673013821E-15,-18.9749999999999));
#406=CARTESIAN_POINT('Origin',(-298.575,0.,7.31273684185032E-14));
#407=CARTESIAN_POINT('',(-300.,-3.09223316784707E-15,-25.2499999999999));
#408=CARTESIAN_POINT('Origin',(-300.,0.,7.34763812293426E-14));
#409=CARTESIAN_POINT('',(-298.575,-3.09223316784707E-15,-25.2499999999999));
#410=CARTESIAN_POINT('Origin',(-300.,0.,17.9750000000001));
#411=CARTESIAN_POINT('',(-300.,-1.31037207508766E-15,-10.6999999999999));
#412=CARTESIAN_POINT('Origin',(-300.,0.,7.34763812293426E-14));
#413=CARTESIAN_POINT('Origin',(-150.,0.,3.67381906146713E-14));
#414=CARTESIAN_POINT('',(0.,-1.31037207508766E-15,-10.7));
#415=CARTESIAN_POINT('',(-150.,-1.31037207508766E-15,-10.6999999999999));
#416=CARTESIAN_POINT('Origin',(-2.62065759717987E-15,0.,6.41854788939871E-31));
#417=CARTESIAN_POINT('Origin',(4.14151975241001E-31,0.,17.975));
#418=UNCERTAINTY_MEASURE_WITH_UNIT(LENGTH_MEASURE(0.01),#422,
'DISTANCE_ACCURACY_VALUE',
'Maximum model space distance between geometric entities at asserted c
onnectivities');
#419=UNCERTAINTY_MEASURE_WITH_UNIT(LENGTH_MEASURE(0.01),#422,
'DISTANCE_ACCURACY_VALUE',
'Maximum model space distance between geometric entities at asserted c
onnectivities');
#420=(
GEOMETRIC_REPRESENTATION_CONTEXT(3)
GLOBAL_UNCERTAINTY_ASSIGNED_CONTEXT((#418))
GLOBAL_UNIT_ASSIGNED_CONTEXT((#422,#424,#425))
REPRESENTATION_CONTEXT('','3D')
);
#421=(
GEOMETRIC_REPRESENTATION_CONTEXT(3)
GLOBAL_UNCERTAINTY_ASSIGNED_CONTEXT((#419))
GLOBAL_UNIT_ASSIGNED_CONTEXT((#422,#424,#425))
REPRESENTATION_CONTEXT('','3D')
);
#422=(
LENGTH_UNIT()
NAMED_UNIT(*)
SI_UNIT(.MILLI.,.METRE.)
);
#423=(
LENGTH_UNIT()
NAMED_UNIT(*)
SI_UNIT(.CENTI.,.METRE.)
);
#424=(
NAMED_UNIT(*)
PLANE_ANGLE_UNIT()
SI_UNIT($,.RADIAN.)
);
#425=(
NAMED_UNIT(*)
SI_UNIT($,.STERADIAN.)
SOLID_ANGLE_UNIT()
);
#426=SHAPE_DEFINITION_REPRESENTATION(#427,#428);
#427=PRODUCT_DEFINITION_SHAPE('',$,#430);
#428=SHAPE_REPRESENTATION('',(#246),#420);
#429=PRODUCT_DEFINITION_CONTEXT('part definition',#434,'design');
#430=PRODUCT_DEFINITION('ST-CXC_10','ST-CXC_10',#431,#429);
#431=PRODUCT_DEFINITION_FORMATION('',$,#436);
#432=PRODUCT_RELATED_PRODUCT_CATEGORY('ST-CXC_10','ST-CXC_10',(#436));
#433=APPLICATION_PROTOCOL_DEFINITION('international standard',
'automotive_design',2009,#434);
#434=APPLICATION_CONTEXT(
'Core Data for Automotive Mechanical Design Process');
#435=PRODUCT_CONTEXT('part definition',#434,'mechanical');
#436=PRODUCT('ST-CXC_10','ST-CXC_10',$,(#435));
#437=PRESENTATION_STYLE_ASSIGNMENT((#438));
#438=SURFACE_STYLE_USAGE(.BOTH.,#441);
#439=SURFACE_STYLE_RENDERING_WITH_PROPERTIES($,#445,(#440));
#440=SURFACE_STYLE_TRANSPARENT(0.);
#441=SURFACE_SIDE_STYLE('',(#442,#439));
#442=SURFACE_STYLE_FILL_AREA(#443);
#443=FILL_AREA_STYLE('',(#444));
#444=FILL_AREA_STYLE_COLOUR('',#445);
#445=COLOUR_RGB('',0.749019607843137,0.749019607843137,0.749019607843137);
ENDSEC;
END-ISO-10303-21;
