ISO-10303-21;
HEADER;
/* Generated by software containing ST-Developer
 * from STEP Tools, Inc. (www.steptools.com) 
 */

FILE_DESCRIPTION(
/* description */ (''),
/* implementation_level */ '2;1');

FILE_NAME(
/* name */ 'CVSE-30-1.stp',
/* time_stamp */ '2024-04-02T16:00:21+09:00',
/* author */ ('autocad33'),
/* organization */ (''),
/* preprocessor_version */ 'ST-DEVELOPER v19.2',
/* originating_system */ 'Autodesk Inventor 2023',
/* authorisation */ '');

FILE_SCHEMA (('AUTOMOTIVE_DESIGN { 1 0 10303 214 3 1 1 }'));
ENDSEC;

DATA;
#10=MECHANICAL_DESIGN_GEOMETRIC_PRESENTATION_REPRESENTATION('',(#239,#240,
#241,#242,#243,#244,#245,#246,#247,#248,#249,#250,#251,#252,#253,#254,#255,
#256,#257),#530);
#11=SHAPE_REPRESENTATION_RELATIONSHIP('SRR','None',#537,#12);
#12=ADVANCED_BREP_SHAPE_REPRESENTATION('',(#13),#529);
#13=MANIFOLD_SOLID_BREP('\X2\30BD30EA30C330C9\X0\1',#276);
#14=TOROIDAL_SURFACE('',#310,47.8049910312067,17.9999999999996);
#15=B_SPLINE_CURVE_WITH_KNOTS('',3,(#451,#452,#453,#454,#455,#456,#457,
#458,#459,#460,#461,#462,#463,#464,#465,#466,#467,#468),.UNSPECIFIED.,.F.,
 .F.,(4,2,2,2,2,2,2,2,4),(-11.8993812040566,-11.1495777373318,-10.0522095818746,
-8.9316064695355,-8.05124475667859,-7.58873353952959,-7.38231546356442,
-7.25411399704108,-7.23894604021713),.UNSPECIFIED.);
#16=B_SPLINE_CURVE_WITH_KNOTS('',3,(#474,#475,#476,#477,#478,#479,#480,
#481,#482,#483,#484,#485,#486,#487,#488,#489),.UNSPECIFIED.,.F.,.F.,(4,
2,2,2,2,2,2,4),(-7.23894604021713,-7.13335548381155,-6.96126240693301,-6.50222187919538,
-5.35241881117883,-4.19293955212919,-3.15872935515052,-2.72297348772345),
 .UNSPECIFIED.);
#17=CONICAL_SURFACE('',#305,41.8250028973777,1.22173224395264);
#18=CONICAL_SURFACE('',#329,41.8249955852185,1.22172518485521);
#19=FACE_BOUND('',#53,.T.);
#20=FACE_BOUND('',#60,.T.);
#21=FACE_BOUND('',#63,.T.);
#22=FACE_BOUND('',#66,.T.);
#23=PLANE('',#296);
#24=PLANE('',#300);
#25=PLANE('',#301);
#26=PLANE('',#316);
#27=PLANE('',#317);
#28=PLANE('',#321);
#29=PLANE('',#325);
#30=FACE_OUTER_BOUND('',#48,.T.);
#31=FACE_OUTER_BOUND('',#49,.T.);
#32=FACE_OUTER_BOUND('',#50,.T.);
#33=FACE_OUTER_BOUND('',#51,.T.);
#34=FACE_OUTER_BOUND('',#52,.T.);
#35=FACE_OUTER_BOUND('',#54,.T.);
#36=FACE_OUTER_BOUND('',#55,.T.);
#37=FACE_OUTER_BOUND('',#56,.T.);
#38=FACE_OUTER_BOUND('',#57,.T.);
#39=FACE_OUTER_BOUND('',#58,.T.);
#40=FACE_OUTER_BOUND('',#59,.T.);
#41=FACE_OUTER_BOUND('',#61,.T.);
#42=FACE_OUTER_BOUND('',#62,.T.);
#43=FACE_OUTER_BOUND('',#64,.T.);
#44=FACE_OUTER_BOUND('',#65,.T.);
#45=FACE_OUTER_BOUND('',#67,.T.);
#46=FACE_OUTER_BOUND('',#68,.T.);
#47=FACE_OUTER_BOUND('',#69,.T.);
#48=EDGE_LOOP('',(#165,#166,#167,#168));
#49=EDGE_LOOP('',(#169));
#50=EDGE_LOOP('',(#170,#171,#172,#173));
#51=EDGE_LOOP('',(#174));
#52=EDGE_LOOP('',(#175));
#53=EDGE_LOOP('',(#176));
#54=EDGE_LOOP('',(#177,#178,#179,#180));
#55=EDGE_LOOP('',(#181,#182,#183,#184));
#56=EDGE_LOOP('',(#185,#186,#187,#188,#189,#190,#191));
#57=EDGE_LOOP('',(#192,#193,#194,#195,#196,#197,#198,#199));
#58=EDGE_LOOP('',(#200,#201,#202,#203));
#59=EDGE_LOOP('',(#204));
#60=EDGE_LOOP('',(#205));
#61=EDGE_LOOP('',(#206,#207,#208,#209,#210));
#62=EDGE_LOOP('',(#211));
#63=EDGE_LOOP('',(#212));
#64=EDGE_LOOP('',(#213,#214,#215,#216));
#65=EDGE_LOOP('',(#217));
#66=EDGE_LOOP('',(#218));
#67=EDGE_LOOP('',(#219,#220,#221,#222));
#68=EDGE_LOOP('',(#223,#224,#225,#226));
#69=EDGE_LOOP('',(#227,#228,#229,#230));
#70=LINE('',#427,#80);
#71=LINE('',#434,#81);
#72=LINE('',#443,#82);
#73=LINE('',#447,#83);
#74=LINE('',#471,#84);
#75=LINE('',#506,#85);
#76=LINE('',#513,#86);
#77=LINE('',#520,#87);
#78=LINE('',#524,#88);
#79=LINE('',#526,#89);
#80=VECTOR('',#338,36.15);
#81=VECTOR('',#347,36.15);
#82=VECTOR('',#360,45.5000005015489);
#83=VECTOR('',#365,41.8250028973777);
#84=VECTOR('',#370,38.1500063888062);
#85=VECTOR('',#395,65.8049917462294);
#86=VECTOR('',#404,78.7500000000003);
#87=VECTOR('',#413,38.1499905821782);
#88=VECTOR('',#418,41.8249955852185);
#89=VECTOR('',#421,45.5000005830558);
#90=CIRCLE('',#294,36.15);
#91=CIRCLE('',#295,36.15);
#92=CIRCLE('',#298,36.15);
#93=CIRCLE('',#299,36.15);
#94=CIRCLE('',#302,45.5000005015474);
#95=CIRCLE('',#304,45.5000005015504);
#96=CIRCLE('',#306,38.150005293205);
#97=CIRCLE('',#308,38.1500063888062);
#98=CIRCLE('',#309,38.1500063888062);
#99=CIRCLE('',#311,65.8049910208175);
#100=CIRCLE('',#312,65.8049910208175);
#101=CIRCLE('',#313,17.9999999999996);
#102=CIRCLE('',#314,47.804991427576);
#103=CIRCLE('',#315,47.804991427576);
#104=CIRCLE('',#318,45.500000583394);
#105=CIRCLE('',#320,65.80499248203);
#106=CIRCLE('',#322,78.7499999999988);
#107=CIRCLE('',#324,78.7500000000007);
#108=CIRCLE('',#326,38.1499905826753);
#109=CIRCLE('',#328,38.1499905861805);
#110=CIRCLE('',#330,45.5000005827175);
#111=VERTEX_POINT('',#424);
#112=VERTEX_POINT('',#426);
#113=VERTEX_POINT('',#431);
#114=VERTEX_POINT('',#433);
#115=VERTEX_POINT('',#438);
#116=VERTEX_POINT('',#441);
#117=VERTEX_POINT('',#445);
#118=VERTEX_POINT('',#449);
#119=VERTEX_POINT('',#450);
#120=VERTEX_POINT('',#469);
#121=VERTEX_POINT('',#472);
#122=VERTEX_POINT('',#491);
#123=VERTEX_POINT('',#492);
#124=VERTEX_POINT('',#495);
#125=VERTEX_POINT('',#501);
#126=VERTEX_POINT('',#504);
#127=VERTEX_POINT('',#508);
#128=VERTEX_POINT('',#511);
#129=VERTEX_POINT('',#515);
#130=VERTEX_POINT('',#518);
#131=VERTEX_POINT('',#522);
#132=EDGE_CURVE('',#111,#111,#90,.T.);
#133=EDGE_CURVE('',#111,#112,#70,.T.);
#134=EDGE_CURVE('',#112,#112,#91,.T.);
#135=EDGE_CURVE('',#113,#113,#92,.T.);
#136=EDGE_CURVE('',#113,#114,#71,.T.);
#137=EDGE_CURVE('',#114,#114,#93,.T.);
#138=EDGE_CURVE('',#115,#115,#94,.T.);
#139=EDGE_CURVE('',#116,#116,#95,.T.);
#140=EDGE_CURVE('',#116,#115,#72,.T.);
#141=EDGE_CURVE('',#117,#117,#96,.T.);
#142=EDGE_CURVE('',#117,#116,#73,.T.);
#143=EDGE_CURVE('',#118,#119,#15,.T.);
#144=EDGE_CURVE('',#120,#118,#97,.T.);
#145=EDGE_CURVE('',#120,#117,#74,.T.);
#146=EDGE_CURVE('',#121,#120,#98,.T.);
#147=EDGE_CURVE('',#119,#121,#16,.T.);
#148=EDGE_CURVE('',#122,#123,#99,.T.);
#149=EDGE_CURVE('',#123,#122,#100,.T.);
#150=EDGE_CURVE('',#123,#124,#101,.T.);
#151=EDGE_CURVE('',#124,#118,#102,.T.);
#152=EDGE_CURVE('',#121,#124,#103,.T.);
#153=EDGE_CURVE('',#125,#125,#104,.T.);
#154=EDGE_CURVE('',#126,#126,#105,.T.);
#155=EDGE_CURVE('',#126,#122,#75,.T.);
#156=EDGE_CURVE('',#127,#127,#106,.T.);
#157=EDGE_CURVE('',#128,#128,#107,.T.);
#158=EDGE_CURVE('',#128,#127,#76,.T.);
#159=EDGE_CURVE('',#129,#129,#108,.T.);
#160=EDGE_CURVE('',#130,#130,#109,.T.);
#161=EDGE_CURVE('',#130,#129,#77,.T.);
#162=EDGE_CURVE('',#131,#131,#110,.T.);
#163=EDGE_CURVE('',#131,#130,#78,.T.);
#164=EDGE_CURVE('',#125,#131,#79,.T.);
#165=ORIENTED_EDGE('',*,*,#132,.F.);
#166=ORIENTED_EDGE('',*,*,#133,.T.);
#167=ORIENTED_EDGE('',*,*,#134,.T.);
#168=ORIENTED_EDGE('',*,*,#133,.F.);
#169=ORIENTED_EDGE('',*,*,#134,.F.);
#170=ORIENTED_EDGE('',*,*,#135,.F.);
#171=ORIENTED_EDGE('',*,*,#136,.T.);
#172=ORIENTED_EDGE('',*,*,#137,.T.);
#173=ORIENTED_EDGE('',*,*,#136,.F.);
#174=ORIENTED_EDGE('',*,*,#137,.F.);
#175=ORIENTED_EDGE('',*,*,#138,.F.);
#176=ORIENTED_EDGE('',*,*,#132,.T.);
#177=ORIENTED_EDGE('',*,*,#139,.F.);
#178=ORIENTED_EDGE('',*,*,#140,.T.);
#179=ORIENTED_EDGE('',*,*,#138,.T.);
#180=ORIENTED_EDGE('',*,*,#140,.F.);
#181=ORIENTED_EDGE('',*,*,#141,.F.);
#182=ORIENTED_EDGE('',*,*,#142,.T.);
#183=ORIENTED_EDGE('',*,*,#139,.T.);
#184=ORIENTED_EDGE('',*,*,#142,.F.);
#185=ORIENTED_EDGE('',*,*,#143,.F.);
#186=ORIENTED_EDGE('',*,*,#144,.F.);
#187=ORIENTED_EDGE('',*,*,#145,.T.);
#188=ORIENTED_EDGE('',*,*,#141,.T.);
#189=ORIENTED_EDGE('',*,*,#145,.F.);
#190=ORIENTED_EDGE('',*,*,#146,.F.);
#191=ORIENTED_EDGE('',*,*,#147,.F.);
#192=ORIENTED_EDGE('',*,*,#148,.F.);
#193=ORIENTED_EDGE('',*,*,#149,.F.);
#194=ORIENTED_EDGE('',*,*,#150,.T.);
#195=ORIENTED_EDGE('',*,*,#151,.T.);
#196=ORIENTED_EDGE('',*,*,#143,.T.);
#197=ORIENTED_EDGE('',*,*,#147,.T.);
#198=ORIENTED_EDGE('',*,*,#152,.T.);
#199=ORIENTED_EDGE('',*,*,#150,.F.);
#200=ORIENTED_EDGE('',*,*,#146,.T.);
#201=ORIENTED_EDGE('',*,*,#144,.T.);
#202=ORIENTED_EDGE('',*,*,#151,.F.);
#203=ORIENTED_EDGE('',*,*,#152,.F.);
#204=ORIENTED_EDGE('',*,*,#153,.T.);
#205=ORIENTED_EDGE('',*,*,#135,.T.);
#206=ORIENTED_EDGE('',*,*,#154,.F.);
#207=ORIENTED_EDGE('',*,*,#155,.T.);
#208=ORIENTED_EDGE('',*,*,#148,.T.);
#209=ORIENTED_EDGE('',*,*,#149,.T.);
#210=ORIENTED_EDGE('',*,*,#155,.F.);
#211=ORIENTED_EDGE('',*,*,#156,.F.);
#212=ORIENTED_EDGE('',*,*,#154,.T.);
#213=ORIENTED_EDGE('',*,*,#157,.F.);
#214=ORIENTED_EDGE('',*,*,#158,.T.);
#215=ORIENTED_EDGE('',*,*,#156,.T.);
#216=ORIENTED_EDGE('',*,*,#158,.F.);
#217=ORIENTED_EDGE('',*,*,#157,.T.);
#218=ORIENTED_EDGE('',*,*,#159,.F.);
#219=ORIENTED_EDGE('',*,*,#160,.F.);
#220=ORIENTED_EDGE('',*,*,#161,.T.);
#221=ORIENTED_EDGE('',*,*,#159,.T.);
#222=ORIENTED_EDGE('',*,*,#161,.F.);
#223=ORIENTED_EDGE('',*,*,#162,.F.);
#224=ORIENTED_EDGE('',*,*,#163,.T.);
#225=ORIENTED_EDGE('',*,*,#160,.T.);
#226=ORIENTED_EDGE('',*,*,#163,.F.);
#227=ORIENTED_EDGE('',*,*,#153,.F.);
#228=ORIENTED_EDGE('',*,*,#164,.T.);
#229=ORIENTED_EDGE('',*,*,#162,.T.);
#230=ORIENTED_EDGE('',*,*,#164,.F.);
#231=CYLINDRICAL_SURFACE('',#293,36.15);
#232=CYLINDRICAL_SURFACE('',#297,36.15);
#233=CYLINDRICAL_SURFACE('',#303,45.5000005015489);
#234=CYLINDRICAL_SURFACE('',#307,38.1500063888062);
#235=CYLINDRICAL_SURFACE('',#319,65.8049917462294);
#236=CYLINDRICAL_SURFACE('',#323,78.7500000000003);
#237=CYLINDRICAL_SURFACE('',#327,38.1499905821782);
#238=CYLINDRICAL_SURFACE('',#331,45.5000005830558);
#239=STYLED_ITEM('',(#547),#258);
#240=STYLED_ITEM('',(#547),#259);
#241=STYLED_ITEM('',(#547),#260);
#242=STYLED_ITEM('',(#547),#261);
#243=STYLED_ITEM('',(#547),#262);
#244=STYLED_ITEM('',(#547),#263);
#245=STYLED_ITEM('',(#547),#264);
#246=STYLED_ITEM('',(#547),#265);
#247=STYLED_ITEM('',(#547),#266);
#248=STYLED_ITEM('',(#547),#267);
#249=STYLED_ITEM('',(#547),#268);
#250=STYLED_ITEM('',(#547),#269);
#251=STYLED_ITEM('',(#547),#270);
#252=STYLED_ITEM('',(#547),#271);
#253=STYLED_ITEM('',(#547),#272);
#254=STYLED_ITEM('',(#547),#273);
#255=STYLED_ITEM('',(#547),#274);
#256=STYLED_ITEM('',(#547),#275);
#257=STYLED_ITEM('',(#546),#13);
#258=ADVANCED_FACE('',(#30),#231,.F.);
#259=ADVANCED_FACE('',(#31),#23,.T.);
#260=ADVANCED_FACE('',(#32),#232,.F.);
#261=ADVANCED_FACE('',(#33),#24,.T.);
#262=ADVANCED_FACE('',(#34,#19),#25,.T.);
#263=ADVANCED_FACE('',(#35),#233,.T.);
#264=ADVANCED_FACE('',(#36),#17,.T.);
#265=ADVANCED_FACE('',(#37),#234,.T.);
#266=ADVANCED_FACE('',(#38),#14,.T.);
#267=ADVANCED_FACE('',(#39),#26,.T.);
#268=ADVANCED_FACE('',(#40,#20),#27,.T.);
#269=ADVANCED_FACE('',(#41),#235,.T.);
#270=ADVANCED_FACE('',(#42,#21),#28,.T.);
#271=ADVANCED_FACE('',(#43),#236,.T.);
#272=ADVANCED_FACE('',(#44,#22),#29,.T.);
#273=ADVANCED_FACE('',(#45),#237,.T.);
#274=ADVANCED_FACE('',(#46),#18,.T.);
#275=ADVANCED_FACE('',(#47),#238,.T.);
#276=CLOSED_SHELL('',(#258,#259,#260,#261,#262,#263,#264,#265,#266,#267,
#268,#269,#270,#271,#272,#273,#274,#275));
#277=DERIVED_UNIT_ELEMENT(#280,1.);
#278=DERIVED_UNIT_ELEMENT(#532,-3.);
#279=DIMENSIONAL_EXPONENTS(0.,1.,0.,0.,0.,0.,0.);
#280=(
CONVERSION_BASED_UNIT('gram',#282)
MASS_UNIT()
NAMED_UNIT(#279)
);
#281=(
MASS_UNIT()
NAMED_UNIT(*)
SI_UNIT(.KILO.,.GRAM.)
);
#282=MASS_MEASURE_WITH_UNIT(MASS_MEASURE(0.001),#281);
#283=DERIVED_UNIT((#277,#278));
#284=MEASURE_REPRESENTATION_ITEM('density measure',
POSITIVE_RATIO_MEASURE(1.),#283);
#285=PROPERTY_DEFINITION_REPRESENTATION(#290,#287);
#286=PROPERTY_DEFINITION_REPRESENTATION(#291,#288);
#287=REPRESENTATION('material name',(#289),#529);
#288=REPRESENTATION('density',(#284),#529);
#289=DESCRIPTIVE_REPRESENTATION_ITEM('\X2\4E00822C\X0\','\X2\4E00822C\X0\');
#290=PROPERTY_DEFINITION('material property','material name',#539);
#291=PROPERTY_DEFINITION('material property','density of part',#539);
#292=AXIS2_PLACEMENT_3D('',#422,#332,#333);
#293=AXIS2_PLACEMENT_3D('',#423,#334,#335);
#294=AXIS2_PLACEMENT_3D('',#425,#336,#337);
#295=AXIS2_PLACEMENT_3D('',#428,#339,#340);
#296=AXIS2_PLACEMENT_3D('',#429,#341,#342);
#297=AXIS2_PLACEMENT_3D('',#430,#343,#344);
#298=AXIS2_PLACEMENT_3D('',#432,#345,#346);
#299=AXIS2_PLACEMENT_3D('',#435,#348,#349);
#300=AXIS2_PLACEMENT_3D('',#436,#350,#351);
#301=AXIS2_PLACEMENT_3D('',#437,#352,#353);
#302=AXIS2_PLACEMENT_3D('',#439,#354,#355);
#303=AXIS2_PLACEMENT_3D('',#440,#356,#357);
#304=AXIS2_PLACEMENT_3D('',#442,#358,#359);
#305=AXIS2_PLACEMENT_3D('',#444,#361,#362);
#306=AXIS2_PLACEMENT_3D('',#446,#363,#364);
#307=AXIS2_PLACEMENT_3D('',#448,#366,#367);
#308=AXIS2_PLACEMENT_3D('',#470,#368,#369);
#309=AXIS2_PLACEMENT_3D('',#473,#371,#372);
#310=AXIS2_PLACEMENT_3D('',#490,#373,#374);
#311=AXIS2_PLACEMENT_3D('',#493,#375,#376);
#312=AXIS2_PLACEMENT_3D('',#494,#377,#378);
#313=AXIS2_PLACEMENT_3D('',#496,#379,#380);
#314=AXIS2_PLACEMENT_3D('',#497,#381,#382);
#315=AXIS2_PLACEMENT_3D('',#498,#383,#384);
#316=AXIS2_PLACEMENT_3D('',#499,#385,#386);
#317=AXIS2_PLACEMENT_3D('',#500,#387,#388);
#318=AXIS2_PLACEMENT_3D('',#502,#389,#390);
#319=AXIS2_PLACEMENT_3D('',#503,#391,#392);
#320=AXIS2_PLACEMENT_3D('',#505,#393,#394);
#321=AXIS2_PLACEMENT_3D('',#507,#396,#397);
#322=AXIS2_PLACEMENT_3D('',#509,#398,#399);
#323=AXIS2_PLACEMENT_3D('',#510,#400,#401);
#324=AXIS2_PLACEMENT_3D('',#512,#402,#403);
#325=AXIS2_PLACEMENT_3D('',#514,#405,#406);
#326=AXIS2_PLACEMENT_3D('',#516,#407,#408);
#327=AXIS2_PLACEMENT_3D('',#517,#409,#410);
#328=AXIS2_PLACEMENT_3D('',#519,#411,#412);
#329=AXIS2_PLACEMENT_3D('',#521,#414,#415);
#330=AXIS2_PLACEMENT_3D('',#523,#416,#417);
#331=AXIS2_PLACEMENT_3D('',#525,#419,#420);
#332=DIRECTION('axis',(0.,0.,1.));
#333=DIRECTION('refdir',(1.,0.,0.));
#334=DIRECTION('center_axis',(4.48674913647427E-14,-1.,0.));
#335=DIRECTION('ref_axis',(1.,4.48674913647427E-14,0.));
#336=DIRECTION('center_axis',(4.48763834984011E-14,-1.,0.));
#337=DIRECTION('ref_axis',(1.,4.48674913647427E-14,0.));
#338=DIRECTION('',(4.48674913647427E-14,-1.,0.));
#339=DIRECTION('center_axis',(4.48763834984011E-14,-1.,0.));
#340=DIRECTION('ref_axis',(1.,4.48763834984011E-14,0.));
#341=DIRECTION('center_axis',(-4.48763834984011E-14,1.,0.));
#342=DIRECTION('ref_axis',(0.,0.,1.));
#343=DIRECTION('center_axis',(2.3776997559303E-10,1.,0.));
#344=DIRECTION('ref_axis',(1.,-2.3776997559303E-10,0.));
#345=DIRECTION('center_axis',(2.3776994238453E-10,1.,0.));
#346=DIRECTION('ref_axis',(1.,-2.3776997559303E-10,0.));
#347=DIRECTION('',(2.3776997559303E-10,1.,0.));
#348=DIRECTION('center_axis',(2.3776994238453E-10,1.,0.));
#349=DIRECTION('ref_axis',(1.,-2.3776994238453E-10,0.));
#350=DIRECTION('center_axis',(-2.3776994238453E-10,-1.,0.));
#351=DIRECTION('ref_axis',(0.,0.,-1.));
#352=DIRECTION('center_axis',(-4.48763834984011E-14,1.,0.));
#353=DIRECTION('ref_axis',(0.,0.,1.));
#354=DIRECTION('center_axis',(4.48763834984011E-14,-1.,0.));
#355=DIRECTION('ref_axis',(1.,4.48763834984011E-14,0.));
#356=DIRECTION('center_axis',(4.48763834984011E-14,-1.,0.));
#357=DIRECTION('ref_axis',(-1.,-4.49061859080457E-14,0.));
#358=DIRECTION('center_axis',(4.48763834984011E-14,-1.,0.));
#359=DIRECTION('ref_axis',(1.,4.48763834984011E-14,0.));
#360=DIRECTION('',(-4.48763834984011E-14,1.,0.));
#361=DIRECTION('center_axis',(-4.48763834984011E-14,1.,0.));
#362=DIRECTION('ref_axis',(-1.,-4.49061859080457E-14,0.));
#363=DIRECTION('center_axis',(4.48763834984011E-14,-1.,0.));
#364=DIRECTION('ref_axis',(1.,4.48763834984011E-14,0.));
#365=DIRECTION('',(0.939693225324389,0.342018482365278,1.15079230057398E-16));
#366=DIRECTION('center_axis',(4.48763834984011E-14,-1.,0.));
#367=DIRECTION('ref_axis',(-1.,-4.49061859080457E-14,0.));
#368=DIRECTION('center_axis',(-2.3776994238453E-10,-1.,0.));
#369=DIRECTION('ref_axis',(-1.,2.3776994238453E-10,0.));
#370=DIRECTION('',(-4.48763834984011E-14,1.,0.));
#371=DIRECTION('center_axis',(-2.3776994238453E-10,-1.,0.));
#372=DIRECTION('ref_axis',(-1.,2.3776994238453E-10,0.));
#373=DIRECTION('center_axis',(-2.3776994238453E-10,-1.,0.));
#374=DIRECTION('ref_axis',(0.,0.,-1.));
#375=DIRECTION('center_axis',(-2.3776994238453E-10,-1.,0.));
#376=DIRECTION('ref_axis',(1.,-2.3776994238453E-10,0.));
#377=DIRECTION('center_axis',(-2.3776994238453E-10,-1.,0.));
#378=DIRECTION('ref_axis',(1.,-2.3776994238453E-10,0.));
#379=DIRECTION('center_axis',(-1.,2.3776994238453E-10,-1.22464679454065E-16));
#380=DIRECTION('ref_axis',(-1.22464679454065E-16,0.,1.));
#381=DIRECTION('center_axis',(-2.3776994238453E-10,-1.,0.));
#382=DIRECTION('ref_axis',(1.,-2.3776994238453E-10,0.));
#383=DIRECTION('center_axis',(-2.3776994238453E-10,-1.,0.));
#384=DIRECTION('ref_axis',(1.,-2.3776994238453E-10,0.));
#385=DIRECTION('center_axis',(2.3776994238453E-10,1.,0.));
#386=DIRECTION('ref_axis',(0.,0.,1.));
#387=DIRECTION('center_axis',(-2.3776994238453E-10,-1.,0.));
#388=DIRECTION('ref_axis',(0.,0.,-1.));
#389=DIRECTION('center_axis',(-2.3776994238453E-10,-1.,0.));
#390=DIRECTION('ref_axis',(1.,-2.3776994238453E-10,0.));
#391=DIRECTION('center_axis',(-2.3776994238453E-10,-1.,0.));
#392=DIRECTION('ref_axis',(1.,-2.37769849599721E-10,0.));
#393=DIRECTION('center_axis',(-2.3776994238453E-10,-1.,0.));
#394=DIRECTION('ref_axis',(1.,-2.3776994238453E-10,0.));
#395=DIRECTION('',(2.3776994238453E-10,1.,0.));
#396=DIRECTION('center_axis',(2.3776994238453E-10,1.,0.));
#397=DIRECTION('ref_axis',(0.,0.,1.));
#398=DIRECTION('center_axis',(-2.3776994238453E-10,-1.,0.));
#399=DIRECTION('ref_axis',(1.,-2.3776994238453E-10,0.));
#400=DIRECTION('center_axis',(-2.3776994238453E-10,-1.,0.));
#401=DIRECTION('ref_axis',(1.,-2.37769849599721E-10,0.));
#402=DIRECTION('center_axis',(-2.3776994238453E-10,-1.,0.));
#403=DIRECTION('ref_axis',(1.,-2.3776994238453E-10,0.));
#404=DIRECTION('',(2.3776994238453E-10,1.,0.));
#405=DIRECTION('center_axis',(-2.3776994238453E-10,-1.,0.));
#406=DIRECTION('ref_axis',(0.,0.,-1.));
#407=DIRECTION('center_axis',(-2.3776994238453E-10,-1.,0.));
#408=DIRECTION('ref_axis',(1.,-2.3776994238453E-10,0.));
#409=DIRECTION('center_axis',(-2.3776994238453E-10,-1.,0.));
#410=DIRECTION('ref_axis',(1.,-2.37769849599721E-10,0.));
#411=DIRECTION('center_axis',(-2.3776994238453E-10,-1.,0.));
#412=DIRECTION('ref_axis',(1.,-2.3776994238453E-10,0.));
#413=DIRECTION('',(2.3776994238453E-10,1.,0.));
#414=DIRECTION('center_axis',(-2.3776994238453E-10,-1.,0.));
#415=DIRECTION('ref_axis',(1.,-2.37769849599721E-10,0.));
#416=DIRECTION('center_axis',(-2.3776994238453E-10,-1.,0.));
#417=DIRECTION('ref_axis',(1.,-2.3776994238453E-10,0.));
#418=DIRECTION('',(0.939690811040526,0.342025115519312,1.15078934382937E-16));
#419=DIRECTION('center_axis',(-2.3776994238453E-10,-1.,0.));
#420=DIRECTION('ref_axis',(1.,-2.37769849599721E-10,0.));
#421=DIRECTION('',(2.3776994238453E-10,1.,0.));
#422=CARTESIAN_POINT('',(0.,0.,0.));
#423=CARTESIAN_POINT('Origin',(-26.6549828839405,180.000000000002,0.));
#424=CARTESIAN_POINT('',(-62.8049828839405,180.,-4.42709817891768E-15));
#425=CARTESIAN_POINT('Origin',(-26.6549828839405,180.000000000002,0.));
#426=CARTESIAN_POINT('',(-62.8049828839384,134.,-4.42709817891768E-15));
#427=CARTESIAN_POINT('',(-62.8049828839405,180.,-4.42709817891768E-15));
#428=CARTESIAN_POINT('Origin',(-26.6549828839384,134.000000000002,0.));
#429=CARTESIAN_POINT('Origin',(-26.6549828839384,134.000000000002,0.));
#430=CARTESIAN_POINT('Origin',(-2.64697796016969E-22,-1.13676932310109E-12,
0.));
#431=CARTESIAN_POINT('',(-36.15,8.59424784836496E-9,4.42709817891768E-15));
#432=CARTESIAN_POINT('Origin',(-2.64697796013506E-22,-1.13676932308653E-12,
0.));
#433=CARTESIAN_POINT('',(-36.1499999892409,45.2500000085942,4.42709817891768E-15));
#434=CARTESIAN_POINT('',(-36.15,8.59424784836494E-9,4.42709817891768E-15));
#435=CARTESIAN_POINT('Origin',(1.07590913955844E-8,45.2499999999989,0.));
#436=CARTESIAN_POINT('Origin',(1.07590913955846E-8,45.2499999999989,0.));
#437=CARTESIAN_POINT('Origin',(-72.1549833854879,180.,0.));
#438=CARTESIAN_POINT('',(18.8450176176084,180.000000000004,5.57214299754249E-15));
#439=CARTESIAN_POINT('Origin',(-26.6549828839405,180.000000000002,0.));
#440=CARTESIAN_POINT('Origin',(-26.6549828839404,178.575009618969,0.));
#441=CARTESIAN_POINT('',(18.8450176176086,177.150019237938,5.57214299754249E-15));
#442=CARTESIAN_POINT('Origin',(-26.6549828839404,177.150019237936,0.));
#443=CARTESIAN_POINT('',(18.8450176176085,178.575009618971,5.57214299754249E-15));
#444=CARTESIAN_POINT('Origin',(-26.6549828839403,175.812436855302,0.));
#445=CARTESIAN_POINT('',(11.4950224092648,174.474854472669,4.67202818697781E-15));
#446=CARTESIAN_POINT('Origin',(-26.6549828839402,174.474854472667,0.));
#447=CARTESIAN_POINT('',(15.1700200134374,175.812436855304,5.12208559226024E-15));
#448=CARTESIAN_POINT('Origin',(-26.6549828839395,157.195467315101,0.));
#449=CARTESIAN_POINT('',(-28.8948282392606,151.999999697781,38.0841972509622));
#450=CARTESIAN_POINT('',(-64.8049892727448,139.916083249678,0.));
#451=CARTESIAN_POINT('Ctrl Pts',(-28.8948282392606,151.999999697781,38.0841972509622));
#452=CARTESIAN_POINT('Ctrl Pts',(-32.165160322262,151.999999658405,37.8918592563289));
#453=CARTESIAN_POINT('Ctrl Pts',(-35.4028326134191,151.72686591612,37.2770564615894));
#454=CARTESIAN_POINT('Ctrl Pts',(-43.0555207690244,150.590013217749,34.7753240861448));
#455=CARTESIAN_POINT('Ctrl Pts',(-47.2310880489771,149.525805858487,32.4639621189982));
#456=CARTESIAN_POINT('Ctrl Pts',(-54.5384621050337,146.975434259735,26.4713450570306));
#457=CARTESIAN_POINT('Ctrl Pts',(-57.6060239158198,145.479518897175,22.7959466753278));
#458=CARTESIAN_POINT('Ctrl Pts',(-61.7273113521941,142.865826597546,15.4614307879766));
#459=CARTESIAN_POINT('Ctrl Pts',(-62.9507041035357,141.818364245386,12.1882994944645));
#460=CARTESIAN_POINT('Ctrl Pts',(-64.122359275059,140.682929282907,7.38375430887665));
#461=CARTESIAN_POINT('Ctrl Pts',(-64.4192909506031,140.357748639656,5.68372320098142));
#462=CARTESIAN_POINT('Ctrl Pts',(-64.6799855741017,140.062616240505,3.18192111310395));
#463=CARTESIAN_POINT('Ctrl Pts',(-64.736986753789,139.996008105207,2.40699378038038));
#464=CARTESIAN_POINT('Ctrl Pts',(-64.790964037739,139.932688693346,1.14240674949511));
#465=CARTESIAN_POINT('Ctrl Pts',(-64.8024070666435,139.919134947001,0.657858320721901));
#466=CARTESIAN_POINT('Ctrl Pts',(-64.8048596087349,139.916236507416,0.114863224097637));
#467=CARTESIAN_POINT('Ctrl Pts',(-64.8049892727448,139.916083249678,0.0574270675396335));
#468=CARTESIAN_POINT('Ctrl Pts',(-64.8049892727448,139.916083249678,0.));
#469=CARTESIAN_POINT('',(11.4950235048669,151.999999688177,4.67202832115026E-15));
#470=CARTESIAN_POINT('Origin',(-26.6549828839392,151.999999697248,0.));
#471=CARTESIAN_POINT('',(11.4950235048667,157.195467315103,4.67202832115025E-15));
#472=CARTESIAN_POINT('',(-28.8948282392606,151.999999697781,-38.0841972509622));
#473=CARTESIAN_POINT('Origin',(-26.6549828839392,151.999999697248,0.));
#474=CARTESIAN_POINT('Ctrl Pts',(-64.8049892727448,139.916083249678,-4.85722573273506E-16));
#475=CARTESIAN_POINT('Ctrl Pts',(-64.8049892727448,139.916083249678,-0.399774081943228));
#476=CARTESIAN_POINT('Ctrl Pts',(-64.7987127509187,139.923516573674,-0.799107697355388));
#477=CARTESIAN_POINT('Ctrl Pts',(-64.7656941324747,139.96238257862,-1.84957371419951));
#478=CARTESIAN_POINT('Ctrl Pts',(-64.7286786559102,140.005882210641,-2.4975148167243));
#479=CARTESIAN_POINT('Ctrl Pts',(-64.5325923104455,140.231336370356,-4.86871806396736));
#480=CARTESIAN_POINT('Ctrl Pts',(-64.2743283610519,140.521940094213,-6.56349197652782));
#481=CARTESIAN_POINT('Ctrl Pts',(-62.9949152899852,141.80003875115,-12.3631991383334));
#482=CARTESIAN_POINT('Ctrl Pts',(-61.2864000085841,143.285819291883,-16.7898840174419));
#483=CARTESIAN_POINT('Ctrl Pts',(-55.6618325579618,146.46927566098,-25.3036401488231));
#484=CARTESIAN_POINT('Ctrl Pts',(-51.9797865787679,148.03085424131,-29.0052152411672));
#485=CARTESIAN_POINT('Ctrl Pts',(-43.7322986370585,150.413836223824,-34.430342617115));
#486=CARTESIAN_POINT('Ctrl Pts',(-39.3585649256993,151.293129303658,-36.2854321566961));
#487=CARTESIAN_POINT('Ctrl Pts',(-32.7553979584012,151.905347340695,-37.7123110554944));
#488=CARTESIAN_POINT('Ctrl Pts',(-30.8090316989239,151.999999674733,-37.9716172299101));
#489=CARTESIAN_POINT('Ctrl Pts',(-28.8948282392606,151.999999697781,-38.0841972509622));
#490=CARTESIAN_POINT('Origin',(4.48466393914723E-7,133.999999690911,0.));
#491=CARTESIAN_POINT('',(-65.804991297763,134.000000005023,-8.05878725099378E-15));
#492=CARTESIAN_POINT('',(4.48466385926901E-7,133.999999989376,65.8049910208175));
#493=CARTESIAN_POINT('Origin',(4.48466393985689E-7,133.999999989376,0.));
#494=CARTESIAN_POINT('Origin',(4.48466393985689E-7,133.999999989376,0.));
#495=CARTESIAN_POINT('',(4.52746247023221E-7,151.99999969091,47.804991427576));
#496=CARTESIAN_POINT('Origin',(4.484663880603E-7,133.999999690911,47.8049910312067));
#497=CARTESIAN_POINT('Origin',(4.52746252877644E-7,151.99999969091,0.));
#498=CARTESIAN_POINT('Origin',(4.52746252877644E-7,151.99999969091,0.));
#499=CARTESIAN_POINT('Origin',(47.8049918803223,151.999999679543,0.));
#500=CARTESIAN_POINT('Origin',(4.1660522143161E-7,-1.13686837929986E-12,
0.));
#501=CARTESIAN_POINT('',(-45.5000001664505,2.16370582561964E-8,-5.5721430075242E-15));
#502=CARTESIAN_POINT('Origin',(4.1660522171126E-7,1.08185324587673E-8,0.));
#503=CARTESIAN_POINT('Origin',(4.37915351783618E-7,89.6249957468011,0.));
#504=CARTESIAN_POINT('',(-65.8049913188651,45.2499915198723,-8.05878725099378E-15));
#505=CARTESIAN_POINT('Origin',(4.27364309581548E-7,45.2499915042259,0.));
#506=CARTESIAN_POINT('',(-65.804991308314,89.6249957624475,-8.05878725099378E-15));
#507=CARTESIAN_POINT('Origin',(78.7500004273631,45.2499914885792,0.));
#508=CARTESIAN_POINT('',(-78.749999572636,45.2499915260279,-9.64409354328544E-15));
#509=CARTESIAN_POINT('Origin',(4.2736430958228E-7,45.2499915073035,0.));
#510=CARTESIAN_POINT('Origin',(4.2516493761178E-7,35.9999914928231,0.));
#511=CARTESIAN_POINT('',(-78.7499995770347,26.749991497067,-9.64409354328544E-15));
#512=CARTESIAN_POINT('Origin',(4.2296556564128E-7,26.7499914783427,0.));
#513=CARTESIAN_POINT('',(-78.7499995748354,35.9999915115475,-9.64409354328544E-15));
#514=CARTESIAN_POINT('Origin',(38.1499910056408,26.7499915665098,0.));
#515=CARTESIAN_POINT('',(-38.1499901592126,26.7499915846524,-4.67202638539662E-15));
#516=CARTESIAN_POINT('Origin',(4.229655656644E-7,26.7499915755815,0.));
#517=CARTESIAN_POINT('Origin',(4.20442255954314E-7,16.137591686932,0.));
#518=CARTESIAN_POINT('',(-38.1499901642593,5.52519180735348,-4.67202638539662E-15));
#519=CARTESIAN_POINT('Origin',(4.17918946244229E-7,5.52519179828256,0.));
#520=CARTESIAN_POINT('',(-38.149990161736,16.1375916960029,-4.67202638539662E-15));
#521=CARTESIAN_POINT('Origin',(4.17600901733929E-7,4.18757735000599,0.));
#522=CARTESIAN_POINT('',(-45.5000001654347,2.84996290831995,-5.57214300748277E-15));
#523=CARTESIAN_POINT('Origin',(4.17282857222625E-7,2.84996289750142,0.));
#524=CARTESIAN_POINT('',(-41.8249951676176,4.18757735995072,-5.122084696779E-15));
#525=CARTESIAN_POINT('Origin',(4.16944039466942E-7,1.42498145415998,0.));
#526=CARTESIAN_POINT('',(-45.5000001661117,1.42498146497851,-5.5721430075242E-15));
#527=UNCERTAINTY_MEASURE_WITH_UNIT(LENGTH_MEASURE(0.01),#531,
'DISTANCE_ACCURACY_VALUE',
'Maximum model space distance between geometric entities at asserted c
onnectivities');
#528=UNCERTAINTY_MEASURE_WITH_UNIT(LENGTH_MEASURE(0.01),#531,
'DISTANCE_ACCURACY_VALUE',
'Maximum model space distance between geometric entities at asserted c
onnectivities');
#529=(
GEOMETRIC_REPRESENTATION_CONTEXT(3)
GLOBAL_UNCERTAINTY_ASSIGNED_CONTEXT((#527))
GLOBAL_UNIT_ASSIGNED_CONTEXT((#531,#533,#534))
REPRESENTATION_CONTEXT('','3D')
);
#530=(
GEOMETRIC_REPRESENTATION_CONTEXT(3)
GLOBAL_UNCERTAINTY_ASSIGNED_CONTEXT((#528))
GLOBAL_UNIT_ASSIGNED_CONTEXT((#531,#533,#534))
REPRESENTATION_CONTEXT('','3D')
);
#531=(
LENGTH_UNIT()
NAMED_UNIT(*)
SI_UNIT(.MILLI.,.METRE.)
);
#532=(
LENGTH_UNIT()
NAMED_UNIT(*)
SI_UNIT(.CENTI.,.METRE.)
);
#533=(
NAMED_UNIT(*)
PLANE_ANGLE_UNIT()
SI_UNIT($,.RADIAN.)
);
#534=(
NAMED_UNIT(*)
SI_UNIT($,.STERADIAN.)
SOLID_ANGLE_UNIT()
);
#535=SHAPE_DEFINITION_REPRESENTATION(#536,#537);
#536=PRODUCT_DEFINITION_SHAPE('',$,#539);
#537=SHAPE_REPRESENTATION('',(#292),#529);
#538=PRODUCT_DEFINITION_CONTEXT('part definition',#543,'design');
#539=PRODUCT_DEFINITION('Part13','Part13',#540,#538);
#540=PRODUCT_DEFINITION_FORMATION('',$,#545);
#541=PRODUCT_RELATED_PRODUCT_CATEGORY('Part13','Part13',(#545));
#542=APPLICATION_PROTOCOL_DEFINITION('international standard',
'automotive_design',2009,#543);
#543=APPLICATION_CONTEXT(
'Core Data for Automotive Mechanical Design Process');
#544=PRODUCT_CONTEXT('part definition',#543,'mechanical');
#545=PRODUCT('Part13','Part13',$,(#544));
#546=PRESENTATION_STYLE_ASSIGNMENT((#548));
#547=PRESENTATION_STYLE_ASSIGNMENT((#549));
#548=SURFACE_STYLE_USAGE(.BOTH.,#554);
#549=SURFACE_STYLE_USAGE(.BOTH.,#555);
#550=SURFACE_STYLE_RENDERING_WITH_PROPERTIES($,#562,(#552));
#551=SURFACE_STYLE_RENDERING_WITH_PROPERTIES($,#563,(#553));
#552=SURFACE_STYLE_TRANSPARENT(0.);
#553=SURFACE_STYLE_TRANSPARENT(0.);
#554=SURFACE_SIDE_STYLE('',(#556,#550));
#555=SURFACE_SIDE_STYLE('',(#557,#551));
#556=SURFACE_STYLE_FILL_AREA(#558);
#557=SURFACE_STYLE_FILL_AREA(#559);
#558=FILL_AREA_STYLE('',(#560));
#559=FILL_AREA_STYLE('',(#561));
#560=FILL_AREA_STYLE_COLOUR('',#562);
#561=FILL_AREA_STYLE_COLOUR('',#563);
#562=COLOUR_RGB('',0.749019607843137,0.749019607843137,0.749019607843137);
#563=COLOUR_RGB('',0.749019607843137,0.749019607843137,0.749019607843137);
ENDSEC;
END-ISO-10303-21;
