ISO-10303-21;
HEADER;
/* Generated by software containing ST-Developer
 * from STEP Tools, Inc. (www.steptools.com) 
 */

FILE_DESCRIPTION(
/* description */ (''),
/* implementation_level */ '2;1');

FILE_NAME(
/* name */ 'CVSE-25-1.stp',
/* time_stamp */ '2024-04-02T15:57:10+09:00',
/* author */ ('autocad33'),
/* organization */ (''),
/* preprocessor_version */ 'ST-DEVELOPER v19.2',
/* originating_system */ 'Autodesk Inventor 2023',
/* authorisation */ '');

FILE_SCHEMA (('AUTOMOTIVE_DESIGN { 1 0 10303 214 3 1 1 }'));
ENDSEC;

DATA;
#10=MECHANICAL_DESIGN_GEOMETRIC_PRESENTATION_REPRESENTATION('',(#239,#240,
#241,#242,#243,#244,#245,#246,#247,#248,#249,#250,#251,#252,#253,#254,#255,
#256,#257),#532);
#11=SHAPE_REPRESENTATION_RELATIONSHIP('SRR','None',#539,#12);
#12=ADVANCED_BREP_SHAPE_REPRESENTATION('',(#13),#531);
#13=MANIFOLD_SOLID_BREP('\X2\30BD30EA30C330C9\X0\1',#276);
#14=TOROIDAL_SURFACE('',#313,44.4999998020975,18.);
#15=B_SPLINE_CURVE_WITH_KNOTS('',3,(#451,#452,#453,#454,#455,#456,#457,
#458,#459,#460,#461,#462,#463,#464,#465,#466,#467,#468),.UNSPECIFIED.,.F.,
 .F.,(4,2,2,2,2,2,2,2,4),(-12.5765480098616,-11.6375189863412,-10.4206013416839,
-9.18937658012031,-8.35278567957409,-8.03022543903668,-7.85621968415154,
-7.7119589910343,-7.62297271899856),.UNSPECIFIED.);
#16=B_SPLINE_CURVE_WITH_KNOTS('',3,(#474,#475,#476,#477,#478,#479,#480,
#481,#482,#483,#484,#485,#486,#487,#488,#489,#490,#491),.UNSPECIFIED.,.F.,
 .F.,(4,2,2,2,2,2,2,2,4),(-7.62297271899856,-7.60873827239766,-7.49994005229274,
-7.32569357666093,-6.68552406469383,-5.55322570305398,-4.22367133115545,
-3.10202828890454,-2.66519936717284),.UNSPECIFIED.);
#17=CONICAL_SURFACE('',#305,35.2500002225568,1.22173029811265);
#18=CONICAL_SURFACE('',#327,35.2500150965103,1.22173037598289);
#19=CONICAL_SURFACE('',#329,38.7500080749786,5.82282222734721E-6);
#20=FACE_BOUND('',#54,.T.);
#21=FACE_BOUND('',#62,.T.);
#22=FACE_BOUND('',#65,.T.);
#23=FACE_BOUND('',#70,.T.);
#24=PLANE('',#296);
#25=PLANE('',#300);
#26=PLANE('',#301);
#27=PLANE('',#310);
#28=PLANE('',#319);
#29=PLANE('',#323);
#30=PLANE('',#331);
#31=FACE_OUTER_BOUND('',#49,.T.);
#32=FACE_OUTER_BOUND('',#50,.T.);
#33=FACE_OUTER_BOUND('',#51,.T.);
#34=FACE_OUTER_BOUND('',#52,.T.);
#35=FACE_OUTER_BOUND('',#53,.T.);
#36=FACE_OUTER_BOUND('',#55,.T.);
#37=FACE_OUTER_BOUND('',#56,.T.);
#38=FACE_OUTER_BOUND('',#57,.T.);
#39=FACE_OUTER_BOUND('',#58,.T.);
#40=FACE_OUTER_BOUND('',#59,.T.);
#41=FACE_OUTER_BOUND('',#60,.T.);
#42=FACE_OUTER_BOUND('',#61,.T.);
#43=FACE_OUTER_BOUND('',#63,.T.);
#44=FACE_OUTER_BOUND('',#64,.T.);
#45=FACE_OUTER_BOUND('',#66,.T.);
#46=FACE_OUTER_BOUND('',#67,.T.);
#47=FACE_OUTER_BOUND('',#68,.T.);
#48=FACE_OUTER_BOUND('',#69,.T.);
#49=EDGE_LOOP('',(#166,#167,#168,#169));
#50=EDGE_LOOP('',(#170));
#51=EDGE_LOOP('',(#171,#172,#173,#174));
#52=EDGE_LOOP('',(#175));
#53=EDGE_LOOP('',(#176));
#54=EDGE_LOOP('',(#177));
#55=EDGE_LOOP('',(#178,#179,#180,#181));
#56=EDGE_LOOP('',(#182,#183,#184,#185));
#57=EDGE_LOOP('',(#186,#187,#188,#189,#190,#191,#192));
#58=EDGE_LOOP('',(#193,#194,#195,#196));
#59=EDGE_LOOP('',(#197,#198,#199,#200,#201,#202,#203,#204));
#60=EDGE_LOOP('',(#205,#206,#207,#208,#209));
#61=EDGE_LOOP('',(#210));
#62=EDGE_LOOP('',(#211));
#63=EDGE_LOOP('',(#212,#213,#214,#215));
#64=EDGE_LOOP('',(#216));
#65=EDGE_LOOP('',(#217));
#66=EDGE_LOOP('',(#218,#219,#220,#221));
#67=EDGE_LOOP('',(#222,#223,#224,#225));
#68=EDGE_LOOP('',(#226,#227,#228,#229));
#69=EDGE_LOOP('',(#230));
#70=EDGE_LOOP('',(#231));
#71=LINE('',#427,#81);
#72=LINE('',#434,#82);
#73=LINE('',#443,#83);
#74=LINE('',#447,#84);
#75=LINE('',#471,#85);
#76=LINE('',#505,#86);
#77=LINE('',#512,#87);
#78=LINE('',#519,#88);
#79=LINE('',#523,#89);
#80=LINE('',#527,#90);
#81=VECTOR('',#338,29.75);
#82=VECTOR('',#347,29.75);
#83=VECTOR('',#360,38.7500002225562);
#84=VECTOR('',#365,35.2500002225568);
#85=VECTOR('',#370,31.7500002225565);
#86=VECTOR('',#391,62.4999998020972);
#87=VECTOR('',#400,78.7499999999987);
#88=VECTOR('',#409,31.7500073962579);
#89=VECTOR('',#414,35.2500150965103);
#90=VECTOR('',#419,38.7500080749786);
#91=CIRCLE('',#294,29.75);
#92=CIRCLE('',#295,29.75);
#93=CIRCLE('',#298,29.75);
#94=CIRCLE('',#299,29.75);
#95=CIRCLE('',#302,38.7500002225554);
#96=CIRCLE('',#304,38.7500002225571);
#97=CIRCLE('',#306,31.7500002225564);
#98=CIRCLE('',#308,31.7500002225565);
#99=CIRCLE('',#309,31.7500002225565);
#100=CIRCLE('',#311,44.4999998020972);
#101=CIRCLE('',#312,44.4999998020972);
#102=CIRCLE('',#314,62.4999998020974);
#103=CIRCLE('',#315,62.4999998020974);
#104=CIRCLE('',#316,18.);
#105=CIRCLE('',#318,62.4999998020971);
#106=CIRCLE('',#320,78.7499999999994);
#107=CIRCLE('',#322,78.749999999998);
#108=CIRCLE('',#324,31.7500009720092);
#109=CIRCLE('',#326,31.7500138205065);
#110=CIRCLE('',#328,38.7500163725142);
#111=CIRCLE('',#330,38.749999777443);
#112=VERTEX_POINT('',#424);
#113=VERTEX_POINT('',#426);
#114=VERTEX_POINT('',#431);
#115=VERTEX_POINT('',#433);
#116=VERTEX_POINT('',#438);
#117=VERTEX_POINT('',#441);
#118=VERTEX_POINT('',#445);
#119=VERTEX_POINT('',#449);
#120=VERTEX_POINT('',#450);
#121=VERTEX_POINT('',#469);
#122=VERTEX_POINT('',#472);
#123=VERTEX_POINT('',#493);
#124=VERTEX_POINT('',#497);
#125=VERTEX_POINT('',#498);
#126=VERTEX_POINT('',#503);
#127=VERTEX_POINT('',#507);
#128=VERTEX_POINT('',#510);
#129=VERTEX_POINT('',#514);
#130=VERTEX_POINT('',#517);
#131=VERTEX_POINT('',#521);
#132=VERTEX_POINT('',#525);
#133=EDGE_CURVE('',#112,#112,#91,.T.);
#134=EDGE_CURVE('',#112,#113,#71,.T.);
#135=EDGE_CURVE('',#113,#113,#92,.T.);
#136=EDGE_CURVE('',#114,#114,#93,.T.);
#137=EDGE_CURVE('',#114,#115,#72,.T.);
#138=EDGE_CURVE('',#115,#115,#94,.T.);
#139=EDGE_CURVE('',#116,#116,#95,.T.);
#140=EDGE_CURVE('',#117,#117,#96,.T.);
#141=EDGE_CURVE('',#117,#116,#73,.T.);
#142=EDGE_CURVE('',#118,#118,#97,.T.);
#143=EDGE_CURVE('',#118,#117,#74,.T.);
#144=EDGE_CURVE('',#119,#120,#15,.T.);
#145=EDGE_CURVE('',#121,#119,#98,.T.);
#146=EDGE_CURVE('',#121,#118,#75,.T.);
#147=EDGE_CURVE('',#122,#121,#99,.T.);
#148=EDGE_CURVE('',#120,#122,#16,.T.);
#149=EDGE_CURVE('',#123,#119,#100,.T.);
#150=EDGE_CURVE('',#122,#123,#101,.T.);
#151=EDGE_CURVE('',#124,#125,#102,.T.);
#152=EDGE_CURVE('',#125,#124,#103,.T.);
#153=EDGE_CURVE('',#125,#123,#104,.T.);
#154=EDGE_CURVE('',#126,#126,#105,.T.);
#155=EDGE_CURVE('',#126,#124,#76,.T.);
#156=EDGE_CURVE('',#127,#127,#106,.T.);
#157=EDGE_CURVE('',#128,#128,#107,.T.);
#158=EDGE_CURVE('',#128,#127,#77,.T.);
#159=EDGE_CURVE('',#129,#129,#108,.T.);
#160=EDGE_CURVE('',#130,#130,#109,.T.);
#161=EDGE_CURVE('',#130,#129,#78,.T.);
#162=EDGE_CURVE('',#131,#131,#110,.T.);
#163=EDGE_CURVE('',#131,#130,#79,.T.);
#164=EDGE_CURVE('',#132,#132,#111,.T.);
#165=EDGE_CURVE('',#132,#131,#80,.T.);
#166=ORIENTED_EDGE('',*,*,#133,.F.);
#167=ORIENTED_EDGE('',*,*,#134,.T.);
#168=ORIENTED_EDGE('',*,*,#135,.T.);
#169=ORIENTED_EDGE('',*,*,#134,.F.);
#170=ORIENTED_EDGE('',*,*,#135,.F.);
#171=ORIENTED_EDGE('',*,*,#136,.F.);
#172=ORIENTED_EDGE('',*,*,#137,.T.);
#173=ORIENTED_EDGE('',*,*,#138,.T.);
#174=ORIENTED_EDGE('',*,*,#137,.F.);
#175=ORIENTED_EDGE('',*,*,#138,.F.);
#176=ORIENTED_EDGE('',*,*,#139,.F.);
#177=ORIENTED_EDGE('',*,*,#133,.T.);
#178=ORIENTED_EDGE('',*,*,#140,.F.);
#179=ORIENTED_EDGE('',*,*,#141,.T.);
#180=ORIENTED_EDGE('',*,*,#139,.T.);
#181=ORIENTED_EDGE('',*,*,#141,.F.);
#182=ORIENTED_EDGE('',*,*,#142,.F.);
#183=ORIENTED_EDGE('',*,*,#143,.T.);
#184=ORIENTED_EDGE('',*,*,#140,.T.);
#185=ORIENTED_EDGE('',*,*,#143,.F.);
#186=ORIENTED_EDGE('',*,*,#144,.F.);
#187=ORIENTED_EDGE('',*,*,#145,.F.);
#188=ORIENTED_EDGE('',*,*,#146,.T.);
#189=ORIENTED_EDGE('',*,*,#142,.T.);
#190=ORIENTED_EDGE('',*,*,#146,.F.);
#191=ORIENTED_EDGE('',*,*,#147,.F.);
#192=ORIENTED_EDGE('',*,*,#148,.F.);
#193=ORIENTED_EDGE('',*,*,#147,.T.);
#194=ORIENTED_EDGE('',*,*,#145,.T.);
#195=ORIENTED_EDGE('',*,*,#149,.F.);
#196=ORIENTED_EDGE('',*,*,#150,.F.);
#197=ORIENTED_EDGE('',*,*,#151,.F.);
#198=ORIENTED_EDGE('',*,*,#152,.F.);
#199=ORIENTED_EDGE('',*,*,#153,.T.);
#200=ORIENTED_EDGE('',*,*,#149,.T.);
#201=ORIENTED_EDGE('',*,*,#144,.T.);
#202=ORIENTED_EDGE('',*,*,#148,.T.);
#203=ORIENTED_EDGE('',*,*,#150,.T.);
#204=ORIENTED_EDGE('',*,*,#153,.F.);
#205=ORIENTED_EDGE('',*,*,#154,.F.);
#206=ORIENTED_EDGE('',*,*,#155,.T.);
#207=ORIENTED_EDGE('',*,*,#151,.T.);
#208=ORIENTED_EDGE('',*,*,#152,.T.);
#209=ORIENTED_EDGE('',*,*,#155,.F.);
#210=ORIENTED_EDGE('',*,*,#156,.F.);
#211=ORIENTED_EDGE('',*,*,#154,.T.);
#212=ORIENTED_EDGE('',*,*,#157,.F.);
#213=ORIENTED_EDGE('',*,*,#158,.T.);
#214=ORIENTED_EDGE('',*,*,#156,.T.);
#215=ORIENTED_EDGE('',*,*,#158,.F.);
#216=ORIENTED_EDGE('',*,*,#157,.T.);
#217=ORIENTED_EDGE('',*,*,#159,.F.);
#218=ORIENTED_EDGE('',*,*,#160,.F.);
#219=ORIENTED_EDGE('',*,*,#161,.T.);
#220=ORIENTED_EDGE('',*,*,#159,.T.);
#221=ORIENTED_EDGE('',*,*,#161,.F.);
#222=ORIENTED_EDGE('',*,*,#162,.F.);
#223=ORIENTED_EDGE('',*,*,#163,.T.);
#224=ORIENTED_EDGE('',*,*,#160,.T.);
#225=ORIENTED_EDGE('',*,*,#163,.F.);
#226=ORIENTED_EDGE('',*,*,#164,.F.);
#227=ORIENTED_EDGE('',*,*,#165,.T.);
#228=ORIENTED_EDGE('',*,*,#162,.T.);
#229=ORIENTED_EDGE('',*,*,#165,.F.);
#230=ORIENTED_EDGE('',*,*,#164,.T.);
#231=ORIENTED_EDGE('',*,*,#136,.T.);
#232=CYLINDRICAL_SURFACE('',#293,29.75);
#233=CYLINDRICAL_SURFACE('',#297,29.75);
#234=CYLINDRICAL_SURFACE('',#303,38.7500002225562);
#235=CYLINDRICAL_SURFACE('',#307,31.7500002225565);
#236=CYLINDRICAL_SURFACE('',#317,62.4999998020972);
#237=CYLINDRICAL_SURFACE('',#321,78.7499999999987);
#238=CYLINDRICAL_SURFACE('',#325,31.7500073962579);
#239=STYLED_ITEM('',(#549),#258);
#240=STYLED_ITEM('',(#549),#259);
#241=STYLED_ITEM('',(#549),#260);
#242=STYLED_ITEM('',(#549),#261);
#243=STYLED_ITEM('',(#549),#262);
#244=STYLED_ITEM('',(#549),#263);
#245=STYLED_ITEM('',(#549),#264);
#246=STYLED_ITEM('',(#549),#265);
#247=STYLED_ITEM('',(#549),#266);
#248=STYLED_ITEM('',(#549),#267);
#249=STYLED_ITEM('',(#549),#268);
#250=STYLED_ITEM('',(#549),#269);
#251=STYLED_ITEM('',(#549),#270);
#252=STYLED_ITEM('',(#549),#271);
#253=STYLED_ITEM('',(#549),#272);
#254=STYLED_ITEM('',(#549),#273);
#255=STYLED_ITEM('',(#549),#274);
#256=STYLED_ITEM('',(#549),#275);
#257=STYLED_ITEM('',(#548),#13);
#258=ADVANCED_FACE('',(#31),#232,.F.);
#259=ADVANCED_FACE('',(#32),#24,.T.);
#260=ADVANCED_FACE('',(#33),#233,.F.);
#261=ADVANCED_FACE('',(#34),#25,.T.);
#262=ADVANCED_FACE('',(#35,#20),#26,.T.);
#263=ADVANCED_FACE('',(#36),#234,.T.);
#264=ADVANCED_FACE('',(#37),#17,.T.);
#265=ADVANCED_FACE('',(#38),#235,.T.);
#266=ADVANCED_FACE('',(#39),#27,.T.);
#267=ADVANCED_FACE('',(#40),#14,.T.);
#268=ADVANCED_FACE('',(#41),#236,.T.);
#269=ADVANCED_FACE('',(#42,#21),#28,.T.);
#270=ADVANCED_FACE('',(#43),#237,.T.);
#271=ADVANCED_FACE('',(#44,#22),#29,.T.);
#272=ADVANCED_FACE('',(#45),#238,.T.);
#273=ADVANCED_FACE('',(#46),#18,.T.);
#274=ADVANCED_FACE('',(#47),#19,.T.);
#275=ADVANCED_FACE('',(#48,#23),#30,.T.);
#276=CLOSED_SHELL('',(#258,#259,#260,#261,#262,#263,#264,#265,#266,#267,
#268,#269,#270,#271,#272,#273,#274,#275));
#277=DERIVED_UNIT_ELEMENT(#280,1.);
#278=DERIVED_UNIT_ELEMENT(#534,-3.);
#279=DIMENSIONAL_EXPONENTS(0.,1.,0.,0.,0.,0.,0.);
#280=(
CONVERSION_BASED_UNIT('gram',#282)
MASS_UNIT()
NAMED_UNIT(#279)
);
#281=(
MASS_UNIT()
NAMED_UNIT(*)
SI_UNIT(.KILO.,.GRAM.)
);
#282=MASS_MEASURE_WITH_UNIT(MASS_MEASURE(0.001),#281);
#283=DERIVED_UNIT((#277,#278));
#284=MEASURE_REPRESENTATION_ITEM('density measure',
POSITIVE_RATIO_MEASURE(1.),#283);
#285=PROPERTY_DEFINITION_REPRESENTATION(#290,#287);
#286=PROPERTY_DEFINITION_REPRESENTATION(#291,#288);
#287=REPRESENTATION('material name',(#289),#531);
#288=REPRESENTATION('density',(#284),#531);
#289=DESCRIPTIVE_REPRESENTATION_ITEM('\X2\4E00822C\X0\','\X2\4E00822C\X0\');
#290=PROPERTY_DEFINITION('material property','material name',#541);
#291=PROPERTY_DEFINITION('material property','density of part',#541);
#292=AXIS2_PLACEMENT_3D('',#422,#332,#333);
#293=AXIS2_PLACEMENT_3D('',#423,#334,#335);
#294=AXIS2_PLACEMENT_3D('',#425,#336,#337);
#295=AXIS2_PLACEMENT_3D('',#428,#339,#340);
#296=AXIS2_PLACEMENT_3D('',#429,#341,#342);
#297=AXIS2_PLACEMENT_3D('',#430,#343,#344);
#298=AXIS2_PLACEMENT_3D('',#432,#345,#346);
#299=AXIS2_PLACEMENT_3D('',#435,#348,#349);
#300=AXIS2_PLACEMENT_3D('',#436,#350,#351);
#301=AXIS2_PLACEMENT_3D('',#437,#352,#353);
#302=AXIS2_PLACEMENT_3D('',#439,#354,#355);
#303=AXIS2_PLACEMENT_3D('',#440,#356,#357);
#304=AXIS2_PLACEMENT_3D('',#442,#358,#359);
#305=AXIS2_PLACEMENT_3D('',#444,#361,#362);
#306=AXIS2_PLACEMENT_3D('',#446,#363,#364);
#307=AXIS2_PLACEMENT_3D('',#448,#366,#367);
#308=AXIS2_PLACEMENT_3D('',#470,#368,#369);
#309=AXIS2_PLACEMENT_3D('',#473,#371,#372);
#310=AXIS2_PLACEMENT_3D('',#492,#373,#374);
#311=AXIS2_PLACEMENT_3D('',#494,#375,#376);
#312=AXIS2_PLACEMENT_3D('',#495,#377,#378);
#313=AXIS2_PLACEMENT_3D('',#496,#379,#380);
#314=AXIS2_PLACEMENT_3D('',#499,#381,#382);
#315=AXIS2_PLACEMENT_3D('',#500,#383,#384);
#316=AXIS2_PLACEMENT_3D('',#501,#385,#386);
#317=AXIS2_PLACEMENT_3D('',#502,#387,#388);
#318=AXIS2_PLACEMENT_3D('',#504,#389,#390);
#319=AXIS2_PLACEMENT_3D('',#506,#392,#393);
#320=AXIS2_PLACEMENT_3D('',#508,#394,#395);
#321=AXIS2_PLACEMENT_3D('',#509,#396,#397);
#322=AXIS2_PLACEMENT_3D('',#511,#398,#399);
#323=AXIS2_PLACEMENT_3D('',#513,#401,#402);
#324=AXIS2_PLACEMENT_3D('',#515,#403,#404);
#325=AXIS2_PLACEMENT_3D('',#516,#405,#406);
#326=AXIS2_PLACEMENT_3D('',#518,#407,#408);
#327=AXIS2_PLACEMENT_3D('',#520,#410,#411);
#328=AXIS2_PLACEMENT_3D('',#522,#412,#413);
#329=AXIS2_PLACEMENT_3D('',#524,#415,#416);
#330=AXIS2_PLACEMENT_3D('',#526,#417,#418);
#331=AXIS2_PLACEMENT_3D('',#528,#420,#421);
#332=DIRECTION('axis',(0.,0.,1.));
#333=DIRECTION('refdir',(1.,0.,0.));
#334=DIRECTION('center_axis',(6.60970036192805E-15,-1.,0.));
#335=DIRECTION('ref_axis',(1.,6.60970036192805E-15,0.));
#336=DIRECTION('center_axis',(6.60969986753527E-15,-1.,0.));
#337=DIRECTION('ref_axis',(1.,6.60970036192805E-15,0.));
#338=DIRECTION('',(6.60970036192805E-15,-1.,0.));
#339=DIRECTION('center_axis',(6.60969986753527E-15,-1.,0.));
#340=DIRECTION('ref_axis',(1.,6.60969986753527E-15,0.));
#341=DIRECTION('center_axis',(-6.60969986753527E-15,1.,0.));
#342=DIRECTION('ref_axis',(0.,0.,1.));
#343=DIRECTION('center_axis',(0.,1.,0.));
#344=DIRECTION('ref_axis',(1.,0.,0.));
#345=DIRECTION('center_axis',(0.,1.,0.));
#346=DIRECTION('ref_axis',(1.,0.,0.));
#347=DIRECTION('',(0.,1.,0.));
#348=DIRECTION('center_axis',(0.,1.,0.));
#349=DIRECTION('ref_axis',(1.,0.,0.));
#350=DIRECTION('center_axis',(0.,-1.,0.));
#351=DIRECTION('ref_axis',(0.,0.,-1.));
#352=DIRECTION('center_axis',(-6.60969986753527E-15,1.,0.));
#353=DIRECTION('ref_axis',(0.,0.,1.));
#354=DIRECTION('center_axis',(6.60969986753527E-15,-1.,0.));
#355=DIRECTION('ref_axis',(1.,6.60969986753527E-15,0.));
#356=DIRECTION('center_axis',(6.60969986753527E-15,-1.,0.));
#357=DIRECTION('ref_axis',(-1.,-6.5963804182334E-15,0.));
#358=DIRECTION('center_axis',(6.60969986753527E-15,-1.,0.));
#359=DIRECTION('ref_axis',(1.,6.60969986753527E-15,0.));
#360=DIRECTION('',(-6.60969986753527E-15,1.,0.));
#361=DIRECTION('center_axis',(-6.60969986753527E-15,1.,0.));
#362=DIRECTION('ref_axis',(-1.,-6.5963804182334E-15,0.));
#363=DIRECTION('center_axis',(6.60969986753527E-15,-1.,0.));
#364=DIRECTION('ref_axis',(1.,6.60969986753527E-15,0.));
#365=DIRECTION('',(0.939692559809383,0.342020310857248,1.15079148555315E-16));
#366=DIRECTION('center_axis',(6.60969986753527E-15,-1.,0.));
#367=DIRECTION('ref_axis',(-1.,-6.5963804182334E-15,0.));
#368=DIRECTION('center_axis',(0.,-1.,0.));
#369=DIRECTION('ref_axis',(-1.,-6.5963804182334E-15,0.));
#370=DIRECTION('',(-6.60969986753527E-15,1.,0.));
#371=DIRECTION('center_axis',(0.,-1.,0.));
#372=DIRECTION('ref_axis',(-1.,-6.5963804182334E-15,0.));
#373=DIRECTION('center_axis',(0.,1.,0.));
#374=DIRECTION('ref_axis',(0.,0.,1.));
#375=DIRECTION('center_axis',(0.,-1.,0.));
#376=DIRECTION('ref_axis',(1.,0.,0.));
#377=DIRECTION('center_axis',(0.,-1.,0.));
#378=DIRECTION('ref_axis',(1.,0.,0.));
#379=DIRECTION('center_axis',(0.,-1.,0.));
#380=DIRECTION('ref_axis',(0.,0.,-1.));
#381=DIRECTION('center_axis',(0.,-1.,0.));
#382=DIRECTION('ref_axis',(1.,0.,0.));
#383=DIRECTION('center_axis',(0.,-1.,0.));
#384=DIRECTION('ref_axis',(1.,0.,0.));
#385=DIRECTION('center_axis',(-1.,0.,-1.22464679822942E-16));
#386=DIRECTION('ref_axis',(-1.22464679822942E-16,0.,1.));
#387=DIRECTION('center_axis',(0.,-1.,0.));
#388=DIRECTION('ref_axis',(1.,0.,0.));
#389=DIRECTION('center_axis',(0.,-1.,0.));
#390=DIRECTION('ref_axis',(1.,0.,0.));
#391=DIRECTION('',(0.,1.,0.));
#392=DIRECTION('center_axis',(0.,1.,0.));
#393=DIRECTION('ref_axis',(0.,0.,1.));
#394=DIRECTION('center_axis',(0.,-1.,0.));
#395=DIRECTION('ref_axis',(1.,0.,0.));
#396=DIRECTION('center_axis',(0.,-1.,0.));
#397=DIRECTION('ref_axis',(1.,0.,0.));
#398=DIRECTION('center_axis',(0.,-1.,0.));
#399=DIRECTION('ref_axis',(1.,0.,0.));
#400=DIRECTION('',(0.,1.,0.));
#401=DIRECTION('center_axis',(0.,-1.,0.));
#402=DIRECTION('ref_axis',(0.,0.,-1.));
#403=DIRECTION('center_axis',(0.,-1.,0.));
#404=DIRECTION('ref_axis',(1.,0.,0.));
#405=DIRECTION('center_axis',(0.,-1.,0.));
#406=DIRECTION('ref_axis',(1.,0.,0.));
#407=DIRECTION('center_axis',(0.,-1.,0.));
#408=DIRECTION('ref_axis',(1.,0.,0.));
#409=DIRECTION('',(0.,1.,0.));
#410=DIRECTION('center_axis',(0.,-1.,0.));
#411=DIRECTION('ref_axis',(1.,0.,0.));
#412=DIRECTION('center_axis',(0.,-1.,0.));
#413=DIRECTION('ref_axis',(1.,0.,0.));
#414=DIRECTION('',(0.939692586442586,0.342020237683156,1.15079151816941E-16));
#415=DIRECTION('center_axis',(0.,1.,0.));
#416=DIRECTION('ref_axis',(1.,0.,0.));
#417=DIRECTION('center_axis',(0.,-1.,0.));
#418=DIRECTION('ref_axis',(1.,0.,0.));
#419=DIRECTION('',(-5.8228222273143E-6,0.999999999983047,-7.13090060268452E-22));
#420=DIRECTION('center_axis',(0.,-1.,0.));
#421=DIRECTION('ref_axis',(0.,0.,-1.));
#422=CARTESIAN_POINT('',(0.,0.,0.));
#423=CARTESIAN_POINT('Origin',(-29.7495347068189,170.000006666667,0.));
#424=CARTESIAN_POINT('',(-59.4995347068189,170.000006666666,-3.64332422746338E-15));
#425=CARTESIAN_POINT('Origin',(-29.7495347068189,170.000006666667,0.));
#426=CARTESIAN_POINT('',(-59.4995347068186,119.000006666666,-3.64332422746338E-15));
#427=CARTESIAN_POINT('',(-59.4995347068189,170.000006666666,-3.64332422746338E-15));
#428=CARTESIAN_POINT('Origin',(-29.7495347068186,119.000006666667,0.));
#429=CARTESIAN_POINT('Origin',(-29.7495347068186,119.000006666667,0.));
#430=CARTESIAN_POINT('Origin',(0.,-4.08099913262266E-22,0.));
#431=CARTESIAN_POINT('',(-29.75,-4.08099915806943E-22,3.64332422746338E-15));
#432=CARTESIAN_POINT('Origin',(0.,-4.08099915806943E-22,0.));
#433=CARTESIAN_POINT('',(-29.75,49.25,3.64332422746338E-15));
#434=CARTESIAN_POINT('',(-29.75,-4.08099913262266E-22,3.64332422746338E-15));
#435=CARTESIAN_POINT('Origin',(0.,49.25,0.));
#436=CARTESIAN_POINT('Origin',(0.,49.25,0.));
#437=CARTESIAN_POINT('Origin',(-68.4995349293743,170.000006666666,0.));
#438=CARTESIAN_POINT('',(9.0004655157373,170.000006666667,4.74550637395127E-15));
#439=CARTESIAN_POINT('Origin',(-29.7495347068189,170.000006666667,0.));
#440=CARTESIAN_POINT('Origin',(-29.7495347068189,168.574997925664,0.));
#441=CARTESIAN_POINT('',(9.00046551573732,167.149989184662,4.74550637395127E-15));
#442=CARTESIAN_POINT('Origin',(-29.7495347068189,167.149989184662,0.));
#443=CARTESIAN_POINT('',(9.00046551573731,168.574997925665,4.74550637395127E-15));
#444=CARTESIAN_POINT('Origin',(-29.7495347068189,165.876092658075,0.));
#445=CARTESIAN_POINT('',(2.00046551573755,164.602196131489,3.88825361454815E-15));
#446=CARTESIAN_POINT('Origin',(-29.7495347068189,164.602196131489,0.));
#447=CARTESIAN_POINT('',(5.50046551573788,165.876092658076,4.31687999424976E-15));
#448=CARTESIAN_POINT('Origin',(-29.7495347068188,144.759809437352,0.));
#449=CARTESIAN_POINT('',(-31.2143078527999,137.000006666663,31.7161938725811));
#450=CARTESIAN_POINT('',(-61.4995349293751,124.917421464495,6.93889390390723E-17));
#451=CARTESIAN_POINT('Ctrl Pts',(-31.2143078527999,137.000006666663,31.7161938725811));
#452=CARTESIAN_POINT('Ctrl Pts',(-34.3724414574514,137.000006666663,31.5703393821558));
#453=CARTESIAN_POINT('Ctrl Pts',(-37.4886875912461,136.635918565183,30.950800929564));
#454=CARTESIAN_POINT('Ctrl Pts',(-44.2513736430033,135.277455664391,28.534030618301));
#455=CARTESIAN_POINT('Ctrl Pts',(-47.7123270600027,134.141115793001,26.4731917854767));
#456=CARTESIAN_POINT('Ctrl Pts',(-53.6571011458075,131.513254690142,21.2669930050419));
#457=CARTESIAN_POINT('Ctrl Pts',(-56.1103673509901,130.007802200067,18.124084535894));
#458=CARTESIAN_POINT('Ctrl Pts',(-59.1434078154007,127.604036865039,12.2936085317665));
#459=CARTESIAN_POINT('Ctrl Pts',(-60.0808844219778,126.652702367656,9.76389641552831));
#460=CARTESIAN_POINT('Ctrl Pts',(-60.9203272492907,125.675933315494,6.12566476044551));
#461=CARTESIAN_POINT('Ctrl Pts',(-61.1067300737078,125.440814122539,5.09049236414175));
#462=CARTESIAN_POINT('Ctrl Pts',(-61.3143711284357,125.169708480202,3.47142571216989));
#463=CARTESIAN_POINT('Ctrl Pts',(-61.3720516727335,125.092076382655,2.90034832366274));
#464=CARTESIAN_POINT('Ctrl Pts',(-61.4493446200601,124.98693485769,1.84756789294091));
#465=CARTESIAN_POINT('Ctrl Pts',(-61.4736288960457,124.95333580298,1.3694081993291));
#466=CARTESIAN_POINT('Ctrl Pts',(-61.4953850644584,124.923197521254,0.592758049840193));
#467=CARTESIAN_POINT('Ctrl Pts',(-61.4995349293751,124.917421464495,0.296528787806514));
#468=CARTESIAN_POINT('Ctrl Pts',(-61.4995349293751,124.917421464495,6.93889390390723E-17));
#469=CARTESIAN_POINT('',(2.0004655157378,137.000006666663,3.88825361454816E-15));
#470=CARTESIAN_POINT('Origin',(-29.7495347068187,137.000006666663,0.));
#471=CARTESIAN_POINT('',(2.00046551573775,144.759809437353,3.88825361454816E-15));
#472=CARTESIAN_POINT('',(-31.2143078527999,137.000006666663,-31.7161938725811));
#473=CARTESIAN_POINT('Origin',(-29.7495347068187,137.000006666663,0.));
#474=CARTESIAN_POINT('Ctrl Pts',(-61.4995349293751,124.917421464495,0.));
#475=CARTESIAN_POINT('Ctrl Pts',(-61.4995349293751,124.917421464495,-0.0474334197747462));
#476=CARTESIAN_POINT('Ctrl Pts',(-61.4994286363085,124.917569183384,-0.0948745037945552));
#477=CARTESIAN_POINT('Ctrl Pts',(-61.4975901532935,124.920123869936,-0.505001635891701));
#478=CARTESIAN_POINT('Ctrl Pts',(-61.4897624823409,124.931019492146,-0.866958110898454));
#479=CARTESIAN_POINT('Ctrl Pts',(-61.4532962280715,124.981390356301,-1.80843756863683));
#480=CARTESIAN_POINT('Ctrl Pts',(-61.415132210694,125.033945080594,-2.38421507407063));
#481=CARTESIAN_POINT('Ctrl Pts',(-61.1642227078978,125.370894746691,-5.06572718373016));
#482=CARTESIAN_POINT('Ctrl Pts',(-60.7576847313671,125.896614078452,-7.11963727232621));
#483=CARTESIAN_POINT('Ctrl Pts',(-59.1502887788573,127.607001075368,-12.5134041487154));
#484=CARTESIAN_POINT('Ctrl Pts',(-57.5464587373752,128.997829040673,-15.7625925706383));
#485=CARTESIAN_POINT('Ctrl Pts',(-52.9213803423644,131.900883990872,-22.1165719387974));
#486=CARTESIAN_POINT('Ctrl Pts',(-49.7281415130648,133.408546946817,-25.0581761512604));
#487=CARTESIAN_POINT('Ctrl Pts',(-42.8227480063648,135.616643461233,-29.1662807579095));
#488=CARTESIAN_POINT('Ctrl Pts',(-39.3050733973008,136.402935832556,-30.5128932966646));
#489=CARTESIAN_POINT('Ctrl Pts',(-34.1436453808399,136.920342448545,-31.4788912644607));
#490=CARTESIAN_POINT('Ctrl Pts',(-32.6796630303766,137.000006666663,-31.6485182579704));
#491=CARTESIAN_POINT('Ctrl Pts',(-31.2143078527998,137.000006666663,-31.7161938725811));
#492=CARTESIAN_POINT('Origin',(44.5000000246577,137.000006666663,0.));
#493=CARTESIAN_POINT('',(2.22560453501515E-7,137.000006666663,44.4999998020972));
#494=CARTESIAN_POINT('Origin',(2.22560458951193E-7,137.000006666663,0.));
#495=CARTESIAN_POINT('Origin',(2.22560458951193E-7,137.000006666663,0.));
#496=CARTESIAN_POINT('Origin',(2.22560458951193E-7,119.000006666663,0.));
#497=CARTESIAN_POINT('',(-62.4999995795368,119.000006666663,-7.65404247043486E-15));
#498=CARTESIAN_POINT('',(2.22560451297151E-7,119.000006666663,62.4999998020974));
#499=CARTESIAN_POINT('Origin',(2.22560458951193E-7,119.000006666663,0.));
#500=CARTESIAN_POINT('Origin',(2.22560458951193E-7,119.000006666663,0.));
#501=CARTESIAN_POINT('Origin',(2.22560453501515E-7,119.000006666663,44.4999998020975));
#502=CARTESIAN_POINT('Origin',(2.22560458951193E-7,84.125004483584,0.));
#503=CARTESIAN_POINT('',(-62.4999995795368,49.2500023005049,-7.65404247043486E-15));
#504=CARTESIAN_POINT('Origin',(2.22560458951193E-7,49.2500023005049,0.));
#505=CARTESIAN_POINT('',(-62.4999995795368,84.125004483584,-7.65404247043486E-15));
#506=CARTESIAN_POINT('Origin',(78.7500002225599,49.2500023005044,0.));
#507=CARTESIAN_POINT('',(-78.7499997774383,49.2500023005044,-9.64409354328525E-15));
#508=CARTESIAN_POINT('Origin',(2.22560458951193E-7,49.2500023005044,0.));
#509=CARTESIAN_POINT('Origin',(2.22560458951193E-7,40.0000022860242,0.));
#510=CARTESIAN_POINT('',(-78.7499997774383,30.750002271544,-9.64409354328525E-15));
#511=CARTESIAN_POINT('Origin',(2.22560458951193E-7,30.750002271544,0.));
#512=CARTESIAN_POINT('',(-78.7499997774383,40.0000022860242,-9.64409354328525E-15));
#513=CARTESIAN_POINT('Origin',(31.7500011945697,30.7500023952853,0.));
#514=CARTESIAN_POINT('',(-31.7500071736974,30.7500023952851,-3.8882544930732E-15));
#515=CARTESIAN_POINT('Origin',(2.22560458951193E-7,30.7500023952851,0.));
#516=CARTESIAN_POINT('Origin',(2.22560458951193E-7,18.0739002717611,0.));
#517=CARTESIAN_POINT('',(-31.7500071736974,5.39779814823707,-3.8882544930732E-15));
#518=CARTESIAN_POINT('Origin',(2.22560458951193E-7,5.39779814823707,0.));
#519=CARTESIAN_POINT('',(-31.7500071736974,18.0739002717611,-3.8882544930732E-15));
#520=CARTESIAN_POINT('Origin',(2.22560458951193E-7,4.12390146587422,0.));
#521=CARTESIAN_POINT('',(-38.7500161499537,2.85000478351137,-4.7455083517507E-15));
#522=CARTESIAN_POINT('Origin',(2.22560458951193E-7,2.85000478351137,0.));
#523=CARTESIAN_POINT('',(-35.2500148739499,4.12390146587422,-4.31688181578373E-15));
#524=CARTESIAN_POINT('Origin',(2.22560458951193E-7,1.42500239175565,0.));
#525=CARTESIAN_POINT('',(-38.7499995548825,-7.07767178198537E-14,-4.74550631944062E-15));
#526=CARTESIAN_POINT('Origin',(2.22560458951193E-7,-7.105427357601E-14,
0.));
#527=CARTESIAN_POINT('',(-38.7500078524181,1.42500239175565,-4.74550733559566E-15));
#528=CARTESIAN_POINT('Origin',(2.22560458951193E-7,-4.08099915806943E-22,
0.));
#529=UNCERTAINTY_MEASURE_WITH_UNIT(LENGTH_MEASURE(0.01),#533,
'DISTANCE_ACCURACY_VALUE',
'Maximum model space distance between geometric entities at asserted c
onnectivities');
#530=UNCERTAINTY_MEASURE_WITH_UNIT(LENGTH_MEASURE(0.01),#533,
'DISTANCE_ACCURACY_VALUE',
'Maximum model space distance between geometric entities at asserted c
onnectivities');
#531=(
GEOMETRIC_REPRESENTATION_CONTEXT(3)
GLOBAL_UNCERTAINTY_ASSIGNED_CONTEXT((#529))
GLOBAL_UNIT_ASSIGNED_CONTEXT((#533,#535,#536))
REPRESENTATION_CONTEXT('','3D')
);
#532=(
GEOMETRIC_REPRESENTATION_CONTEXT(3)
GLOBAL_UNCERTAINTY_ASSIGNED_CONTEXT((#530))
GLOBAL_UNIT_ASSIGNED_CONTEXT((#533,#535,#536))
REPRESENTATION_CONTEXT('','3D')
);
#533=(
LENGTH_UNIT()
NAMED_UNIT(*)
SI_UNIT(.MILLI.,.METRE.)
);
#534=(
LENGTH_UNIT()
NAMED_UNIT(*)
SI_UNIT(.CENTI.,.METRE.)
);
#535=(
NAMED_UNIT(*)
PLANE_ANGLE_UNIT()
SI_UNIT($,.RADIAN.)
);
#536=(
NAMED_UNIT(*)
SI_UNIT($,.STERADIAN.)
SOLID_ANGLE_UNIT()
);
#537=SHAPE_DEFINITION_REPRESENTATION(#538,#539);
#538=PRODUCT_DEFINITION_SHAPE('',$,#541);
#539=SHAPE_REPRESENTATION('',(#292),#531);
#540=PRODUCT_DEFINITION_CONTEXT('part definition',#545,'design');
#541=PRODUCT_DEFINITION('Part12','Part12',#542,#540);
#542=PRODUCT_DEFINITION_FORMATION('',$,#547);
#543=PRODUCT_RELATED_PRODUCT_CATEGORY('Part12','Part12',(#547));
#544=APPLICATION_PROTOCOL_DEFINITION('international standard',
'automotive_design',2009,#545);
#545=APPLICATION_CONTEXT(
'Core Data for Automotive Mechanical Design Process');
#546=PRODUCT_CONTEXT('part definition',#545,'mechanical');
#547=PRODUCT('Part12','Part12',$,(#546));
#548=PRESENTATION_STYLE_ASSIGNMENT((#550));
#549=PRESENTATION_STYLE_ASSIGNMENT((#551));
#550=SURFACE_STYLE_USAGE(.BOTH.,#556);
#551=SURFACE_STYLE_USAGE(.BOTH.,#557);
#552=SURFACE_STYLE_RENDERING_WITH_PROPERTIES($,#564,(#554));
#553=SURFACE_STYLE_RENDERING_WITH_PROPERTIES($,#565,(#555));
#554=SURFACE_STYLE_TRANSPARENT(0.);
#555=SURFACE_STYLE_TRANSPARENT(0.);
#556=SURFACE_SIDE_STYLE('',(#558,#552));
#557=SURFACE_SIDE_STYLE('',(#559,#553));
#558=SURFACE_STYLE_FILL_AREA(#560);
#559=SURFACE_STYLE_FILL_AREA(#561);
#560=FILL_AREA_STYLE('',(#562));
#561=FILL_AREA_STYLE('',(#563));
#562=FILL_AREA_STYLE_COLOUR('',#564);
#563=FILL_AREA_STYLE_COLOUR('',#565);
#564=COLOUR_RGB('',0.749019607843137,0.749019607843137,0.749019607843137);
#565=COLOUR_RGB('',0.749019607843137,0.749019607843137,0.749019607843137);
ENDSEC;
END-ISO-10303-21;
