ISO-10303-21;
HEADER;
/* Generated by software containing ST-Developer
 * from STEP Tools, Inc. (www.steptools.com) 
 */

FILE_DESCRIPTION(
/* description */ (''),
/* implementation_level */ '2;1');

FILE_NAME(
/* name */ 'CVSE-20-1.stp',
/* time_stamp */ '2024-04-02T15:54:22+09:00',
/* author */ ('autocad33'),
/* organization */ (''),
/* preprocessor_version */ 'ST-DEVELOPER v19.2',
/* originating_system */ 'Autodesk Inventor 2023',
/* authorisation */ '');

FILE_SCHEMA (('AUTOMOTIVE_DESIGN { 1 0 10303 214 3 1 1 }'));
ENDSEC;

DATA;
#10=MECHANICAL_DESIGN_GEOMETRIC_PRESENTATION_REPRESENTATION('',(#239,#240,
#241,#242,#243,#244,#245,#246,#247,#248,#249,#250,#251,#252,#253,#254,#255,
#256,#257),#528);
#11=SHAPE_REPRESENTATION_RELATIONSHIP('SRR','None',#535,#12);
#12=ADVANCED_BREP_SHAPE_REPRESENTATION('',(#13),#527);
#13=MANIFOLD_SOLID_BREP('\X2\30BD30EA30C330C9\X0\1',#276);
#14=TOROIDAL_SURFACE('',#313,34.9999967020176,18.);
#15=B_SPLINE_CURVE_WITH_KNOTS('',3,(#451,#452,#453,#454,#455,#456,#457,
#458,#459,#460,#461,#462,#463,#464,#465,#466),.UNSPECIFIED.,.F.,.F.,(4,
2,2,2,2,2,2,4),(-11.4766633287604,-11.1199637930915,-10.1700322347376,-9.10987620790958,
-8.11107433683611,-7.36389504100677,-7.02750624421136,-6.86677322380267),
 .UNSPECIFIED.);
#16=B_SPLINE_CURVE_WITH_KNOTS('',3,(#472,#473,#474,#475,#476,#477,#478,
#479,#480,#481,#482,#483,#484,#485,#486,#487),.UNSPECIFIED.,.F.,.F.,(4,
2,2,2,2,2,2,4),(-6.86677322380267,-6.78084226958741,-6.49047983888107,-5.88655889873634,
-4.81639054679408,-3.73115758934731,-2.81745814716455,-2.35417401076007),
 .UNSPECIFIED.);
#17=CONICAL_SURFACE('',#305,28.7000039999995,1.22173025267224);
#18=CONICAL_SURFACE('',#327,28.6999977830935,1.22172846396592);
#19=CONICAL_SURFACE('',#329,31.9999977830938,4.36275017272563E-6);
#20=FACE_BOUND('',#54,.T.);
#21=FACE_BOUND('',#62,.T.);
#22=FACE_BOUND('',#65,.T.);
#23=FACE_BOUND('',#70,.T.);
#24=PLANE('',#296);
#25=PLANE('',#300);
#26=PLANE('',#301);
#27=PLANE('',#310);
#28=PLANE('',#319);
#29=PLANE('',#323);
#30=PLANE('',#331);
#31=FACE_OUTER_BOUND('',#49,.T.);
#32=FACE_OUTER_BOUND('',#50,.T.);
#33=FACE_OUTER_BOUND('',#51,.T.);
#34=FACE_OUTER_BOUND('',#52,.T.);
#35=FACE_OUTER_BOUND('',#53,.T.);
#36=FACE_OUTER_BOUND('',#55,.T.);
#37=FACE_OUTER_BOUND('',#56,.T.);
#38=FACE_OUTER_BOUND('',#57,.T.);
#39=FACE_OUTER_BOUND('',#58,.T.);
#40=FACE_OUTER_BOUND('',#59,.T.);
#41=FACE_OUTER_BOUND('',#60,.T.);
#42=FACE_OUTER_BOUND('',#61,.T.);
#43=FACE_OUTER_BOUND('',#63,.T.);
#44=FACE_OUTER_BOUND('',#64,.T.);
#45=FACE_OUTER_BOUND('',#66,.T.);
#46=FACE_OUTER_BOUND('',#67,.T.);
#47=FACE_OUTER_BOUND('',#68,.T.);
#48=FACE_OUTER_BOUND('',#69,.T.);
#49=EDGE_LOOP('',(#166,#167,#168,#169));
#50=EDGE_LOOP('',(#170));
#51=EDGE_LOOP('',(#171,#172,#173,#174));
#52=EDGE_LOOP('',(#175));
#53=EDGE_LOOP('',(#176));
#54=EDGE_LOOP('',(#177));
#55=EDGE_LOOP('',(#178,#179,#180,#181));
#56=EDGE_LOOP('',(#182,#183,#184,#185));
#57=EDGE_LOOP('',(#186,#187,#188,#189,#190,#191,#192));
#58=EDGE_LOOP('',(#193,#194,#195,#196));
#59=EDGE_LOOP('',(#197,#198,#199,#200,#201,#202,#203,#204));
#60=EDGE_LOOP('',(#205,#206,#207,#208,#209));
#61=EDGE_LOOP('',(#210));
#62=EDGE_LOOP('',(#211));
#63=EDGE_LOOP('',(#212,#213,#214,#215));
#64=EDGE_LOOP('',(#216));
#65=EDGE_LOOP('',(#217));
#66=EDGE_LOOP('',(#218,#219,#220,#221));
#67=EDGE_LOOP('',(#222,#223,#224,#225));
#68=EDGE_LOOP('',(#226,#227,#228,#229));
#69=EDGE_LOOP('',(#230));
#70=EDGE_LOOP('',(#231));
#71=LINE('',#427,#81);
#72=LINE('',#434,#82);
#73=LINE('',#443,#83);
#74=LINE('',#447,#84);
#75=LINE('',#469,#85);
#76=LINE('',#501,#86);
#77=LINE('',#508,#87);
#78=LINE('',#515,#88);
#79=LINE('',#519,#89);
#80=LINE('',#523,#90);
#81=VECTOR('',#338,23.9);
#82=VECTOR('',#347,23.9);
#83=VECTOR('',#360,32.0000039999994);
#84=VECTOR('',#365,28.7000039999995);
#85=VECTOR('',#370,25.4000040000008);
#86=VECTOR('',#391,52.9999986546505);
#87=VECTOR('',#400,67.5000000000003);
#88=VECTOR('',#409,25.400003999999);
#89=VECTOR('',#414,28.6999977830935);
#90=VECTOR('',#419,31.9999977830938);
#91=CIRCLE('',#294,23.9);
#92=CIRCLE('',#295,23.9);
#93=CIRCLE('',#298,23.9);
#94=CIRCLE('',#299,23.9);
#95=CIRCLE('',#302,32.0000039999993);
#96=CIRCLE('',#304,32.0000039999995);
#97=CIRCLE('',#306,25.4000039999996);
#98=CIRCLE('',#308,25.4000040000008);
#99=CIRCLE('',#309,25.4000040000008);
#100=CIRCLE('',#311,34.9999967020167);
#101=CIRCLE('',#312,34.9999967020167);
#102=CIRCLE('',#314,52.9999967020176);
#103=CIRCLE('',#315,52.9999967020176);
#104=CIRCLE('',#316,18.);
#105=CIRCLE('',#318,53.0000006072848);
#106=CIRCLE('',#320,67.5000000000003);
#107=CIRCLE('',#322,67.5000000000003);
#108=CIRCLE('',#324,25.4000039999991);
#109=CIRCLE('',#326,25.4000039999988);
#110=CIRCLE('',#328,31.9999915661882);
#111=CIRCLE('',#330,32.0000039999994);
#112=VERTEX_POINT('',#424);
#113=VERTEX_POINT('',#426);
#114=VERTEX_POINT('',#431);
#115=VERTEX_POINT('',#433);
#116=VERTEX_POINT('',#438);
#117=VERTEX_POINT('',#441);
#118=VERTEX_POINT('',#445);
#119=VERTEX_POINT('',#449);
#120=VERTEX_POINT('',#450);
#121=VERTEX_POINT('',#467);
#122=VERTEX_POINT('',#470);
#123=VERTEX_POINT('',#489);
#124=VERTEX_POINT('',#493);
#125=VERTEX_POINT('',#494);
#126=VERTEX_POINT('',#499);
#127=VERTEX_POINT('',#503);
#128=VERTEX_POINT('',#506);
#129=VERTEX_POINT('',#510);
#130=VERTEX_POINT('',#513);
#131=VERTEX_POINT('',#517);
#132=VERTEX_POINT('',#521);
#133=EDGE_CURVE('',#112,#112,#91,.T.);
#134=EDGE_CURVE('',#112,#113,#71,.T.);
#135=EDGE_CURVE('',#113,#113,#92,.T.);
#136=EDGE_CURVE('',#114,#114,#93,.T.);
#137=EDGE_CURVE('',#114,#115,#72,.T.);
#138=EDGE_CURVE('',#115,#115,#94,.T.);
#139=EDGE_CURVE('',#116,#116,#95,.T.);
#140=EDGE_CURVE('',#117,#117,#96,.T.);
#141=EDGE_CURVE('',#117,#116,#73,.T.);
#142=EDGE_CURVE('',#118,#118,#97,.T.);
#143=EDGE_CURVE('',#118,#117,#74,.T.);
#144=EDGE_CURVE('',#119,#120,#15,.T.);
#145=EDGE_CURVE('',#121,#119,#98,.T.);
#146=EDGE_CURVE('',#121,#118,#75,.T.);
#147=EDGE_CURVE('',#122,#121,#99,.T.);
#148=EDGE_CURVE('',#120,#122,#16,.T.);
#149=EDGE_CURVE('',#123,#119,#100,.T.);
#150=EDGE_CURVE('',#122,#123,#101,.T.);
#151=EDGE_CURVE('',#124,#125,#102,.T.);
#152=EDGE_CURVE('',#125,#124,#103,.T.);
#153=EDGE_CURVE('',#125,#123,#104,.T.);
#154=EDGE_CURVE('',#126,#126,#105,.T.);
#155=EDGE_CURVE('',#126,#124,#76,.T.);
#156=EDGE_CURVE('',#127,#127,#106,.T.);
#157=EDGE_CURVE('',#128,#128,#107,.T.);
#158=EDGE_CURVE('',#128,#127,#77,.T.);
#159=EDGE_CURVE('',#129,#129,#108,.T.);
#160=EDGE_CURVE('',#130,#130,#109,.T.);
#161=EDGE_CURVE('',#130,#129,#78,.T.);
#162=EDGE_CURVE('',#131,#131,#110,.T.);
#163=EDGE_CURVE('',#131,#130,#79,.T.);
#164=EDGE_CURVE('',#132,#132,#111,.T.);
#165=EDGE_CURVE('',#132,#131,#80,.T.);
#166=ORIENTED_EDGE('',*,*,#133,.F.);
#167=ORIENTED_EDGE('',*,*,#134,.T.);
#168=ORIENTED_EDGE('',*,*,#135,.T.);
#169=ORIENTED_EDGE('',*,*,#134,.F.);
#170=ORIENTED_EDGE('',*,*,#135,.F.);
#171=ORIENTED_EDGE('',*,*,#136,.F.);
#172=ORIENTED_EDGE('',*,*,#137,.T.);
#173=ORIENTED_EDGE('',*,*,#138,.T.);
#174=ORIENTED_EDGE('',*,*,#137,.F.);
#175=ORIENTED_EDGE('',*,*,#138,.F.);
#176=ORIENTED_EDGE('',*,*,#139,.F.);
#177=ORIENTED_EDGE('',*,*,#136,.T.);
#178=ORIENTED_EDGE('',*,*,#140,.F.);
#179=ORIENTED_EDGE('',*,*,#141,.T.);
#180=ORIENTED_EDGE('',*,*,#139,.T.);
#181=ORIENTED_EDGE('',*,*,#141,.F.);
#182=ORIENTED_EDGE('',*,*,#142,.F.);
#183=ORIENTED_EDGE('',*,*,#143,.T.);
#184=ORIENTED_EDGE('',*,*,#140,.T.);
#185=ORIENTED_EDGE('',*,*,#143,.F.);
#186=ORIENTED_EDGE('',*,*,#144,.F.);
#187=ORIENTED_EDGE('',*,*,#145,.F.);
#188=ORIENTED_EDGE('',*,*,#146,.T.);
#189=ORIENTED_EDGE('',*,*,#142,.T.);
#190=ORIENTED_EDGE('',*,*,#146,.F.);
#191=ORIENTED_EDGE('',*,*,#147,.F.);
#192=ORIENTED_EDGE('',*,*,#148,.F.);
#193=ORIENTED_EDGE('',*,*,#147,.T.);
#194=ORIENTED_EDGE('',*,*,#145,.T.);
#195=ORIENTED_EDGE('',*,*,#149,.F.);
#196=ORIENTED_EDGE('',*,*,#150,.F.);
#197=ORIENTED_EDGE('',*,*,#151,.F.);
#198=ORIENTED_EDGE('',*,*,#152,.F.);
#199=ORIENTED_EDGE('',*,*,#153,.T.);
#200=ORIENTED_EDGE('',*,*,#149,.T.);
#201=ORIENTED_EDGE('',*,*,#144,.T.);
#202=ORIENTED_EDGE('',*,*,#148,.T.);
#203=ORIENTED_EDGE('',*,*,#150,.T.);
#204=ORIENTED_EDGE('',*,*,#153,.F.);
#205=ORIENTED_EDGE('',*,*,#154,.F.);
#206=ORIENTED_EDGE('',*,*,#155,.T.);
#207=ORIENTED_EDGE('',*,*,#151,.T.);
#208=ORIENTED_EDGE('',*,*,#152,.T.);
#209=ORIENTED_EDGE('',*,*,#155,.F.);
#210=ORIENTED_EDGE('',*,*,#156,.F.);
#211=ORIENTED_EDGE('',*,*,#154,.T.);
#212=ORIENTED_EDGE('',*,*,#157,.F.);
#213=ORIENTED_EDGE('',*,*,#158,.T.);
#214=ORIENTED_EDGE('',*,*,#156,.T.);
#215=ORIENTED_EDGE('',*,*,#158,.F.);
#216=ORIENTED_EDGE('',*,*,#157,.T.);
#217=ORIENTED_EDGE('',*,*,#159,.F.);
#218=ORIENTED_EDGE('',*,*,#160,.F.);
#219=ORIENTED_EDGE('',*,*,#161,.T.);
#220=ORIENTED_EDGE('',*,*,#159,.T.);
#221=ORIENTED_EDGE('',*,*,#161,.F.);
#222=ORIENTED_EDGE('',*,*,#162,.F.);
#223=ORIENTED_EDGE('',*,*,#163,.T.);
#224=ORIENTED_EDGE('',*,*,#160,.T.);
#225=ORIENTED_EDGE('',*,*,#163,.F.);
#226=ORIENTED_EDGE('',*,*,#164,.F.);
#227=ORIENTED_EDGE('',*,*,#165,.T.);
#228=ORIENTED_EDGE('',*,*,#162,.T.);
#229=ORIENTED_EDGE('',*,*,#165,.F.);
#230=ORIENTED_EDGE('',*,*,#164,.T.);
#231=ORIENTED_EDGE('',*,*,#133,.T.);
#232=CYLINDRICAL_SURFACE('',#293,23.9);
#233=CYLINDRICAL_SURFACE('',#297,23.9);
#234=CYLINDRICAL_SURFACE('',#303,32.0000039999994);
#235=CYLINDRICAL_SURFACE('',#307,25.4000040000008);
#236=CYLINDRICAL_SURFACE('',#317,52.9999986546505);
#237=CYLINDRICAL_SURFACE('',#321,67.5000000000003);
#238=CYLINDRICAL_SURFACE('',#325,25.400003999999);
#239=STYLED_ITEM('',(#545),#258);
#240=STYLED_ITEM('',(#545),#259);
#241=STYLED_ITEM('',(#545),#260);
#242=STYLED_ITEM('',(#545),#261);
#243=STYLED_ITEM('',(#545),#262);
#244=STYLED_ITEM('',(#545),#263);
#245=STYLED_ITEM('',(#545),#264);
#246=STYLED_ITEM('',(#545),#265);
#247=STYLED_ITEM('',(#545),#266);
#248=STYLED_ITEM('',(#545),#267);
#249=STYLED_ITEM('',(#545),#268);
#250=STYLED_ITEM('',(#545),#269);
#251=STYLED_ITEM('',(#545),#270);
#252=STYLED_ITEM('',(#545),#271);
#253=STYLED_ITEM('',(#545),#272);
#254=STYLED_ITEM('',(#545),#273);
#255=STYLED_ITEM('',(#545),#274);
#256=STYLED_ITEM('',(#545),#275);
#257=STYLED_ITEM('',(#544),#13);
#258=ADVANCED_FACE('',(#31),#232,.F.);
#259=ADVANCED_FACE('',(#32),#24,.T.);
#260=ADVANCED_FACE('',(#33),#233,.F.);
#261=ADVANCED_FACE('',(#34),#25,.T.);
#262=ADVANCED_FACE('',(#35,#20),#26,.T.);
#263=ADVANCED_FACE('',(#36),#234,.T.);
#264=ADVANCED_FACE('',(#37),#17,.T.);
#265=ADVANCED_FACE('',(#38),#235,.T.);
#266=ADVANCED_FACE('',(#39),#27,.T.);
#267=ADVANCED_FACE('',(#40),#14,.T.);
#268=ADVANCED_FACE('',(#41),#236,.T.);
#269=ADVANCED_FACE('',(#42,#21),#28,.T.);
#270=ADVANCED_FACE('',(#43),#237,.T.);
#271=ADVANCED_FACE('',(#44,#22),#29,.T.);
#272=ADVANCED_FACE('',(#45),#238,.T.);
#273=ADVANCED_FACE('',(#46),#18,.T.);
#274=ADVANCED_FACE('',(#47),#19,.T.);
#275=ADVANCED_FACE('',(#48,#23),#30,.T.);
#276=CLOSED_SHELL('',(#258,#259,#260,#261,#262,#263,#264,#265,#266,#267,
#268,#269,#270,#271,#272,#273,#274,#275));
#277=DERIVED_UNIT_ELEMENT(#280,1.);
#278=DERIVED_UNIT_ELEMENT(#530,-3.);
#279=DIMENSIONAL_EXPONENTS(0.,1.,0.,0.,0.,0.,0.);
#280=(
CONVERSION_BASED_UNIT('gram',#282)
MASS_UNIT()
NAMED_UNIT(#279)
);
#281=(
MASS_UNIT()
NAMED_UNIT(*)
SI_UNIT(.KILO.,.GRAM.)
);
#282=MASS_MEASURE_WITH_UNIT(MASS_MEASURE(0.001),#281);
#283=DERIVED_UNIT((#277,#278));
#284=MEASURE_REPRESENTATION_ITEM('density measure',
POSITIVE_RATIO_MEASURE(1.),#283);
#285=PROPERTY_DEFINITION_REPRESENTATION(#290,#287);
#286=PROPERTY_DEFINITION_REPRESENTATION(#291,#288);
#287=REPRESENTATION('material name',(#289),#527);
#288=REPRESENTATION('density',(#284),#527);
#289=DESCRIPTIVE_REPRESENTATION_ITEM('\X2\4E00822C\X0\','\X2\4E00822C\X0\');
#290=PROPERTY_DEFINITION('material property','material name',#537);
#291=PROPERTY_DEFINITION('material property','density of part',#537);
#292=AXIS2_PLACEMENT_3D('',#422,#332,#333);
#293=AXIS2_PLACEMENT_3D('',#423,#334,#335);
#294=AXIS2_PLACEMENT_3D('',#425,#336,#337);
#295=AXIS2_PLACEMENT_3D('',#428,#339,#340);
#296=AXIS2_PLACEMENT_3D('',#429,#341,#342);
#297=AXIS2_PLACEMENT_3D('',#430,#343,#344);
#298=AXIS2_PLACEMENT_3D('',#432,#345,#346);
#299=AXIS2_PLACEMENT_3D('',#435,#348,#349);
#300=AXIS2_PLACEMENT_3D('',#436,#350,#351);
#301=AXIS2_PLACEMENT_3D('',#437,#352,#353);
#302=AXIS2_PLACEMENT_3D('',#439,#354,#355);
#303=AXIS2_PLACEMENT_3D('',#440,#356,#357);
#304=AXIS2_PLACEMENT_3D('',#442,#358,#359);
#305=AXIS2_PLACEMENT_3D('',#444,#361,#362);
#306=AXIS2_PLACEMENT_3D('',#446,#363,#364);
#307=AXIS2_PLACEMENT_3D('',#448,#366,#367);
#308=AXIS2_PLACEMENT_3D('',#468,#368,#369);
#309=AXIS2_PLACEMENT_3D('',#471,#371,#372);
#310=AXIS2_PLACEMENT_3D('',#488,#373,#374);
#311=AXIS2_PLACEMENT_3D('',#490,#375,#376);
#312=AXIS2_PLACEMENT_3D('',#491,#377,#378);
#313=AXIS2_PLACEMENT_3D('',#492,#379,#380);
#314=AXIS2_PLACEMENT_3D('',#495,#381,#382);
#315=AXIS2_PLACEMENT_3D('',#496,#383,#384);
#316=AXIS2_PLACEMENT_3D('',#497,#385,#386);
#317=AXIS2_PLACEMENT_3D('',#498,#387,#388);
#318=AXIS2_PLACEMENT_3D('',#500,#389,#390);
#319=AXIS2_PLACEMENT_3D('',#502,#392,#393);
#320=AXIS2_PLACEMENT_3D('',#504,#394,#395);
#321=AXIS2_PLACEMENT_3D('',#505,#396,#397);
#322=AXIS2_PLACEMENT_3D('',#507,#398,#399);
#323=AXIS2_PLACEMENT_3D('',#509,#401,#402);
#324=AXIS2_PLACEMENT_3D('',#511,#403,#404);
#325=AXIS2_PLACEMENT_3D('',#512,#405,#406);
#326=AXIS2_PLACEMENT_3D('',#514,#407,#408);
#327=AXIS2_PLACEMENT_3D('',#516,#410,#411);
#328=AXIS2_PLACEMENT_3D('',#518,#412,#413);
#329=AXIS2_PLACEMENT_3D('',#520,#415,#416);
#330=AXIS2_PLACEMENT_3D('',#522,#417,#418);
#331=AXIS2_PLACEMENT_3D('',#524,#420,#421);
#332=DIRECTION('axis',(0.,0.,1.));
#333=DIRECTION('refdir',(1.,0.,0.));
#334=DIRECTION('center_axis',(0.,1.,0.));
#335=DIRECTION('ref_axis',(1.,0.,0.));
#336=DIRECTION('center_axis',(0.,1.,0.));
#337=DIRECTION('ref_axis',(1.,0.,0.));
#338=DIRECTION('',(0.,1.,0.));
#339=DIRECTION('center_axis',(0.,1.,0.));
#340=DIRECTION('ref_axis',(1.,0.,0.));
#341=DIRECTION('center_axis',(0.,-1.,0.));
#342=DIRECTION('ref_axis',(0.,0.,-1.));
#343=DIRECTION('center_axis',(4.80394778873724E-14,-1.,0.));
#344=DIRECTION('ref_axis',(1.,4.80394778873724E-14,0.));
#345=DIRECTION('center_axis',(4.8036691995054E-14,-1.,0.));
#346=DIRECTION('ref_axis',(1.,4.80394778873724E-14,0.));
#347=DIRECTION('',(4.80394778873724E-14,-1.,0.));
#348=DIRECTION('center_axis',(4.8036691995054E-14,-1.,0.));
#349=DIRECTION('ref_axis',(1.,4.8036691995054E-14,0.));
#350=DIRECTION('center_axis',(-4.8036691995054E-14,1.,0.));
#351=DIRECTION('ref_axis',(0.,0.,1.));
#352=DIRECTION('center_axis',(-4.8036691995054E-14,1.,0.));
#353=DIRECTION('ref_axis',(0.,0.,1.));
#354=DIRECTION('center_axis',(4.8036691995054E-14,-1.,0.));
#355=DIRECTION('ref_axis',(1.,4.8036691995054E-14,0.));
#356=DIRECTION('center_axis',(4.8036691995054E-14,-1.,0.));
#357=DIRECTION('ref_axis',(-1.,-4.8030904721978E-14,0.));
#358=DIRECTION('center_axis',(4.8036691995054E-14,-1.,0.));
#359=DIRECTION('ref_axis',(1.,4.8036691995054E-14,0.));
#360=DIRECTION('',(-4.8036691995054E-14,1.,0.));
#361=DIRECTION('center_axis',(-4.8036691995054E-14,1.,0.));
#362=DIRECTION('ref_axis',(-1.,-4.8030904721978E-14,0.));
#363=DIRECTION('center_axis',(4.8036691995054E-14,-1.,0.));
#364=DIRECTION('ref_axis',(1.,4.8036691995054E-14,0.));
#365=DIRECTION('',(0.939692544267827,0.342020353557297,1.15079146652025E-16));
#366=DIRECTION('center_axis',(4.8036691995054E-14,-1.,0.));
#367=DIRECTION('ref_axis',(-1.,-4.80309047219781E-14,0.));
#368=DIRECTION('center_axis',(0.,-1.,0.));
#369=DIRECTION('ref_axis',(-1.,-4.80309047219781E-14,0.));
#370=DIRECTION('',(-4.8036691995054E-14,1.,0.));
#371=DIRECTION('center_axis',(0.,-1.,0.));
#372=DIRECTION('ref_axis',(-1.,-4.80309047219781E-14,0.));
#373=DIRECTION('center_axis',(0.,1.,0.));
#374=DIRECTION('ref_axis',(0.,0.,1.));
#375=DIRECTION('center_axis',(0.,-1.,0.));
#376=DIRECTION('ref_axis',(1.,0.,0.));
#377=DIRECTION('center_axis',(0.,-1.,0.));
#378=DIRECTION('ref_axis',(1.,0.,0.));
#379=DIRECTION('center_axis',(0.,-1.,0.));
#380=DIRECTION('ref_axis',(0.,0.,-1.));
#381=DIRECTION('center_axis',(0.,-1.,0.));
#382=DIRECTION('ref_axis',(1.,0.,0.));
#383=DIRECTION('center_axis',(0.,-1.,0.));
#384=DIRECTION('ref_axis',(1.,0.,0.));
#385=DIRECTION('center_axis',(-1.,0.,-1.22464679914735E-16));
#386=DIRECTION('ref_axis',(-1.22464679914735E-16,0.,1.));
#387=DIRECTION('center_axis',(0.,-1.,0.));
#388=DIRECTION('ref_axis',(1.,0.,0.));
#389=DIRECTION('center_axis',(0.,-1.,0.));
#390=DIRECTION('ref_axis',(1.,0.,0.));
#391=DIRECTION('',(0.,1.,0.));
#392=DIRECTION('center_axis',(0.,1.,0.));
#393=DIRECTION('ref_axis',(0.,0.,1.));
#394=DIRECTION('center_axis',(0.,-1.,0.));
#395=DIRECTION('ref_axis',(1.,0.,0.));
#396=DIRECTION('center_axis',(0.,-1.,0.));
#397=DIRECTION('ref_axis',(1.,0.,0.));
#398=DIRECTION('center_axis',(0.,-1.,0.));
#399=DIRECTION('ref_axis',(1.,0.,0.));
#400=DIRECTION('',(0.,1.,0.));
#401=DIRECTION('center_axis',(0.,-1.,0.));
#402=DIRECTION('ref_axis',(0.,0.,-1.));
#403=DIRECTION('center_axis',(0.,-1.,0.));
#404=DIRECTION('ref_axis',(1.,0.,0.));
#405=DIRECTION('center_axis',(0.,-1.,0.));
#406=DIRECTION('ref_axis',(1.,0.,0.));
#407=DIRECTION('center_axis',(0.,-1.,0.));
#408=DIRECTION('ref_axis',(1.,0.,0.));
#409=DIRECTION('',(0.,1.,0.));
#410=DIRECTION('center_axis',(0.,-1.,0.));
#411=DIRECTION('ref_axis',(1.,0.,0.));
#412=DIRECTION('center_axis',(0.,-1.,0.));
#413=DIRECTION('ref_axis',(1.,0.,0.));
#414=DIRECTION('',(0.939691932492369,0.342022034390706,1.15079071731137E-16));
#415=DIRECTION('center_axis',(0.,-1.,0.));
#416=DIRECTION('ref_axis',(1.,0.,0.));
#417=DIRECTION('center_axis',(0.,-1.,0.));
#418=DIRECTION('ref_axis',(1.,0.,0.));
#419=DIRECTION('',(4.36275017271179E-6,0.999999999990483,5.34282803449106E-22));
#420=DIRECTION('center_axis',(0.,-1.,0.));
#421=DIRECTION('ref_axis',(0.,0.,-1.));
#422=CARTESIAN_POINT('',(0.,0.,0.));
#423=CARTESIAN_POINT('Origin',(0.,0.,0.));
#424=CARTESIAN_POINT('',(-23.9,0.,2.92690584996217E-15));
#425=CARTESIAN_POINT('Origin',(0.,0.,0.));
#426=CARTESIAN_POINT('',(-23.9,43.75,2.92690584996217E-15));
#427=CARTESIAN_POINT('',(-23.9,0.,2.92690584996217E-15));
#428=CARTESIAN_POINT('Origin',(0.,43.75,0.));
#429=CARTESIAN_POINT('Origin',(0.,43.75,0.));
#430=CARTESIAN_POINT('Origin',(-26.0999963663784,139.999999999997,0.));
#431=CARTESIAN_POINT('',(-49.9999963663784,139.999999999996,-2.92690584996217E-15));
#432=CARTESIAN_POINT('Origin',(-26.0999963663784,139.999999999997,0.));
#433=CARTESIAN_POINT('',(-49.9999963663763,96.4999999999958,-2.92690584996217E-15));
#434=CARTESIAN_POINT('',(-49.9999963663784,139.999999999996,-2.92690584996217E-15));
#435=CARTESIAN_POINT('Origin',(-26.0999963663763,96.4999999999969,0.));
#436=CARTESIAN_POINT('Origin',(-26.0999963663763,96.4999999999969,0.));
#437=CARTESIAN_POINT('Origin',(-58.1000003663777,139.999999999995,0.));
#438=CARTESIAN_POINT('',(5.90000763362096,139.999999999998,3.91887024713017E-15));
#439=CARTESIAN_POINT('Origin',(-26.0999963663784,139.999999999997,0.));
#440=CARTESIAN_POINT('Origin',(-26.0999963663784,138.574999980671,0.));
#441=CARTESIAN_POINT('',(5.9000076336211,137.149999961346,3.91887024713017E-15));
#442=CARTESIAN_POINT('Origin',(-26.0999963663783,137.149999961344,0.));
#443=CARTESIAN_POINT('',(5.90000763362103,138.574999980672,3.91887024713017E-15));
#444=CARTESIAN_POINT('Origin',(-26.0999963663782,135.948897352173,0.));
#445=CARTESIAN_POINT('',(-0.699992366378565,134.747794743003,3.11060335969295E-15));
#446=CARTESIAN_POINT('Origin',(-26.0999963663782,134.747794743002,0.));
#447=CARTESIAN_POINT('',(2.60000763362131,135.948897352174,3.51473680341157E-15));
#448=CARTESIAN_POINT('Origin',(-26.0999963663774,119.220766811649,0.));
#449=CARTESIAN_POINT('',(-24.1580373913488,114.499999999998,25.3256588964505));
#450=CARTESIAN_POINT('',(-51.5000003663786,103.693738880294,0.));
#451=CARTESIAN_POINT('Ctrl Pts',(-24.1580373913488,114.499999999998,25.3256588964505));
#452=CARTESIAN_POINT('Ctrl Pts',(-25.3130867409595,114.499999999998,25.4142275082386));
#453=CARTESIAN_POINT('Ctrl Pts',(-26.4767729720036,114.43836112165,25.4238260163703));
#454=CARTESIAN_POINT('Ctrl Pts',(-30.7293457544377,114.0224376527,25.1659059170513));
#455=CARTESIAN_POINT('Ctrl Pts',(-33.7206446404811,113.366745941032,24.4156511082583));
#456=CARTESIAN_POINT('Ctrl Pts',(-39.5283685775069,111.567877489416,21.8196301991755));
#457=CARTESIAN_POINT('Ctrl Pts',(-42.2437464303593,110.383162748623,19.879152101929));
#458=CARTESIAN_POINT('Ctrl Pts',(-46.6128858012781,107.964472411284,15.2913928667367));
#459=CARTESIAN_POINT('Ctrl Pts',(-48.1999854082868,106.801240071948,12.8190112573673));
#460=CARTESIAN_POINT('Ctrl Pts',(-50.1517397859869,105.13786060505,8.42102745053815));
#461=CARTESIAN_POINT('Ctrl Pts',(-50.7742779130681,104.498303380965,6.39652037170082));
#462=CARTESIAN_POINT('Ctrl Pts',(-51.2979853112358,103.926804861134,3.33900500829446));
#463=CARTESIAN_POINT('Ctrl Pts',(-51.4074585103503,103.800716441902,2.37685207678396));
#464=CARTESIAN_POINT('Ctrl Pts',(-51.4871451651303,103.708733910599,0.933456763646419));
#465=CARTESIAN_POINT('Ctrl Pts',(-51.5000003663775,103.69373888017,0.46702362202639));
#466=CARTESIAN_POINT('Ctrl Pts',(-51.5000003663775,103.69373888017,-1.38777878078145E-16));
#467=CARTESIAN_POINT('',(-0.699992366376416,114.499999999996,3.11060335969309E-15));
#468=CARTESIAN_POINT('Origin',(-26.0999963663772,114.499999999996,0.));
#469=CARTESIAN_POINT('',(-0.699992366376643,119.22076681165,3.11060335969309E-15));
#470=CARTESIAN_POINT('',(-24.1580373913488,114.499999999998,-25.3256588964505));
#471=CARTESIAN_POINT('Origin',(-26.0999963663772,114.499999999996,0.));
#472=CARTESIAN_POINT('Ctrl Pts',(-51.5000003663775,103.69373888017,-6.93889390390723E-17));
#473=CARTESIAN_POINT('Ctrl Pts',(-51.5000003663775,103.69373888017,-0.249679781912606));
#474=CARTESIAN_POINT('Ctrl Pts',(-51.4963209536899,103.698020225175,-0.499528333806944));
#475=CARTESIAN_POINT('Ctrl Pts',(-51.463976478693,103.735542336963,-1.59492554612543));
#476=CARTESIAN_POINT('Ctrl Pts',(-51.3972282735638,103.813230321702,-2.43123680355425));
#477=CARTESIAN_POINT('Ctrl Pts',(-51.0662112618791,104.183955595026,-4.98791385597098));
#478=CARTESIAN_POINT('Ctrl Pts',(-50.6687815783991,104.614587359764,-6.65979328097106));
#479=CARTESIAN_POINT('Ctrl Pts',(-49.1578489927361,106.036117011669,-11.0609212054608));
#480=CARTESIAN_POINT('Ctrl Pts',(-47.6360931839107,107.285624982149,-13.8815287823242));
#481=CARTESIAN_POINT('Ctrl Pts',(-43.2441685458736,109.903102582068,-19.049912884394));
#482=CARTESIAN_POINT('Ctrl Pts',(-40.5014958844286,111.187126486591,-21.2143703868858));
#483=CARTESIAN_POINT('Ctrl Pts',(-34.7126114518416,113.108179410202,-24.0768920209211));
#484=CARTESIAN_POINT('Ctrl Pts',(-31.8098744350299,113.812122956403,-24.9365046850192));
#485=CARTESIAN_POINT('Ctrl Pts',(-27.2466462104666,114.390920903045,-25.4210364251246));
#486=CARTESIAN_POINT('Ctrl Pts',(-25.6966308225891,114.499999999998,-25.4436374783675));
#487=CARTESIAN_POINT('Ctrl Pts',(-24.1580373913488,114.499999999998,-25.3256588964505));
#488=CARTESIAN_POINT('Origin',(34.999996702017,114.499999999999,0.));
#489=CARTESIAN_POINT('',(2.79930830910911E-13,114.499999999999,34.9999967020167));
#490=CARTESIAN_POINT('Origin',(2.8421709430404E-13,114.499999999999,0.));
#491=CARTESIAN_POINT('Origin',(2.8421709430404E-13,114.499999999999,0.));
#492=CARTESIAN_POINT('Origin',(2.8421709430404E-13,96.4999999999981,0.));
#493=CARTESIAN_POINT('',(-52.9999986546503,96.5000013326015,-6.49062787072318E-15));
#494=CARTESIAN_POINT('',(2.77726466672445E-13,96.5000013326015,52.9999967020176));
#495=CARTESIAN_POINT('Origin',(2.8421709430404E-13,96.5000013326015,0.));
#496=CARTESIAN_POINT('Origin',(2.8421709430404E-13,96.5000013326015,0.));
#497=CARTESIAN_POINT('Origin',(2.79930830910911E-13,96.4999999999981,34.9999967020176));
#498=CARTESIAN_POINT('Origin',(2.8421709430404E-13,70.1250006663006,0.));
#499=CARTESIAN_POINT('',(-52.9999986546503,43.7499999999996,-6.49062787072318E-15));
#500=CARTESIAN_POINT('Origin',(2.8421709430404E-13,43.7499999999996,0.));
#501=CARTESIAN_POINT('',(-52.9999986546503,70.1250006663006,-6.49062787072318E-15));
#502=CARTESIAN_POINT('Origin',(67.5000000000006,43.7499999999995,0.));
#503=CARTESIAN_POINT('',(-67.5,43.7499999999995,-8.26636589424467E-15));
#504=CARTESIAN_POINT('Origin',(2.8421709430404E-13,43.7499999999995,0.));
#505=CARTESIAN_POINT('Origin',(2.8421709430404E-13,34.4999999999995,0.));
#506=CARTESIAN_POINT('',(-67.5,25.2499999999995,-8.26636589424467E-15));
#507=CARTESIAN_POINT('Origin',(2.8421709430404E-13,25.2499999999995,0.));
#508=CARTESIAN_POINT('',(-67.5,34.4999999999995,-8.26636589424467E-15));
#509=CARTESIAN_POINT('Origin',(25.4000039999994,25.2499999999995,0.));
#510=CARTESIAN_POINT('',(-25.4000039999987,25.2500000000001,-3.11060335969287E-15));
#511=CARTESIAN_POINT('Origin',(2.8421709430404E-13,25.2500000000001,0.));
#512=CARTESIAN_POINT('Origin',(2.8421709430404E-13,15.2511039613418,0.));
#513=CARTESIAN_POINT('',(-25.4000039999987,5.25220792268346,-3.11060335969287E-15));
#514=CARTESIAN_POINT('Origin',(2.8421709430404E-13,5.25220792268346,0.));
#515=CARTESIAN_POINT('',(-25.4000039999987,15.2511039613418,-3.11060335969287E-15));
#516=CARTESIAN_POINT('Origin',(2.8421709430404E-13,4.05110089159816,0.));
#517=CARTESIAN_POINT('',(-31.9999915661879,2.84999386051286,-3.91886872442746E-15));
#518=CARTESIAN_POINT('Origin',(2.8421709430404E-13,2.84999386051286,0.));
#519=CARTESIAN_POINT('',(-28.6999977830932,4.05110089159816,-3.51473604206016E-15));
#520=CARTESIAN_POINT('Origin',(2.8421709430404E-13,1.42499693025602,0.));
#521=CARTESIAN_POINT('',(-32.0000039999991,-8.17401701880272E-13,-3.91887024713017E-15));
#522=CARTESIAN_POINT('Origin',(2.8421709430404E-13,-8.17124146124115E-13,
0.));
#523=CARTESIAN_POINT('',(-31.9999977830935,1.42499693025602,-3.91886948577882E-15));
#524=CARTESIAN_POINT('Origin',(0.,0.,0.));
#525=UNCERTAINTY_MEASURE_WITH_UNIT(LENGTH_MEASURE(0.01),#529,
'DISTANCE_ACCURACY_VALUE',
'Maximum model space distance between geometric entities at asserted c
onnectivities');
#526=UNCERTAINTY_MEASURE_WITH_UNIT(LENGTH_MEASURE(0.01),#529,
'DISTANCE_ACCURACY_VALUE',
'Maximum model space distance between geometric entities at asserted c
onnectivities');
#527=(
GEOMETRIC_REPRESENTATION_CONTEXT(3)
GLOBAL_UNCERTAINTY_ASSIGNED_CONTEXT((#525))
GLOBAL_UNIT_ASSIGNED_CONTEXT((#529,#531,#532))
REPRESENTATION_CONTEXT('','3D')
);
#528=(
GEOMETRIC_REPRESENTATION_CONTEXT(3)
GLOBAL_UNCERTAINTY_ASSIGNED_CONTEXT((#526))
GLOBAL_UNIT_ASSIGNED_CONTEXT((#529,#531,#532))
REPRESENTATION_CONTEXT('','3D')
);
#529=(
LENGTH_UNIT()
NAMED_UNIT(*)
SI_UNIT(.MILLI.,.METRE.)
);
#530=(
LENGTH_UNIT()
NAMED_UNIT(*)
SI_UNIT(.CENTI.,.METRE.)
);
#531=(
NAMED_UNIT(*)
PLANE_ANGLE_UNIT()
SI_UNIT($,.RADIAN.)
);
#532=(
NAMED_UNIT(*)
SI_UNIT($,.STERADIAN.)
SOLID_ANGLE_UNIT()
);
#533=SHAPE_DEFINITION_REPRESENTATION(#534,#535);
#534=PRODUCT_DEFINITION_SHAPE('',$,#537);
#535=SHAPE_REPRESENTATION('',(#292),#527);
#536=PRODUCT_DEFINITION_CONTEXT('part definition',#541,'design');
#537=PRODUCT_DEFINITION('Part11','Part11',#538,#536);
#538=PRODUCT_DEFINITION_FORMATION('',$,#543);
#539=PRODUCT_RELATED_PRODUCT_CATEGORY('Part11','Part11',(#543));
#540=APPLICATION_PROTOCOL_DEFINITION('international standard',
'automotive_design',2009,#541);
#541=APPLICATION_CONTEXT(
'Core Data for Automotive Mechanical Design Process');
#542=PRODUCT_CONTEXT('part definition',#541,'mechanical');
#543=PRODUCT('Part11','Part11',$,(#542));
#544=PRESENTATION_STYLE_ASSIGNMENT((#546));
#545=PRESENTATION_STYLE_ASSIGNMENT((#547));
#546=SURFACE_STYLE_USAGE(.BOTH.,#552);
#547=SURFACE_STYLE_USAGE(.BOTH.,#553);
#548=SURFACE_STYLE_RENDERING_WITH_PROPERTIES($,#560,(#550));
#549=SURFACE_STYLE_RENDERING_WITH_PROPERTIES($,#561,(#551));
#550=SURFACE_STYLE_TRANSPARENT(0.);
#551=SURFACE_STYLE_TRANSPARENT(0.);
#552=SURFACE_SIDE_STYLE('',(#554,#548));
#553=SURFACE_SIDE_STYLE('',(#555,#549));
#554=SURFACE_STYLE_FILL_AREA(#556);
#555=SURFACE_STYLE_FILL_AREA(#557);
#556=FILL_AREA_STYLE('',(#558));
#557=FILL_AREA_STYLE('',(#559));
#558=FILL_AREA_STYLE_COLOUR('',#560);
#559=FILL_AREA_STYLE_COLOUR('',#561);
#560=COLOUR_RGB('',0.749019607843137,0.749019607843137,0.749019607843137);
#561=COLOUR_RGB('',0.749019607843137,0.749019607843137,0.749019607843137);
ENDSEC;
END-ISO-10303-21;
