ISO-10303-21;
HEADER;
/* Generated by software containing ST-Developer
 * from STEP Tools, Inc. (www.steptools.com) 
 */

FILE_DESCRIPTION(
/* description */ (''),
/* implementation_level */ '2;1');

FILE_NAME(
/* name */ 'CVSE-15-1.stp',
/* time_stamp */ '2024-04-02T15:51:46+09:00',
/* author */ ('autocad33'),
/* organization */ (''),
/* preprocessor_version */ 'ST-DEVELOPER v19.2',
/* originating_system */ 'Autodesk Inventor 2023',
/* authorisation */ '');

FILE_SCHEMA (('AUTOMOTIVE_DESIGN { 1 0 10303 214 3 1 1 }'));
ENDSEC;

DATA;
#10=MECHANICAL_DESIGN_GEOMETRIC_PRESENTATION_REPRESENTATION('',(#239,#240,
#241,#242,#243,#244,#245,#246,#247,#248,#249,#250,#251,#252,#253,#254,#255,
#256,#257),#528);
#11=SHAPE_REPRESENTATION_RELATIONSHIP('SRR','None',#535,#12);
#12=ADVANCED_BREP_SHAPE_REPRESENTATION('',(#13),#527);
#13=MANIFOLD_SOLID_BREP('\X2\30BD30EA30C330C9\X0\1',#276);
#14=TOROIDAL_SURFACE('',#310,28.4999995601828,18.);
#15=B_SPLINE_CURVE_WITH_KNOTS('',3,(#451,#452,#453,#454,#455,#456,#457,
#458,#459,#460,#461,#462,#463,#464,#465,#466),.UNSPECIFIED.,.F.,.F.,(4,
2,2,2,2,2,2,4),(-9.2651100030465,-8.79386684942115,-8.0603251937748,-7.23298747384107,
-6.52548073682923,-6.13164173664599,-5.81954366566067,-5.6694675966483),
 .UNSPECIFIED.);
#16=B_SPLINE_CURVE_WITH_KNOTS('',3,(#472,#473,#474,#475,#476,#477,#478,
#479,#480,#481,#482,#483,#484,#485,#486,#487),.UNSPECIFIED.,.F.,.F.,(4,
2,2,2,2,2,2,4),(-5.6694675966483,-5.60036793646715,-5.34337754428045,-4.76732569460764,
-3.8983004723948,-3.09375278282321,-2.42861248879699,-2.08385518707962),
 .UNSPECIFIED.);
#17=CONICAL_SURFACE('',#305,22.1499970000375,1.22172667172906);
#18=CONICAL_SURFACE('',#327,22.149998999998,1.22173017873314);
#19=FACE_BOUND('',#53,.T.);
#20=FACE_BOUND('',#61,.T.);
#21=FACE_BOUND('',#64,.T.);
#22=FACE_BOUND('',#69,.T.);
#23=PLANE('',#296);
#24=PLANE('',#300);
#25=PLANE('',#301);
#26=PLANE('',#316);
#27=PLANE('',#319);
#28=PLANE('',#323);
#29=PLANE('',#331);
#30=FACE_OUTER_BOUND('',#48,.T.);
#31=FACE_OUTER_BOUND('',#49,.T.);
#32=FACE_OUTER_BOUND('',#50,.T.);
#33=FACE_OUTER_BOUND('',#51,.T.);
#34=FACE_OUTER_BOUND('',#52,.T.);
#35=FACE_OUTER_BOUND('',#54,.T.);
#36=FACE_OUTER_BOUND('',#55,.T.);
#37=FACE_OUTER_BOUND('',#56,.T.);
#38=FACE_OUTER_BOUND('',#57,.T.);
#39=FACE_OUTER_BOUND('',#58,.T.);
#40=FACE_OUTER_BOUND('',#59,.T.);
#41=FACE_OUTER_BOUND('',#60,.T.);
#42=FACE_OUTER_BOUND('',#62,.T.);
#43=FACE_OUTER_BOUND('',#63,.T.);
#44=FACE_OUTER_BOUND('',#65,.T.);
#45=FACE_OUTER_BOUND('',#66,.T.);
#46=FACE_OUTER_BOUND('',#67,.T.);
#47=FACE_OUTER_BOUND('',#68,.T.);
#48=EDGE_LOOP('',(#165,#166,#167,#168));
#49=EDGE_LOOP('',(#169));
#50=EDGE_LOOP('',(#170,#171,#172,#173));
#51=EDGE_LOOP('',(#174));
#52=EDGE_LOOP('',(#175));
#53=EDGE_LOOP('',(#176));
#54=EDGE_LOOP('',(#177,#178,#179,#180));
#55=EDGE_LOOP('',(#181,#182,#183,#184));
#56=EDGE_LOOP('',(#185,#186,#187,#188,#189,#190,#191));
#57=EDGE_LOOP('',(#192,#193,#194,#195,#196,#197,#198,#199));
#58=EDGE_LOOP('',(#200,#201,#202,#203));
#59=EDGE_LOOP('',(#204,#205,#206,#207,#208));
#60=EDGE_LOOP('',(#209));
#61=EDGE_LOOP('',(#210));
#62=EDGE_LOOP('',(#211,#212,#213,#214));
#63=EDGE_LOOP('',(#215));
#64=EDGE_LOOP('',(#216));
#65=EDGE_LOOP('',(#217,#218,#219,#220));
#66=EDGE_LOOP('',(#221,#222,#223,#224));
#67=EDGE_LOOP('',(#225,#226,#227,#228));
#68=EDGE_LOOP('',(#229));
#69=EDGE_LOOP('',(#230));
#70=LINE('',#427,#80);
#71=LINE('',#434,#81);
#72=LINE('',#443,#82);
#73=LINE('',#447,#83);
#74=LINE('',#469,#84);
#75=LINE('',#501,#85);
#76=LINE('',#508,#86);
#77=LINE('',#515,#87);
#78=LINE('',#519,#88);
#79=LINE('',#523,#89);
#80=VECTOR('',#338,17.85);
#81=VECTOR('',#347,17.85);
#82=VECTOR('',#360,25.2500020000395);
#83=VECTOR('',#365,22.1499970000375);
#84=VECTOR('',#370,19.0499920000357);
#85=VECTOR('',#391,46.5000001958763);
#86=VECTOR('',#400,60.5000000000195);
#87=VECTOR('',#409,19.0499940000009);
#88=VECTOR('',#414,22.149998999998);
#89=VECTOR('',#419,25.2500039999977);
#90=CIRCLE('',#294,17.85);
#91=CIRCLE('',#295,17.85);
#92=CIRCLE('',#298,17.85);
#93=CIRCLE('',#299,17.85);
#94=CIRCLE('',#302,25.2500020000407);
#95=CIRCLE('',#304,25.2500020000383);
#96=CIRCLE('',#306,19.0499920000368);
#97=CIRCLE('',#308,19.0499920000357);
#98=CIRCLE('',#309,19.0499920000357);
#99=CIRCLE('',#311,46.4999995601827);
#100=CIRCLE('',#312,18.);
#101=CIRCLE('',#313,28.4999995911459);
#102=CIRCLE('',#314,28.4999995911459);
#103=CIRCLE('',#315,46.4999995601827);
#104=CIRCLE('',#318,46.5000008315699);
#105=CIRCLE('',#320,60.5000000000258);
#106=CIRCLE('',#322,60.5000000000132);
#107=CIRCLE('',#324,19.0499940000032);
#108=CIRCLE('',#326,19.0499939999986);
#109=CIRCLE('',#328,25.2500039999977);
#110=CIRCLE('',#330,25.2500039999977);
#111=VERTEX_POINT('',#424);
#112=VERTEX_POINT('',#426);
#113=VERTEX_POINT('',#431);
#114=VERTEX_POINT('',#433);
#115=VERTEX_POINT('',#438);
#116=VERTEX_POINT('',#441);
#117=VERTEX_POINT('',#445);
#118=VERTEX_POINT('',#449);
#119=VERTEX_POINT('',#450);
#120=VERTEX_POINT('',#467);
#121=VERTEX_POINT('',#470);
#122=VERTEX_POINT('',#489);
#123=VERTEX_POINT('',#490);
#124=VERTEX_POINT('',#492);
#125=VERTEX_POINT('',#499);
#126=VERTEX_POINT('',#503);
#127=VERTEX_POINT('',#506);
#128=VERTEX_POINT('',#510);
#129=VERTEX_POINT('',#513);
#130=VERTEX_POINT('',#517);
#131=VERTEX_POINT('',#521);
#132=EDGE_CURVE('',#111,#111,#90,.T.);
#133=EDGE_CURVE('',#111,#112,#70,.T.);
#134=EDGE_CURVE('',#112,#112,#91,.T.);
#135=EDGE_CURVE('',#113,#113,#92,.T.);
#136=EDGE_CURVE('',#113,#114,#71,.T.);
#137=EDGE_CURVE('',#114,#114,#93,.T.);
#138=EDGE_CURVE('',#115,#115,#94,.T.);
#139=EDGE_CURVE('',#116,#116,#95,.T.);
#140=EDGE_CURVE('',#116,#115,#72,.T.);
#141=EDGE_CURVE('',#117,#117,#96,.T.);
#142=EDGE_CURVE('',#117,#116,#73,.T.);
#143=EDGE_CURVE('',#118,#119,#15,.T.);
#144=EDGE_CURVE('',#120,#118,#97,.T.);
#145=EDGE_CURVE('',#120,#117,#74,.T.);
#146=EDGE_CURVE('',#121,#120,#98,.T.);
#147=EDGE_CURVE('',#119,#121,#16,.T.);
#148=EDGE_CURVE('',#122,#123,#99,.T.);
#149=EDGE_CURVE('',#122,#124,#100,.T.);
#150=EDGE_CURVE('',#124,#118,#101,.T.);
#151=EDGE_CURVE('',#121,#124,#102,.T.);
#152=EDGE_CURVE('',#123,#122,#103,.T.);
#153=EDGE_CURVE('',#125,#125,#104,.T.);
#154=EDGE_CURVE('',#125,#123,#75,.T.);
#155=EDGE_CURVE('',#126,#126,#105,.T.);
#156=EDGE_CURVE('',#127,#127,#106,.T.);
#157=EDGE_CURVE('',#127,#126,#76,.T.);
#158=EDGE_CURVE('',#128,#128,#107,.T.);
#159=EDGE_CURVE('',#129,#129,#108,.T.);
#160=EDGE_CURVE('',#129,#128,#77,.T.);
#161=EDGE_CURVE('',#130,#130,#109,.T.);
#162=EDGE_CURVE('',#130,#129,#78,.T.);
#163=EDGE_CURVE('',#131,#131,#110,.T.);
#164=EDGE_CURVE('',#131,#130,#79,.T.);
#165=ORIENTED_EDGE('',*,*,#132,.F.);
#166=ORIENTED_EDGE('',*,*,#133,.T.);
#167=ORIENTED_EDGE('',*,*,#134,.T.);
#168=ORIENTED_EDGE('',*,*,#133,.F.);
#169=ORIENTED_EDGE('',*,*,#134,.F.);
#170=ORIENTED_EDGE('',*,*,#135,.F.);
#171=ORIENTED_EDGE('',*,*,#136,.T.);
#172=ORIENTED_EDGE('',*,*,#137,.T.);
#173=ORIENTED_EDGE('',*,*,#136,.F.);
#174=ORIENTED_EDGE('',*,*,#137,.F.);
#175=ORIENTED_EDGE('',*,*,#138,.F.);
#176=ORIENTED_EDGE('',*,*,#132,.T.);
#177=ORIENTED_EDGE('',*,*,#139,.F.);
#178=ORIENTED_EDGE('',*,*,#140,.T.);
#179=ORIENTED_EDGE('',*,*,#138,.T.);
#180=ORIENTED_EDGE('',*,*,#140,.F.);
#181=ORIENTED_EDGE('',*,*,#141,.F.);
#182=ORIENTED_EDGE('',*,*,#142,.T.);
#183=ORIENTED_EDGE('',*,*,#139,.T.);
#184=ORIENTED_EDGE('',*,*,#142,.F.);
#185=ORIENTED_EDGE('',*,*,#143,.F.);
#186=ORIENTED_EDGE('',*,*,#144,.F.);
#187=ORIENTED_EDGE('',*,*,#145,.T.);
#188=ORIENTED_EDGE('',*,*,#141,.T.);
#189=ORIENTED_EDGE('',*,*,#145,.F.);
#190=ORIENTED_EDGE('',*,*,#146,.F.);
#191=ORIENTED_EDGE('',*,*,#147,.F.);
#192=ORIENTED_EDGE('',*,*,#148,.F.);
#193=ORIENTED_EDGE('',*,*,#149,.T.);
#194=ORIENTED_EDGE('',*,*,#150,.T.);
#195=ORIENTED_EDGE('',*,*,#143,.T.);
#196=ORIENTED_EDGE('',*,*,#147,.T.);
#197=ORIENTED_EDGE('',*,*,#151,.T.);
#198=ORIENTED_EDGE('',*,*,#149,.F.);
#199=ORIENTED_EDGE('',*,*,#152,.F.);
#200=ORIENTED_EDGE('',*,*,#146,.T.);
#201=ORIENTED_EDGE('',*,*,#144,.T.);
#202=ORIENTED_EDGE('',*,*,#150,.F.);
#203=ORIENTED_EDGE('',*,*,#151,.F.);
#204=ORIENTED_EDGE('',*,*,#153,.F.);
#205=ORIENTED_EDGE('',*,*,#154,.T.);
#206=ORIENTED_EDGE('',*,*,#152,.T.);
#207=ORIENTED_EDGE('',*,*,#148,.T.);
#208=ORIENTED_EDGE('',*,*,#154,.F.);
#209=ORIENTED_EDGE('',*,*,#155,.F.);
#210=ORIENTED_EDGE('',*,*,#153,.T.);
#211=ORIENTED_EDGE('',*,*,#156,.F.);
#212=ORIENTED_EDGE('',*,*,#157,.T.);
#213=ORIENTED_EDGE('',*,*,#155,.T.);
#214=ORIENTED_EDGE('',*,*,#157,.F.);
#215=ORIENTED_EDGE('',*,*,#156,.T.);
#216=ORIENTED_EDGE('',*,*,#158,.F.);
#217=ORIENTED_EDGE('',*,*,#159,.F.);
#218=ORIENTED_EDGE('',*,*,#160,.T.);
#219=ORIENTED_EDGE('',*,*,#158,.T.);
#220=ORIENTED_EDGE('',*,*,#160,.F.);
#221=ORIENTED_EDGE('',*,*,#161,.F.);
#222=ORIENTED_EDGE('',*,*,#162,.T.);
#223=ORIENTED_EDGE('',*,*,#159,.T.);
#224=ORIENTED_EDGE('',*,*,#162,.F.);
#225=ORIENTED_EDGE('',*,*,#163,.F.);
#226=ORIENTED_EDGE('',*,*,#164,.T.);
#227=ORIENTED_EDGE('',*,*,#161,.T.);
#228=ORIENTED_EDGE('',*,*,#164,.F.);
#229=ORIENTED_EDGE('',*,*,#163,.T.);
#230=ORIENTED_EDGE('',*,*,#135,.T.);
#231=CYLINDRICAL_SURFACE('',#293,17.85);
#232=CYLINDRICAL_SURFACE('',#297,17.85);
#233=CYLINDRICAL_SURFACE('',#303,25.2500020000395);
#234=CYLINDRICAL_SURFACE('',#307,19.0499920000357);
#235=CYLINDRICAL_SURFACE('',#317,46.5000001958763);
#236=CYLINDRICAL_SURFACE('',#321,60.5000000000195);
#237=CYLINDRICAL_SURFACE('',#325,19.0499940000009);
#238=CYLINDRICAL_SURFACE('',#329,25.2500039999977);
#239=STYLED_ITEM('',(#545),#258);
#240=STYLED_ITEM('',(#545),#259);
#241=STYLED_ITEM('',(#545),#260);
#242=STYLED_ITEM('',(#545),#261);
#243=STYLED_ITEM('',(#545),#262);
#244=STYLED_ITEM('',(#545),#263);
#245=STYLED_ITEM('',(#545),#264);
#246=STYLED_ITEM('',(#545),#265);
#247=STYLED_ITEM('',(#545),#266);
#248=STYLED_ITEM('',(#545),#267);
#249=STYLED_ITEM('',(#545),#268);
#250=STYLED_ITEM('',(#545),#269);
#251=STYLED_ITEM('',(#545),#270);
#252=STYLED_ITEM('',(#545),#271);
#253=STYLED_ITEM('',(#545),#272);
#254=STYLED_ITEM('',(#545),#273);
#255=STYLED_ITEM('',(#545),#274);
#256=STYLED_ITEM('',(#545),#275);
#257=STYLED_ITEM('',(#544),#13);
#258=ADVANCED_FACE('',(#30),#231,.F.);
#259=ADVANCED_FACE('',(#31),#23,.T.);
#260=ADVANCED_FACE('',(#32),#232,.F.);
#261=ADVANCED_FACE('',(#33),#24,.T.);
#262=ADVANCED_FACE('',(#34,#19),#25,.T.);
#263=ADVANCED_FACE('',(#35),#233,.T.);
#264=ADVANCED_FACE('',(#36),#17,.T.);
#265=ADVANCED_FACE('',(#37),#234,.T.);
#266=ADVANCED_FACE('',(#38),#14,.T.);
#267=ADVANCED_FACE('',(#39),#26,.T.);
#268=ADVANCED_FACE('',(#40),#235,.T.);
#269=ADVANCED_FACE('',(#41,#20),#27,.T.);
#270=ADVANCED_FACE('',(#42),#236,.T.);
#271=ADVANCED_FACE('',(#43,#21),#28,.T.);
#272=ADVANCED_FACE('',(#44),#237,.T.);
#273=ADVANCED_FACE('',(#45),#18,.T.);
#274=ADVANCED_FACE('',(#46),#238,.T.);
#275=ADVANCED_FACE('',(#47,#22),#29,.T.);
#276=CLOSED_SHELL('',(#258,#259,#260,#261,#262,#263,#264,#265,#266,#267,
#268,#269,#270,#271,#272,#273,#274,#275));
#277=DERIVED_UNIT_ELEMENT(#280,1.);
#278=DERIVED_UNIT_ELEMENT(#530,-3.);
#279=DIMENSIONAL_EXPONENTS(0.,1.,0.,0.,0.,0.,0.);
#280=(
CONVERSION_BASED_UNIT('gram',#282)
MASS_UNIT()
NAMED_UNIT(#279)
);
#281=(
MASS_UNIT()
NAMED_UNIT(*)
SI_UNIT(.KILO.,.GRAM.)
);
#282=MASS_MEASURE_WITH_UNIT(MASS_MEASURE(0.001),#281);
#283=DERIVED_UNIT((#277,#278));
#284=MEASURE_REPRESENTATION_ITEM('density measure',
POSITIVE_RATIO_MEASURE(1.),#283);
#285=PROPERTY_DEFINITION_REPRESENTATION(#290,#287);
#286=PROPERTY_DEFINITION_REPRESENTATION(#291,#288);
#287=REPRESENTATION('material name',(#289),#527);
#288=REPRESENTATION('density',(#284),#527);
#289=DESCRIPTIVE_REPRESENTATION_ITEM('\X2\4E00822C\X0\','\X2\4E00822C\X0\');
#290=PROPERTY_DEFINITION('material property','material name',#537);
#291=PROPERTY_DEFINITION('material property','density of part',#537);
#292=AXIS2_PLACEMENT_3D('',#422,#332,#333);
#293=AXIS2_PLACEMENT_3D('',#423,#334,#335);
#294=AXIS2_PLACEMENT_3D('',#425,#336,#337);
#295=AXIS2_PLACEMENT_3D('',#428,#339,#340);
#296=AXIS2_PLACEMENT_3D('',#429,#341,#342);
#297=AXIS2_PLACEMENT_3D('',#430,#343,#344);
#298=AXIS2_PLACEMENT_3D('',#432,#345,#346);
#299=AXIS2_PLACEMENT_3D('',#435,#348,#349);
#300=AXIS2_PLACEMENT_3D('',#436,#350,#351);
#301=AXIS2_PLACEMENT_3D('',#437,#352,#353);
#302=AXIS2_PLACEMENT_3D('',#439,#354,#355);
#303=AXIS2_PLACEMENT_3D('',#440,#356,#357);
#304=AXIS2_PLACEMENT_3D('',#442,#358,#359);
#305=AXIS2_PLACEMENT_3D('',#444,#361,#362);
#306=AXIS2_PLACEMENT_3D('',#446,#363,#364);
#307=AXIS2_PLACEMENT_3D('',#448,#366,#367);
#308=AXIS2_PLACEMENT_3D('',#468,#368,#369);
#309=AXIS2_PLACEMENT_3D('',#471,#371,#372);
#310=AXIS2_PLACEMENT_3D('',#488,#373,#374);
#311=AXIS2_PLACEMENT_3D('',#491,#375,#376);
#312=AXIS2_PLACEMENT_3D('',#493,#377,#378);
#313=AXIS2_PLACEMENT_3D('',#494,#379,#380);
#314=AXIS2_PLACEMENT_3D('',#495,#381,#382);
#315=AXIS2_PLACEMENT_3D('',#496,#383,#384);
#316=AXIS2_PLACEMENT_3D('',#497,#385,#386);
#317=AXIS2_PLACEMENT_3D('',#498,#387,#388);
#318=AXIS2_PLACEMENT_3D('',#500,#389,#390);
#319=AXIS2_PLACEMENT_3D('',#502,#392,#393);
#320=AXIS2_PLACEMENT_3D('',#504,#394,#395);
#321=AXIS2_PLACEMENT_3D('',#505,#396,#397);
#322=AXIS2_PLACEMENT_3D('',#507,#398,#399);
#323=AXIS2_PLACEMENT_3D('',#509,#401,#402);
#324=AXIS2_PLACEMENT_3D('',#511,#403,#404);
#325=AXIS2_PLACEMENT_3D('',#512,#405,#406);
#326=AXIS2_PLACEMENT_3D('',#514,#407,#408);
#327=AXIS2_PLACEMENT_3D('',#516,#410,#411);
#328=AXIS2_PLACEMENT_3D('',#518,#412,#413);
#329=AXIS2_PLACEMENT_3D('',#520,#415,#416);
#330=AXIS2_PLACEMENT_3D('',#522,#417,#418);
#331=AXIS2_PLACEMENT_3D('',#524,#420,#421);
#332=DIRECTION('axis',(0.,0.,1.));
#333=DIRECTION('refdir',(1.,0.,0.));
#334=DIRECTION('center_axis',(0.,-1.,0.));
#335=DIRECTION('ref_axis',(1.,0.,0.));
#336=DIRECTION('center_axis',(0.,-1.,0.));
#337=DIRECTION('ref_axis',(1.,0.,0.));
#338=DIRECTION('',(0.,-1.,0.));
#339=DIRECTION('center_axis',(0.,-1.,0.));
#340=DIRECTION('ref_axis',(1.,0.,0.));
#341=DIRECTION('center_axis',(0.,1.,0.));
#342=DIRECTION('ref_axis',(0.,0.,1.));
#343=DIRECTION('center_axis',(2.17957894404939E-15,1.,0.));
#344=DIRECTION('ref_axis',(1.,-2.17957894404939E-15,0.));
#345=DIRECTION('center_axis',(2.16637268681259E-15,1.,0.));
#346=DIRECTION('ref_axis',(1.,-2.17957894404939E-15,0.));
#347=DIRECTION('',(2.17957894404939E-15,1.,0.));
#348=DIRECTION('center_axis',(2.16637268681259E-15,1.,0.));
#349=DIRECTION('ref_axis',(1.,-2.16637268681259E-15,0.));
#350=DIRECTION('center_axis',(-2.16637268681259E-15,-1.,0.));
#351=DIRECTION('ref_axis',(0.,0.,-1.));
#352=DIRECTION('center_axis',(0.,1.,0.));
#353=DIRECTION('ref_axis',(0.,0.,1.));
#354=DIRECTION('center_axis',(0.,-1.,0.));
#355=DIRECTION('ref_axis',(1.,0.,0.));
#356=DIRECTION('center_axis',(0.,-1.,0.));
#357=DIRECTION('ref_axis',(-1.,0.,0.));
#358=DIRECTION('center_axis',(0.,-1.,0.));
#359=DIRECTION('ref_axis',(1.,0.,0.));
#360=DIRECTION('',(0.,1.,0.));
#361=DIRECTION('center_axis',(0.,1.,0.));
#362=DIRECTION('ref_axis',(-1.,0.,0.));
#363=DIRECTION('center_axis',(0.,-1.,0.));
#364=DIRECTION('ref_axis',(1.,0.,0.));
#365=DIRECTION('',(0.939691319506365,0.342023718540669,1.15078996662002E-16));
#366=DIRECTION('center_axis',(0.,-1.,0.));
#367=DIRECTION('ref_axis',(-1.,0.,0.));
#368=DIRECTION('center_axis',(-2.16637268681259E-15,-1.,0.));
#369=DIRECTION('ref_axis',(-1.,0.,0.));
#370=DIRECTION('',(0.,1.,0.));
#371=DIRECTION('center_axis',(-2.16637268681259E-15,-1.,0.));
#372=DIRECTION('ref_axis',(-1.,0.,0.));
#373=DIRECTION('center_axis',(-2.16637268681259E-15,-1.,0.));
#374=DIRECTION('ref_axis',(0.,0.,-1.));
#375=DIRECTION('center_axis',(-2.16637268681259E-15,-1.,0.));
#376=DIRECTION('ref_axis',(1.,-2.16637268681259E-15,0.));
#377=DIRECTION('center_axis',(-1.,2.16637268681259E-15,-1.22464679914738E-16));
#378=DIRECTION('ref_axis',(-1.22464679914738E-16,0.,1.));
#379=DIRECTION('center_axis',(-2.16637268681259E-15,-1.,0.));
#380=DIRECTION('ref_axis',(1.,-2.16637268681259E-15,0.));
#381=DIRECTION('center_axis',(-2.16637268681259E-15,-1.,0.));
#382=DIRECTION('ref_axis',(1.,-2.16637268681259E-15,0.));
#383=DIRECTION('center_axis',(-2.16637268681259E-15,-1.,0.));
#384=DIRECTION('ref_axis',(1.,-2.16637268681259E-15,0.));
#385=DIRECTION('center_axis',(2.16637268681259E-15,1.,0.));
#386=DIRECTION('ref_axis',(0.,0.,1.));
#387=DIRECTION('center_axis',(-2.16637268681259E-15,-1.,0.));
#388=DIRECTION('ref_axis',(-1.,2.17308735109558E-15,0.));
#389=DIRECTION('center_axis',(-2.16637268681259E-15,-1.,0.));
#390=DIRECTION('ref_axis',(1.,-2.16637268681259E-15,0.));
#391=DIRECTION('',(2.16637268681259E-15,1.,0.));
#392=DIRECTION('center_axis',(2.16637268681259E-15,1.,0.));
#393=DIRECTION('ref_axis',(0.,0.,1.));
#394=DIRECTION('center_axis',(-2.16637268681259E-15,-1.,0.));
#395=DIRECTION('ref_axis',(1.,-2.16637268681259E-15,0.));
#396=DIRECTION('center_axis',(-2.16637268681259E-15,-1.,0.));
#397=DIRECTION('ref_axis',(-1.,2.17308735109558E-15,0.));
#398=DIRECTION('center_axis',(-2.16637268681259E-15,-1.,0.));
#399=DIRECTION('ref_axis',(1.,-2.16637268681259E-15,0.));
#400=DIRECTION('',(2.16637268681259E-15,1.,0.));
#401=DIRECTION('center_axis',(-2.16637268681259E-15,-1.,0.));
#402=DIRECTION('ref_axis',(0.,0.,-1.));
#403=DIRECTION('center_axis',(-2.16637268681259E-15,-1.,0.));
#404=DIRECTION('ref_axis',(1.,-2.16637268681259E-15,0.));
#405=DIRECTION('center_axis',(-2.16637268681259E-15,-1.,0.));
#406=DIRECTION('ref_axis',(-1.,2.17308735109558E-15,0.));
#407=DIRECTION('center_axis',(-2.16637268681259E-15,-1.,0.));
#408=DIRECTION('ref_axis',(1.,-2.16637268681259E-15,0.));
#409=DIRECTION('',(2.16637268681259E-15,1.,0.));
#410=DIRECTION('center_axis',(-2.16637268681259E-15,-1.,0.));
#411=DIRECTION('ref_axis',(-1.,2.17308735109558E-15,0.));
#412=DIRECTION('center_axis',(-2.16637268681259E-15,-1.,0.));
#413=DIRECTION('ref_axis',(1.,-2.16637268681259E-15,0.));
#414=DIRECTION('',(-0.939692518979161,0.34202042303728,-1.15079143555054E-16));
#415=DIRECTION('center_axis',(-2.16637268681259E-15,-1.,0.));
#416=DIRECTION('ref_axis',(-1.,2.17308735109558E-15,0.));
#417=DIRECTION('center_axis',(-2.16637268681259E-15,-1.,0.));
#418=DIRECTION('ref_axis',(1.,-2.16637268681259E-15,0.));
#419=DIRECTION('',(2.16637268681259E-15,1.,0.));
#420=DIRECTION('center_axis',(-2.16637268681259E-15,-1.,0.));
#421=DIRECTION('ref_axis',(0.,0.,-1.));
#422=CARTESIAN_POINT('',(0.,0.,0.));
#423=CARTESIAN_POINT('Origin',(-25.6500046456567,124.999999879046,0.));
#424=CARTESIAN_POINT('',(-43.5000046456567,124.999999879046,-2.18599453647803E-15));
#425=CARTESIAN_POINT('Origin',(-25.6500046456567,124.999999879046,0.));
#426=CARTESIAN_POINT('',(-43.5000046456567,82.9999998790463,-2.18599453647803E-15));
#427=CARTESIAN_POINT('',(-43.5000046456567,124.999999879046,-2.18599453647803E-15));
#428=CARTESIAN_POINT('Origin',(-25.6500046456567,82.9999998790463,0.));
#429=CARTESIAN_POINT('Origin',(-25.6500046456567,82.9999998790463,0.));
#430=CARTESIAN_POINT('Origin',(0.40070803124274,-8.68082934270666E-16,0.));
#431=CARTESIAN_POINT('',(-17.4492919687573,3.80321093636734E-14,2.18599453647803E-15));
#432=CARTESIAN_POINT('Origin',(0.40070803124274,-8.73374787608161E-16,0.));
#433=CARTESIAN_POINT('',(-17.4492919687572,40.75,2.18599453647803E-15));
#434=CARTESIAN_POINT('',(-17.4492919687573,3.80374012170109E-14,2.18599453647803E-15));
#435=CARTESIAN_POINT('Origin',(0.400708031242829,40.75,0.));
#436=CARTESIAN_POINT('Origin',(0.400708031242829,40.75,0.));
#437=CARTESIAN_POINT('Origin',(-50.9000066456974,124.999999879046,0.));
#438=CARTESIAN_POINT('',(-0.400002645617272,124.999999879046,3.09223341278126E-15));
#439=CARTESIAN_POINT('Origin',(-25.6500046456567,124.999999879046,0.));
#440=CARTESIAN_POINT('Origin',(-25.6500046456567,123.575007992465,0.));
#441=CARTESIAN_POINT('',(-0.400002645617272,122.150016105884,3.09223341278126E-15));
#442=CARTESIAN_POINT('Origin',(-25.6500046456567,122.150016105884,0.));
#443=CARTESIAN_POINT('',(-0.400002645617272,123.575007992465,3.09223341278126E-15));
#444=CARTESIAN_POINT('Origin',(-25.6500046456567,121.021693202836,0.));
#445=CARTESIAN_POINT('',(-6.60001264561997,119.893370299787,2.33295117266277E-15));
#446=CARTESIAN_POINT('Origin',(-25.6500046456567,119.893370299787,0.));
#447=CARTESIAN_POINT('',(-3.5000076456192,121.021693202836,2.71259229272195E-15));
#448=CARTESIAN_POINT('Origin',(-25.6500046456567,105.369697184914,0.));
#449=CARTESIAN_POINT('',(-21.5842167499113,100.999999953341,18.6110602596476));
#450=CARTESIAN_POINT('',(-44.6999966456913,90.8460240700417,0.));
#451=CARTESIAN_POINT('Ctrl Pts',(-21.5842167499113,100.999999953996,18.6110602596476));
#452=CARTESIAN_POINT('Ctrl Pts',(-23.101850204928,100.999999951646,18.9426037421521));
#453=CARTESIAN_POINT('Ctrl Pts',(-24.6529441701501,100.845696367,19.0862765784703));
#454=CARTESIAN_POINT('Ctrl Pts',(-28.5937292598864,100.155865658925,18.9736233601541));
#455=CARTESIAN_POINT('Ctrl Pts',(-30.9097543619622,99.4688784881033,18.4534938168821));
#456=CARTESIAN_POINT('Ctrl Pts',(-35.4233661586294,97.7059529932814,16.5565177258439));
#457=CARTESIAN_POINT('Ctrl Pts',(-37.546362652693,96.594497813335,15.0902572479612));
#458=CARTESIAN_POINT('Ctrl Pts',(-40.8034558471596,94.496143610922,11.7434816422879));
#459=CARTESIAN_POINT('Ctrl Pts',(-42.0411471828032,93.5049147945101,9.94902091447233));
#460=CARTESIAN_POINT('Ctrl Pts',(-43.4604864491229,92.1953287164783,6.86738094232526));
#461=CARTESIAN_POINT('Ctrl Pts',(-43.8724725784302,91.7705167764122,5.69463215071826));
#462=CARTESIAN_POINT('Ctrl Pts',(-44.4020783800996,91.1949215889291,3.50103665581409));
#463=CARTESIAN_POINT('Ctrl Pts',(-44.5627955265204,91.0073126115931,2.50263150778647));
#464=CARTESIAN_POINT('Ctrl Pts',(-44.6808473861805,90.8688226614688,0.986447928977314));
#465=CARTESIAN_POINT('Ctrl Pts',(-44.6999966456924,90.8460240700391,0.493837111231313));
#466=CARTESIAN_POINT('Ctrl Pts',(-44.6999966456924,90.8460240700391,5.55111512312578E-16));
#467=CARTESIAN_POINT('',(-6.60001264562109,100.999999952687,2.33295117266263E-15));
#468=CARTESIAN_POINT('Origin',(-25.6500046456567,100.999999952687,0.));
#469=CARTESIAN_POINT('',(-6.60001264562109,105.369697184914,2.33295117266263E-15));
#470=CARTESIAN_POINT('',(-21.5842167499113,100.999999953341,-18.6110602596476));
#471=CARTESIAN_POINT('Origin',(-25.6500046456567,100.999999952687,0.));
#472=CARTESIAN_POINT('Ctrl Pts',(-44.6999966456924,90.8460240700391,3.46944695195361E-16));
#473=CARTESIAN_POINT('Ctrl Pts',(-44.6999966456924,90.8460240700391,-0.227377867740619));
#474=CARTESIAN_POINT('Ctrl Pts',(-44.6959281559275,90.8508495687043,-0.45501570643491));
#475=CARTESIAN_POINT('Ctrl Pts',(-44.6573281935055,90.8964858573229,-1.53093051260509));
#476=CARTESIAN_POINT('Ctrl Pts',(-44.5709752588539,90.9990269473391,-2.36519075995739));
#477=CARTESIAN_POINT('Ctrl Pts',(-44.1188399726333,91.5111527686824,-5.02957486301912));
#478=CARTESIAN_POINT('Ctrl Pts',(-43.5422488238048,92.1337905637144,-6.7750276751316));
#479=CARTESIAN_POINT('Ctrl Pts',(-41.5930872909786,93.8925187013958,-10.7631981377867));
#480=CARTESIAN_POINT('Ctrl Pts',(-39.9360590859139,95.147292050821,-12.8807752212766));
#481=CARTESIAN_POINT('Ctrl Pts',(-36.0039626732882,97.404978588968,-16.1798109908163));
#482=CARTESIAN_POINT('Ctrl Pts',(-33.7876282926479,98.43050203551,-17.413795532881));
#483=CARTESIAN_POINT('Ctrl Pts',(-29.323126289519,99.9343311148197,-18.8120516430542));
#484=CARTESIAN_POINT('Ctrl Pts',(-27.1671932667234,100.471882634073,-19.1162528401778));
#485=CARTESIAN_POINT('Ctrl Pts',(-23.8321858897901,100.916643313243,-18.9972514372156));
#486=CARTESIAN_POINT('Ctrl Pts',(-22.6975553658438,100.999999952272,-18.8542811511697));
#487=CARTESIAN_POINT('Ctrl Pts',(-21.5842167499113,100.999999953996,-18.6110602596476));
#488=CARTESIAN_POINT('Origin',(-1.66131529214347E-12,82.9999999539958,0.));
#489=CARTESIAN_POINT('',(-1.66700989853222E-12,83.0000004956518,46.4999995601827));
#490=CARTESIAN_POINT('',(46.5000001958747,83.0000004956517,5.69460764002312E-15));
#491=CARTESIAN_POINT('Origin',(-1.66131529097005E-12,83.0000004956518,0.));
#492=CARTESIAN_POINT('',(-1.62581082710977E-12,100.999999953341,28.4999995911459));
#493=CARTESIAN_POINT('Origin',(-1.66480553546718E-12,82.9999999539958,28.4999995601828));
#494=CARTESIAN_POINT('Origin',(-1.62232058378227E-12,100.999999953341,0.));
#495=CARTESIAN_POINT('Origin',(-1.62232058378227E-12,100.999999953341,0.));
#496=CARTESIAN_POINT('Origin',(-1.66131529097005E-12,83.0000004956518,0.));
#497=CARTESIAN_POINT('Origin',(-28.4999995911475,100.999999952687,0.));
#498=CARTESIAN_POINT('Origin',(-1.70707991451582E-12,61.8750002478369,0.));
#499=CARTESIAN_POINT('',(46.5000001958746,40.750000000022,5.69460764002312E-15));
#500=CARTESIAN_POINT('Origin',(-1.7528445380616E-12,40.7500000000221,0.));
#501=CARTESIAN_POINT('',(46.5000001958746,61.8750002478368,5.69460764002312E-15));
#502=CARTESIAN_POINT('Origin',(-60.5000000000275,40.75,0.));
#503=CARTESIAN_POINT('',(60.5000000000177,40.7499999999997,7.40911313484387E-15));
#504=CARTESIAN_POINT('Origin',(-1.75284453806164E-12,40.7499999999999,0.));
#505=CARTESIAN_POINT('Origin',(-1.77180029907125E-12,31.9999999999999,0.));
#506=CARTESIAN_POINT('',(60.5000000000177,23.2499999999998,7.40911313484387E-15));
#507=CARTESIAN_POINT('Origin',(-1.79075606008086E-12,23.2499999999999,0.));
#508=CARTESIAN_POINT('',(60.5000000000177,31.9999999999997,7.40911313484387E-15));
#509=CARTESIAN_POINT('Origin',(-19.049994000005,23.25,0.));
#510=CARTESIAN_POINT('',(19.0499939999991,23.2499999999999,2.33295141758774E-15));
#511=CARTESIAN_POINT('Origin',(-1.79075606008086E-12,23.25,0.));
#512=CARTESIAN_POINT('Origin',(-1.81040873157956E-12,14.1783053565413,0.));
#513=CARTESIAN_POINT('',(19.0499939999991,5.10661071308255,2.33295141758774E-15));
#514=CARTESIAN_POINT('Origin',(-1.83006140307825E-12,5.1066107130826,0.));
#515=CARTESIAN_POINT('',(19.0499939999991,14.1783053565413,2.33295141758774E-15));
#516=CARTESIAN_POINT('Origin',(-1.832505744325E-12,3.97830012200757,0.));
#517=CARTESIAN_POINT('',(25.2500039999959,2.84998953093312,3.09223365770551E-15));
#518=CARTESIAN_POINT('Origin',(-1.83495008557174E-12,2.84998953093318,0.));
#519=CARTESIAN_POINT('',(22.1499989999962,3.97830012200752,2.71259253764647E-15));
#520=CARTESIAN_POINT('Origin',(-1.83803715531051E-12,1.42499476546295,0.));
#521=CARTESIAN_POINT('',(25.2500039999959,-7.35606020541013E-12,3.0922336577055E-15));
#522=CARTESIAN_POINT('Origin',(-1.84112422504927E-12,-7.30082660993503E-12,
0.));
#523=CARTESIAN_POINT('',(25.2500039999959,1.42499476546289,3.0922336577055E-15));
#524=CARTESIAN_POINT('Origin',(0.,0.,0.));
#525=UNCERTAINTY_MEASURE_WITH_UNIT(LENGTH_MEASURE(0.01),#529,
'DISTANCE_ACCURACY_VALUE',
'Maximum model space distance between geometric entities at asserted c
onnectivities');
#526=UNCERTAINTY_MEASURE_WITH_UNIT(LENGTH_MEASURE(0.01),#529,
'DISTANCE_ACCURACY_VALUE',
'Maximum model space distance between geometric entities at asserted c
onnectivities');
#527=(
GEOMETRIC_REPRESENTATION_CONTEXT(3)
GLOBAL_UNCERTAINTY_ASSIGNED_CONTEXT((#525))
GLOBAL_UNIT_ASSIGNED_CONTEXT((#529,#531,#532))
REPRESENTATION_CONTEXT('','3D')
);
#528=(
GEOMETRIC_REPRESENTATION_CONTEXT(3)
GLOBAL_UNCERTAINTY_ASSIGNED_CONTEXT((#526))
GLOBAL_UNIT_ASSIGNED_CONTEXT((#529,#531,#532))
REPRESENTATION_CONTEXT('','3D')
);
#529=(
LENGTH_UNIT()
NAMED_UNIT(*)
SI_UNIT(.MILLI.,.METRE.)
);
#530=(
LENGTH_UNIT()
NAMED_UNIT(*)
SI_UNIT(.CENTI.,.METRE.)
);
#531=(
NAMED_UNIT(*)
PLANE_ANGLE_UNIT()
SI_UNIT($,.RADIAN.)
);
#532=(
NAMED_UNIT(*)
SI_UNIT($,.STERADIAN.)
SOLID_ANGLE_UNIT()
);
#533=SHAPE_DEFINITION_REPRESENTATION(#534,#535);
#534=PRODUCT_DEFINITION_SHAPE('',$,#537);
#535=SHAPE_REPRESENTATION('',(#292),#527);
#536=PRODUCT_DEFINITION_CONTEXT('part definition',#541,'design');
#537=PRODUCT_DEFINITION('Part10','Part10',#538,#536);
#538=PRODUCT_DEFINITION_FORMATION('',$,#543);
#539=PRODUCT_RELATED_PRODUCT_CATEGORY('Part10','Part10',(#543));
#540=APPLICATION_PROTOCOL_DEFINITION('international standard',
'automotive_design',2009,#541);
#541=APPLICATION_CONTEXT(
'Core Data for Automotive Mechanical Design Process');
#542=PRODUCT_CONTEXT('part definition',#541,'mechanical');
#543=PRODUCT('Part10','Part10',$,(#542));
#544=PRESENTATION_STYLE_ASSIGNMENT((#546));
#545=PRESENTATION_STYLE_ASSIGNMENT((#547));
#546=SURFACE_STYLE_USAGE(.BOTH.,#552);
#547=SURFACE_STYLE_USAGE(.BOTH.,#553);
#548=SURFACE_STYLE_RENDERING_WITH_PROPERTIES($,#560,(#550));
#549=SURFACE_STYLE_RENDERING_WITH_PROPERTIES($,#561,(#551));
#550=SURFACE_STYLE_TRANSPARENT(0.);
#551=SURFACE_STYLE_TRANSPARENT(0.);
#552=SURFACE_SIDE_STYLE('',(#554,#548));
#553=SURFACE_SIDE_STYLE('',(#555,#549));
#554=SURFACE_STYLE_FILL_AREA(#556);
#555=SURFACE_STYLE_FILL_AREA(#557);
#556=FILL_AREA_STYLE('',(#558));
#557=FILL_AREA_STYLE('',(#559));
#558=FILL_AREA_STYLE_COLOUR('',#560);
#559=FILL_AREA_STYLE_COLOUR('',#561);
#560=COLOUR_RGB('',0.749019607843137,0.749019607843137,0.749019607843137);
#561=COLOUR_RGB('',0.749019607843137,0.749019607843137,0.749019607843137);
ENDSEC;
END-ISO-10303-21;
