ISO-10303-21;
HEADER;
/* Generated by software containing ST-Developer
 * from STEP Tools, Inc. (www.steptools.com) 
 */

FILE_DESCRIPTION(
/* description */ (''),
/* implementation_level */ '2;1');

FILE_NAME(
/* name */ 'CVSE-10-1.stp',
/* time_stamp */ '2024-04-02T15:48:28+09:00',
/* author */ ('autocad33'),
/* organization */ (''),
/* preprocessor_version */ 'ST-DEVELOPER v19.2',
/* originating_system */ 'Autodesk Inventor 2023',
/* authorisation */ '');

FILE_SCHEMA (('AUTOMOTIVE_DESIGN { 1 0 10303 214 3 1 1 }'));
ENDSEC;

DATA;
#10=MECHANICAL_DESIGN_GEOMETRIC_PRESENTATION_REPRESENTATION('',(#239,#240,
#241,#242,#243,#244,#245,#246,#247,#248,#249,#250,#251,#252,#253,#254,#255,
#256,#257),#528);
#11=SHAPE_REPRESENTATION_RELATIONSHIP('SRR','None',#535,#12);
#12=ADVANCED_BREP_SHAPE_REPRESENTATION('',(#13),#527);
#13=MANIFOLD_SOLID_BREP('\X2\30BD30EA30C330C9\X0\1',#276);
#14=TOROIDAL_SURFACE('',#313,21.0000002262015,12.);
#15=FACE_BOUND('',#56,.T.);
#16=FACE_BOUND('',#61,.T.);
#17=FACE_BOUND('',#64,.T.);
#18=FACE_BOUND('',#69,.T.);
#19=B_SPLINE_CURVE_WITH_KNOTS('',3,(#450,#451,#452,#453,#454,#455,#456,
#457,#458,#459,#460,#461,#462,#463,#464,#465),.UNSPECIFIED.,.F.,.F.,(4,
2,2,2,2,2,2,4),(-6.43375692613738,-6.23576505699129,-5.79238991582367,-5.24211093404797,
-4.68762517850388,-4.21792735226743,-4.00874772209292,-3.92869229590363),
 .UNSPECIFIED.);
#20=B_SPLINE_CURVE_WITH_KNOTS('',3,(#471,#472,#473,#474,#475,#476,#477,
#478,#479,#480,#481,#482,#483,#484,#485,#486),.UNSPECIFIED.,.F.,.F.,(4,
2,2,2,2,2,2,4),(-3.92869229590363,-3.85068463687813,-3.64305017445665,-3.08959158175197,
-2.46407999052637,-1.9775972563452,-1.57836310703783,-1.43677710377422),
 .UNSPECIFIED.);
#21=CONICAL_SURFACE('',#304,18.9749969999947,1.22172900946492);
#22=CONICAL_SURFACE('',#327,18.9750036708895,1.22173096121172);
#23=PLANE('',#296);
#24=PLANE('',#300);
#25=PLANE('',#309);
#26=PLANE('',#310);
#27=PLANE('',#319);
#28=PLANE('',#323);
#29=PLANE('',#331);
#30=FACE_OUTER_BOUND('',#48,.T.);
#31=FACE_OUTER_BOUND('',#49,.T.);
#32=FACE_OUTER_BOUND('',#50,.T.);
#33=FACE_OUTER_BOUND('',#51,.T.);
#34=FACE_OUTER_BOUND('',#52,.T.);
#35=FACE_OUTER_BOUND('',#53,.T.);
#36=FACE_OUTER_BOUND('',#54,.T.);
#37=FACE_OUTER_BOUND('',#55,.T.);
#38=FACE_OUTER_BOUND('',#57,.T.);
#39=FACE_OUTER_BOUND('',#58,.T.);
#40=FACE_OUTER_BOUND('',#59,.T.);
#41=FACE_OUTER_BOUND('',#60,.T.);
#42=FACE_OUTER_BOUND('',#62,.T.);
#43=FACE_OUTER_BOUND('',#63,.T.);
#44=FACE_OUTER_BOUND('',#65,.T.);
#45=FACE_OUTER_BOUND('',#66,.T.);
#46=FACE_OUTER_BOUND('',#67,.T.);
#47=FACE_OUTER_BOUND('',#68,.T.);
#48=EDGE_LOOP('',(#165,#166,#167,#168));
#49=EDGE_LOOP('',(#169));
#50=EDGE_LOOP('',(#170,#171,#172,#173));
#51=EDGE_LOOP('',(#174));
#52=EDGE_LOOP('',(#175,#176,#177,#178));
#53=EDGE_LOOP('',(#179,#180,#181,#182));
#54=EDGE_LOOP('',(#183,#184,#185,#186,#187,#188,#189));
#55=EDGE_LOOP('',(#190));
#56=EDGE_LOOP('',(#191));
#57=EDGE_LOOP('',(#192,#193,#194,#195));
#58=EDGE_LOOP('',(#196,#197,#198,#199,#200,#201,#202,#203));
#59=EDGE_LOOP('',(#204,#205,#206,#207,#208));
#60=EDGE_LOOP('',(#209));
#61=EDGE_LOOP('',(#210));
#62=EDGE_LOOP('',(#211,#212,#213,#214));
#63=EDGE_LOOP('',(#215));
#64=EDGE_LOOP('',(#216));
#65=EDGE_LOOP('',(#217,#218,#219,#220));
#66=EDGE_LOOP('',(#221,#222,#223,#224));
#67=EDGE_LOOP('',(#225,#226,#227,#228));
#68=EDGE_LOOP('',(#229));
#69=EDGE_LOOP('',(#230));
#70=LINE('',#427,#80);
#71=LINE('',#434,#81);
#72=LINE('',#441,#82);
#73=LINE('',#446,#83);
#74=LINE('',#468,#84);
#75=LINE('',#501,#85);
#76=LINE('',#508,#86);
#77=LINE('',#515,#87);
#78=LINE('',#519,#88);
#79=LINE('',#523,#89);
#80=VECTOR('',#338,11.5);
#81=VECTOR('',#347,11.5);
#82=VECTOR('',#356,25.250001999996);
#83=VECTOR('',#363,18.9749969999947);
#84=VECTOR('',#368,12.6999919999946);
#85=VECTOR('',#391,33.0000001327934);
#86=VECTOR('',#400,45.75);
#87=VECTOR('',#409,12.7000036708897);
#88=VECTOR('',#414,18.9750036708895);
#89=VECTOR('',#419,25.2500036708899);
#90=CIRCLE('',#294,11.5);
#91=CIRCLE('',#295,11.5);
#92=CIRCLE('',#298,11.5);
#93=CIRCLE('',#299,11.5);
#94=CIRCLE('',#302,25.2500019999948);
#95=CIRCLE('',#303,25.2500019999972);
#96=CIRCLE('',#305,12.6999919999945);
#97=CIRCLE('',#307,12.6999919999946);
#98=CIRCLE('',#308,12.6999919999946);
#99=CIRCLE('',#311,21.0000002262021);
#100=CIRCLE('',#312,21.0000002262021);
#101=CIRCLE('',#314,33.0000002262015);
#102=CIRCLE('',#315,33.0000002262015);
#103=CIRCLE('',#316,12.);
#104=CIRCLE('',#318,33.000000039385);
#105=CIRCLE('',#320,45.7499999999999);
#106=CIRCLE('',#322,45.75);
#107=CIRCLE('',#324,12.7000036708903);
#108=CIRCLE('',#326,12.7000036708892);
#109=CIRCLE('',#328,25.2500036708901);
#110=CIRCLE('',#330,25.2500036708897);
#111=VERTEX_POINT('',#424);
#112=VERTEX_POINT('',#426);
#113=VERTEX_POINT('',#431);
#114=VERTEX_POINT('',#433);
#115=VERTEX_POINT('',#438);
#116=VERTEX_POINT('',#440);
#117=VERTEX_POINT('',#444);
#118=VERTEX_POINT('',#448);
#119=VERTEX_POINT('',#449);
#120=VERTEX_POINT('',#466);
#121=VERTEX_POINT('',#469);
#122=VERTEX_POINT('',#489);
#123=VERTEX_POINT('',#493);
#124=VERTEX_POINT('',#494);
#125=VERTEX_POINT('',#499);
#126=VERTEX_POINT('',#503);
#127=VERTEX_POINT('',#506);
#128=VERTEX_POINT('',#510);
#129=VERTEX_POINT('',#513);
#130=VERTEX_POINT('',#517);
#131=VERTEX_POINT('',#521);
#132=EDGE_CURVE('',#111,#111,#90,.T.);
#133=EDGE_CURVE('',#111,#112,#70,.T.);
#134=EDGE_CURVE('',#112,#112,#91,.T.);
#135=EDGE_CURVE('',#113,#113,#92,.T.);
#136=EDGE_CURVE('',#113,#114,#71,.T.);
#137=EDGE_CURVE('',#114,#114,#93,.T.);
#138=EDGE_CURVE('',#115,#115,#94,.T.);
#139=EDGE_CURVE('',#115,#116,#72,.T.);
#140=EDGE_CURVE('',#116,#116,#95,.T.);
#141=EDGE_CURVE('',#117,#117,#96,.T.);
#142=EDGE_CURVE('',#117,#115,#73,.T.);
#143=EDGE_CURVE('',#118,#119,#19,.T.);
#144=EDGE_CURVE('',#120,#118,#97,.T.);
#145=EDGE_CURVE('',#120,#117,#74,.T.);
#146=EDGE_CURVE('',#121,#120,#98,.T.);
#147=EDGE_CURVE('',#119,#121,#20,.T.);
#148=EDGE_CURVE('',#122,#118,#99,.T.);
#149=EDGE_CURVE('',#121,#122,#100,.T.);
#150=EDGE_CURVE('',#123,#124,#101,.T.);
#151=EDGE_CURVE('',#124,#123,#102,.T.);
#152=EDGE_CURVE('',#124,#122,#103,.T.);
#153=EDGE_CURVE('',#125,#125,#104,.T.);
#154=EDGE_CURVE('',#125,#123,#75,.T.);
#155=EDGE_CURVE('',#126,#126,#105,.T.);
#156=EDGE_CURVE('',#127,#127,#106,.T.);
#157=EDGE_CURVE('',#127,#126,#76,.T.);
#158=EDGE_CURVE('',#128,#128,#107,.T.);
#159=EDGE_CURVE('',#129,#129,#108,.T.);
#160=EDGE_CURVE('',#129,#128,#77,.T.);
#161=EDGE_CURVE('',#130,#130,#109,.T.);
#162=EDGE_CURVE('',#130,#129,#78,.T.);
#163=EDGE_CURVE('',#131,#131,#110,.T.);
#164=EDGE_CURVE('',#131,#130,#79,.T.);
#165=ORIENTED_EDGE('',*,*,#132,.F.);
#166=ORIENTED_EDGE('',*,*,#133,.T.);
#167=ORIENTED_EDGE('',*,*,#134,.T.);
#168=ORIENTED_EDGE('',*,*,#133,.F.);
#169=ORIENTED_EDGE('',*,*,#134,.F.);
#170=ORIENTED_EDGE('',*,*,#135,.F.);
#171=ORIENTED_EDGE('',*,*,#136,.T.);
#172=ORIENTED_EDGE('',*,*,#137,.T.);
#173=ORIENTED_EDGE('',*,*,#136,.F.);
#174=ORIENTED_EDGE('',*,*,#137,.F.);
#175=ORIENTED_EDGE('',*,*,#138,.F.);
#176=ORIENTED_EDGE('',*,*,#139,.T.);
#177=ORIENTED_EDGE('',*,*,#140,.T.);
#178=ORIENTED_EDGE('',*,*,#139,.F.);
#179=ORIENTED_EDGE('',*,*,#141,.F.);
#180=ORIENTED_EDGE('',*,*,#142,.T.);
#181=ORIENTED_EDGE('',*,*,#138,.T.);
#182=ORIENTED_EDGE('',*,*,#142,.F.);
#183=ORIENTED_EDGE('',*,*,#143,.F.);
#184=ORIENTED_EDGE('',*,*,#144,.F.);
#185=ORIENTED_EDGE('',*,*,#145,.T.);
#186=ORIENTED_EDGE('',*,*,#141,.T.);
#187=ORIENTED_EDGE('',*,*,#145,.F.);
#188=ORIENTED_EDGE('',*,*,#146,.F.);
#189=ORIENTED_EDGE('',*,*,#147,.F.);
#190=ORIENTED_EDGE('',*,*,#140,.F.);
#191=ORIENTED_EDGE('',*,*,#132,.T.);
#192=ORIENTED_EDGE('',*,*,#146,.T.);
#193=ORIENTED_EDGE('',*,*,#144,.T.);
#194=ORIENTED_EDGE('',*,*,#148,.F.);
#195=ORIENTED_EDGE('',*,*,#149,.F.);
#196=ORIENTED_EDGE('',*,*,#150,.F.);
#197=ORIENTED_EDGE('',*,*,#151,.F.);
#198=ORIENTED_EDGE('',*,*,#152,.T.);
#199=ORIENTED_EDGE('',*,*,#148,.T.);
#200=ORIENTED_EDGE('',*,*,#143,.T.);
#201=ORIENTED_EDGE('',*,*,#147,.T.);
#202=ORIENTED_EDGE('',*,*,#149,.T.);
#203=ORIENTED_EDGE('',*,*,#152,.F.);
#204=ORIENTED_EDGE('',*,*,#153,.F.);
#205=ORIENTED_EDGE('',*,*,#154,.T.);
#206=ORIENTED_EDGE('',*,*,#150,.T.);
#207=ORIENTED_EDGE('',*,*,#151,.T.);
#208=ORIENTED_EDGE('',*,*,#154,.F.);
#209=ORIENTED_EDGE('',*,*,#155,.F.);
#210=ORIENTED_EDGE('',*,*,#153,.T.);
#211=ORIENTED_EDGE('',*,*,#156,.F.);
#212=ORIENTED_EDGE('',*,*,#157,.T.);
#213=ORIENTED_EDGE('',*,*,#155,.T.);
#214=ORIENTED_EDGE('',*,*,#157,.F.);
#215=ORIENTED_EDGE('',*,*,#156,.T.);
#216=ORIENTED_EDGE('',*,*,#158,.F.);
#217=ORIENTED_EDGE('',*,*,#159,.F.);
#218=ORIENTED_EDGE('',*,*,#160,.T.);
#219=ORIENTED_EDGE('',*,*,#158,.T.);
#220=ORIENTED_EDGE('',*,*,#160,.F.);
#221=ORIENTED_EDGE('',*,*,#161,.F.);
#222=ORIENTED_EDGE('',*,*,#162,.T.);
#223=ORIENTED_EDGE('',*,*,#159,.T.);
#224=ORIENTED_EDGE('',*,*,#162,.F.);
#225=ORIENTED_EDGE('',*,*,#163,.F.);
#226=ORIENTED_EDGE('',*,*,#164,.T.);
#227=ORIENTED_EDGE('',*,*,#161,.T.);
#228=ORIENTED_EDGE('',*,*,#164,.F.);
#229=ORIENTED_EDGE('',*,*,#163,.T.);
#230=ORIENTED_EDGE('',*,*,#135,.T.);
#231=CYLINDRICAL_SURFACE('',#293,11.5);
#232=CYLINDRICAL_SURFACE('',#297,11.5);
#233=CYLINDRICAL_SURFACE('',#301,25.250001999996);
#234=CYLINDRICAL_SURFACE('',#306,12.6999919999946);
#235=CYLINDRICAL_SURFACE('',#317,33.0000001327934);
#236=CYLINDRICAL_SURFACE('',#321,45.75);
#237=CYLINDRICAL_SURFACE('',#325,12.7000036708897);
#238=CYLINDRICAL_SURFACE('',#329,25.2500036708899);
#239=STYLED_ITEM('',(#545),#258);
#240=STYLED_ITEM('',(#545),#259);
#241=STYLED_ITEM('',(#545),#260);
#242=STYLED_ITEM('',(#545),#261);
#243=STYLED_ITEM('',(#545),#262);
#244=STYLED_ITEM('',(#545),#263);
#245=STYLED_ITEM('',(#545),#264);
#246=STYLED_ITEM('',(#545),#265);
#247=STYLED_ITEM('',(#545),#266);
#248=STYLED_ITEM('',(#545),#267);
#249=STYLED_ITEM('',(#545),#268);
#250=STYLED_ITEM('',(#545),#269);
#251=STYLED_ITEM('',(#545),#270);
#252=STYLED_ITEM('',(#545),#271);
#253=STYLED_ITEM('',(#545),#272);
#254=STYLED_ITEM('',(#545),#273);
#255=STYLED_ITEM('',(#545),#274);
#256=STYLED_ITEM('',(#545),#275);
#257=STYLED_ITEM('',(#544),#13);
#258=ADVANCED_FACE('',(#30),#231,.F.);
#259=ADVANCED_FACE('',(#31),#23,.T.);
#260=ADVANCED_FACE('',(#32),#232,.F.);
#261=ADVANCED_FACE('',(#33),#24,.T.);
#262=ADVANCED_FACE('',(#34),#233,.T.);
#263=ADVANCED_FACE('',(#35),#21,.T.);
#264=ADVANCED_FACE('',(#36),#234,.T.);
#265=ADVANCED_FACE('',(#37,#15),#25,.T.);
#266=ADVANCED_FACE('',(#38),#26,.T.);
#267=ADVANCED_FACE('',(#39),#14,.T.);
#268=ADVANCED_FACE('',(#40),#235,.T.);
#269=ADVANCED_FACE('',(#41,#16),#27,.T.);
#270=ADVANCED_FACE('',(#42),#236,.T.);
#271=ADVANCED_FACE('',(#43,#17),#28,.T.);
#272=ADVANCED_FACE('',(#44),#237,.T.);
#273=ADVANCED_FACE('',(#45),#22,.T.);
#274=ADVANCED_FACE('',(#46),#238,.T.);
#275=ADVANCED_FACE('',(#47,#18),#29,.T.);
#276=CLOSED_SHELL('',(#258,#259,#260,#261,#262,#263,#264,#265,#266,#267,
#268,#269,#270,#271,#272,#273,#274,#275));
#277=DERIVED_UNIT_ELEMENT(#280,1.);
#278=DERIVED_UNIT_ELEMENT(#530,-3.);
#279=DIMENSIONAL_EXPONENTS(0.,1.,0.,0.,0.,0.,0.);
#280=(
CONVERSION_BASED_UNIT('gram',#282)
MASS_UNIT()
NAMED_UNIT(#279)
);
#281=(
MASS_UNIT()
NAMED_UNIT(*)
SI_UNIT(.KILO.,.GRAM.)
);
#282=MASS_MEASURE_WITH_UNIT(MASS_MEASURE(0.001),#281);
#283=DERIVED_UNIT((#277,#278));
#284=MEASURE_REPRESENTATION_ITEM('density measure',
POSITIVE_RATIO_MEASURE(1.),#283);
#285=PROPERTY_DEFINITION_REPRESENTATION(#290,#287);
#286=PROPERTY_DEFINITION_REPRESENTATION(#291,#288);
#287=REPRESENTATION('material name',(#289),#527);
#288=REPRESENTATION('density',(#284),#527);
#289=DESCRIPTIVE_REPRESENTATION_ITEM('\X2\4E00822C\X0\','\X2\4E00822C\X0\');
#290=PROPERTY_DEFINITION('material property','material name',#537);
#291=PROPERTY_DEFINITION('material property','density of part',#537);
#292=AXIS2_PLACEMENT_3D('',#422,#332,#333);
#293=AXIS2_PLACEMENT_3D('',#423,#334,#335);
#294=AXIS2_PLACEMENT_3D('',#425,#336,#337);
#295=AXIS2_PLACEMENT_3D('',#428,#339,#340);
#296=AXIS2_PLACEMENT_3D('',#429,#341,#342);
#297=AXIS2_PLACEMENT_3D('',#430,#343,#344);
#298=AXIS2_PLACEMENT_3D('',#432,#345,#346);
#299=AXIS2_PLACEMENT_3D('',#435,#348,#349);
#300=AXIS2_PLACEMENT_3D('',#436,#350,#351);
#301=AXIS2_PLACEMENT_3D('',#437,#352,#353);
#302=AXIS2_PLACEMENT_3D('',#439,#354,#355);
#303=AXIS2_PLACEMENT_3D('',#442,#357,#358);
#304=AXIS2_PLACEMENT_3D('',#443,#359,#360);
#305=AXIS2_PLACEMENT_3D('',#445,#361,#362);
#306=AXIS2_PLACEMENT_3D('',#447,#364,#365);
#307=AXIS2_PLACEMENT_3D('',#467,#366,#367);
#308=AXIS2_PLACEMENT_3D('',#470,#369,#370);
#309=AXIS2_PLACEMENT_3D('',#487,#371,#372);
#310=AXIS2_PLACEMENT_3D('',#488,#373,#374);
#311=AXIS2_PLACEMENT_3D('',#490,#375,#376);
#312=AXIS2_PLACEMENT_3D('',#491,#377,#378);
#313=AXIS2_PLACEMENT_3D('',#492,#379,#380);
#314=AXIS2_PLACEMENT_3D('',#495,#381,#382);
#315=AXIS2_PLACEMENT_3D('',#496,#383,#384);
#316=AXIS2_PLACEMENT_3D('',#497,#385,#386);
#317=AXIS2_PLACEMENT_3D('',#498,#387,#388);
#318=AXIS2_PLACEMENT_3D('',#500,#389,#390);
#319=AXIS2_PLACEMENT_3D('',#502,#392,#393);
#320=AXIS2_PLACEMENT_3D('',#504,#394,#395);
#321=AXIS2_PLACEMENT_3D('',#505,#396,#397);
#322=AXIS2_PLACEMENT_3D('',#507,#398,#399);
#323=AXIS2_PLACEMENT_3D('',#509,#401,#402);
#324=AXIS2_PLACEMENT_3D('',#511,#403,#404);
#325=AXIS2_PLACEMENT_3D('',#512,#405,#406);
#326=AXIS2_PLACEMENT_3D('',#514,#407,#408);
#327=AXIS2_PLACEMENT_3D('',#516,#410,#411);
#328=AXIS2_PLACEMENT_3D('',#518,#412,#413);
#329=AXIS2_PLACEMENT_3D('',#520,#415,#416);
#330=AXIS2_PLACEMENT_3D('',#522,#417,#418);
#331=AXIS2_PLACEMENT_3D('',#524,#420,#421);
#332=DIRECTION('axis',(0.,0.,1.));
#333=DIRECTION('refdir',(1.,0.,0.));
#334=DIRECTION('center_axis',(0.,-1.,0.));
#335=DIRECTION('ref_axis',(1.,0.,0.));
#336=DIRECTION('center_axis',(0.,-1.,0.));
#337=DIRECTION('ref_axis',(1.,0.,0.));
#338=DIRECTION('',(0.,-1.,0.));
#339=DIRECTION('center_axis',(0.,-1.,0.));
#340=DIRECTION('ref_axis',(1.,0.,0.));
#341=DIRECTION('center_axis',(0.,1.,0.));
#342=DIRECTION('ref_axis',(0.,0.,1.));
#343=DIRECTION('center_axis',(-6.09192314861804E-14,1.,0.));
#344=DIRECTION('ref_axis',(1.,6.09192314861804E-14,0.));
#345=DIRECTION('center_axis',(-6.09036648614081E-14,1.,0.));
#346=DIRECTION('ref_axis',(1.,6.09192314861804E-14,0.));
#347=DIRECTION('',(-6.09192314861804E-14,1.,0.));
#348=DIRECTION('center_axis',(-6.09036648614081E-14,1.,0.));
#349=DIRECTION('ref_axis',(1.,6.09036648614081E-14,0.));
#350=DIRECTION('center_axis',(6.09036648614081E-14,-1.,0.));
#351=DIRECTION('ref_axis',(0.,0.,-1.));
#352=DIRECTION('center_axis',(0.,-1.,0.));
#353=DIRECTION('ref_axis',(-1.,0.,0.));
#354=DIRECTION('center_axis',(0.,-1.,0.));
#355=DIRECTION('ref_axis',(1.,0.,0.));
#356=DIRECTION('',(0.,1.,0.));
#357=DIRECTION('center_axis',(0.,-1.,0.));
#358=DIRECTION('ref_axis',(1.,0.,0.));
#359=DIRECTION('center_axis',(0.,1.,0.));
#360=DIRECTION('ref_axis',(-1.,0.,0.));
#361=DIRECTION('center_axis',(0.,-1.,0.));
#362=DIRECTION('ref_axis',(1.,0.,0.));
#363=DIRECTION('',(0.939692119064908,0.342021521789641,1.15079094579683E-16));
#364=DIRECTION('center_axis',(0.,-1.,0.));
#365=DIRECTION('ref_axis',(-1.,0.,0.));
#366=DIRECTION('center_axis',(6.09036648614081E-14,-1.,0.));
#367=DIRECTION('ref_axis',(-1.,0.,0.));
#368=DIRECTION('',(0.,1.,0.));
#369=DIRECTION('center_axis',(6.09036648614081E-14,-1.,0.));
#370=DIRECTION('ref_axis',(-1.,0.,0.));
#371=DIRECTION('center_axis',(0.,1.,0.));
#372=DIRECTION('ref_axis',(0.,0.,1.));
#373=DIRECTION('center_axis',(-6.09036648614081E-14,1.,0.));
#374=DIRECTION('ref_axis',(0.,0.,1.));
#375=DIRECTION('center_axis',(6.09036648614081E-14,-1.,0.));
#376=DIRECTION('ref_axis',(1.,6.09036648614081E-14,0.));
#377=DIRECTION('center_axis',(6.09036648614081E-14,-1.,0.));
#378=DIRECTION('ref_axis',(1.,6.09036648614081E-14,0.));
#379=DIRECTION('center_axis',(6.09036648614081E-14,-1.,0.));
#380=DIRECTION('ref_axis',(0.,0.,-1.));
#381=DIRECTION('center_axis',(6.09036648614081E-14,-1.,0.));
#382=DIRECTION('ref_axis',(1.,6.09036648614081E-14,0.));
#383=DIRECTION('center_axis',(6.09036648614081E-14,-1.,0.));
#384=DIRECTION('ref_axis',(1.,6.09036648614081E-14,0.));
#385=DIRECTION('center_axis',(-1.,-6.09036648614081E-14,-1.22464679914735E-16));
#386=DIRECTION('ref_axis',(-1.22464679914735E-16,0.,1.));
#387=DIRECTION('center_axis',(6.09036648614081E-14,-1.,0.));
#388=DIRECTION('ref_axis',(1.,6.09376020365059E-14,0.));
#389=DIRECTION('center_axis',(6.09036648614081E-14,-1.,0.));
#390=DIRECTION('ref_axis',(1.,6.09036648614081E-14,0.));
#391=DIRECTION('',(-6.09036648614081E-14,1.,0.));
#392=DIRECTION('center_axis',(-6.09036648614081E-14,1.,0.));
#393=DIRECTION('ref_axis',(0.,0.,1.));
#394=DIRECTION('center_axis',(6.09036648614081E-14,-1.,0.));
#395=DIRECTION('ref_axis',(1.,6.09036648614081E-14,0.));
#396=DIRECTION('center_axis',(6.09036648614081E-14,-1.,0.));
#397=DIRECTION('ref_axis',(1.,6.09376020365059E-14,0.));
#398=DIRECTION('center_axis',(6.09036648614081E-14,-1.,0.));
#399=DIRECTION('ref_axis',(1.,6.09036648614081E-14,0.));
#400=DIRECTION('',(-6.09036648614081E-14,1.,0.));
#401=DIRECTION('center_axis',(6.09036648614081E-14,-1.,0.));
#402=DIRECTION('ref_axis',(0.,0.,-1.));
#403=DIRECTION('center_axis',(6.09036648614081E-14,-1.,0.));
#404=DIRECTION('ref_axis',(1.,6.0903664861408E-14,0.));
#405=DIRECTION('center_axis',(6.09036648614081E-14,-1.,0.));
#406=DIRECTION('ref_axis',(1.,6.09376020365059E-14,0.));
#407=DIRECTION('center_axis',(6.09036648614081E-14,-1.,0.));
#408=DIRECTION('ref_axis',(1.,6.09036648614081E-14,0.));
#409=DIRECTION('',(-6.09036648614081E-14,1.,0.));
#410=DIRECTION('center_axis',(6.09036648614081E-14,-1.,0.));
#411=DIRECTION('ref_axis',(1.,6.09376020365059E-14,0.));
#412=DIRECTION('center_axis',(6.09036648614081E-14,-1.,0.));
#413=DIRECTION('ref_axis',(1.,6.09036648614081E-14,0.));
#414=DIRECTION('',(0.939692786602509,0.34201968774796,1.15079176329464E-16));
#415=DIRECTION('center_axis',(6.09036648614081E-14,-1.,0.));
#416=DIRECTION('ref_axis',(1.,6.09376020365059E-14,0.));
#417=DIRECTION('center_axis',(6.09036648614081E-14,-1.,0.));
#418=DIRECTION('ref_axis',(1.,6.09036648614081E-14,0.));
#419=DIRECTION('',(-6.09036648614081E-14,1.,0.));
#420=DIRECTION('center_axis',(6.09036648614081E-14,-1.,0.));
#421=DIRECTION('ref_axis',(0.,0.,-1.));
#422=CARTESIAN_POINT('',(0.,0.,0.));
#423=CARTESIAN_POINT('Origin',(-19.4999942208707,115.000000000013,0.));
#424=CARTESIAN_POINT('',(-30.9999942208707,115.000000000013,-1.40834381901946E-15));
#425=CARTESIAN_POINT('Origin',(-19.4999942208707,115.000000000013,0.));
#426=CARTESIAN_POINT('',(-30.9999942208707,78.000000000013,-1.40834381901946E-15));
#427=CARTESIAN_POINT('',(-30.9999942208707,115.000000000013,-1.40834381901946E-15));
#428=CARTESIAN_POINT('Origin',(-19.4999942208707,78.000000000013,0.));
#429=CARTESIAN_POINT('Origin',(-19.4999942208707,78.000000000013,0.));
#430=CARTESIAN_POINT('Origin',(0.,3.33214041678746E-25,0.));
#431=CARTESIAN_POINT('',(-11.5,-7.00571162090741E-13,1.40834381901946E-15));
#432=CARTESIAN_POINT('Origin',(-5.23797599218519E-42,3.33300023984569E-25,
0.));
#433=CARTESIAN_POINT('',(-11.5000000000025,40.7499999999993,1.40834381901946E-15));
#434=CARTESIAN_POINT('',(-11.5,-7.00571162090741E-13,1.40834381901946E-15));
#435=CARTESIAN_POINT('Origin',(-2.48245868306185E-12,40.75,0.));
#436=CARTESIAN_POINT('Origin',(-2.48245868306185E-12,40.75,0.));
#437=CARTESIAN_POINT('Origin',(-19.4999942208707,113.575007416643,0.));
#438=CARTESIAN_POINT('',(5.75000777912528,112.150014833274,3.09223341277594E-15));
#439=CARTESIAN_POINT('Origin',(-19.4999942208707,112.150014833274,0.));
#440=CARTESIAN_POINT('',(5.75000777912528,115.000000000013,3.09223341277594E-15));
#441=CARTESIAN_POINT('',(5.75000777912528,113.575007416643,3.09223341277594E-15));
#442=CARTESIAN_POINT('Origin',(-19.4999942208707,115.000000000013,0.));
#443=CARTESIAN_POINT('Origin',(-19.4999942208707,109.86608936897,0.));
#444=CARTESIAN_POINT('',(-6.80000222087621,107.582163904667,1.55530045519903E-15));
#445=CARTESIAN_POINT('Origin',(-19.4999942208707,107.582163904667,0.));
#446=CARTESIAN_POINT('',(-0.524997220876067,109.86608936897,2.32376693398741E-15));
#447=CARTESIAN_POINT('Origin',(-19.4999942208707,94.9451646350297,0.));
#448=CARTESIAN_POINT('',(-16.9220559719035,89.9999971096445,12.4355953289113));
#449=CARTESIAN_POINT('',(-32.1999862208655,82.3081653653927,0.));
#450=CARTESIAN_POINT('Ctrl Pts',(-16.9220559719035,89.9999971096432,12.4355953289113));
#451=CARTESIAN_POINT('Ctrl Pts',(-17.5807802924876,89.9999971096432,12.5721509642986));
#452=CARTESIAN_POINT('Ctrl Pts',(-18.2507367814026,89.9533456186249,12.6563469255865));
#453=CARTESIAN_POINT('Ctrl Pts',(-20.4310704399606,89.6729434636543,12.755367780444));
#454=CARTESIAN_POINT('Ctrl Pts',(-21.9083014224325,89.2875647843607,12.5527809136379));
#455=CARTESIAN_POINT('Ctrl Pts',(-24.9953575093416,88.1713133291607,11.5887237055188));
#456=CARTESIAN_POINT('Ctrl Pts',(-26.5281278912397,87.3861806142083,10.7144782756893));
#457=CARTESIAN_POINT('Ctrl Pts',(-29.114250041457,85.6961989617989,8.47380536310297));
#458=CARTESIAN_POINT('Ctrl Pts',(-30.089956876291,84.8358784625957,7.16996238369815));
#459=CARTESIAN_POINT('Ctrl Pts',(-31.366928407929,83.4918318272926,4.70016620572055));
#460=CARTESIAN_POINT('Ctrl Pts',(-31.7688283102149,82.9477678641902,3.50288011920559));
#461=CARTESIAN_POINT('Ctrl Pts',(-32.0894158453127,82.4811047934498,1.75917274371703));
#462=CARTESIAN_POINT('Ctrl Pts',(-32.1548502807023,82.3788458398766,1.20944824421327));
#463=CARTESIAN_POINT('Ctrl Pts',(-32.1945312000588,82.31678168019,0.430297333703052));
#464=CARTESIAN_POINT('Ctrl Pts',(-32.1999862208654,82.3081653653449,0.215158342065515));
#465=CARTESIAN_POINT('Ctrl Pts',(-32.1999862208654,82.3081653653449,2.08166817117217E-16));
#466=CARTESIAN_POINT('',(-6.8000022208761,89.9999971096466,1.55530045519904E-15));
#467=CARTESIAN_POINT('Origin',(-19.4999942208707,89.9999971096458,0.));
#468=CARTESIAN_POINT('',(-6.8000022208761,94.9451646350297,1.55530045519904E-15));
#469=CARTESIAN_POINT('',(-16.9220559719035,89.9999971096445,-12.4355953289113));
#470=CARTESIAN_POINT('Origin',(-19.4999942208707,89.9999971096458,0.));
#471=CARTESIAN_POINT('Ctrl Pts',(-32.1999862208654,82.3081653653449,3.46944695195361E-16));
#472=CARTESIAN_POINT('Ctrl Pts',(-32.1999862208654,82.3081653653449,-0.209654727771421));
#473=CARTESIAN_POINT('Ctrl Pts',(-32.1948060997595,82.3163461581916,-0.41932782869103));
#474=CARTESIAN_POINT('Ctrl Pts',(-32.1566090881103,82.3761089382974,-1.18897596960786));
#475=CARTESIAN_POINT('Ctrl Pts',(-32.0926220767115,82.4761808473487,-1.73492878292893));
#476=CARTESIAN_POINT('Ctrl Pts',(-31.737277487281,82.9943554494132,-3.69199811583235));
#477=CARTESIAN_POINT('Ctrl Pts',(-31.2236645153431,83.6864148923017,-5.12410852479884));
#478=CARTESIAN_POINT('Ctrl Pts',(-29.5409108530367,85.3370242002961,-7.97179955762016));
#479=CARTESIAN_POINT('Ctrl Pts',(-28.2846528704743,86.3315742404294,-9.38102182656086));
#480=CARTESIAN_POINT('Ctrl Pts',(-25.390347521189,87.9606512442616,-11.3553010523342));
#481=CARTESIAN_POINT('Ctrl Pts',(-23.9442993598132,88.6044549544669,-12.0056048073669));
#482=CARTESIAN_POINT('Ctrl Pts',(-21.0866521668315,89.5013845474655,-12.6696903425113));
#483=CARTESIAN_POINT('Ctrl Pts',(-19.7304421583874,89.7994871813755,-12.7719016076659));
#484=CARTESIAN_POINT('Ctrl Pts',(-17.8781550249685,89.9757334715858,-12.6054150152039));
#485=CARTESIAN_POINT('Ctrl Pts',(-17.3968148592508,89.9999971096432,-12.5340143480542));
#486=CARTESIAN_POINT('Ctrl Pts',(-16.9220559719035,89.9999971096432,-12.4355953289113));
#487=CARTESIAN_POINT('Origin',(-44.749996220868,115.000000000013,0.));
#488=CARTESIAN_POINT('Origin',(21.0000002261967,89.9999971096458,0.));
#489=CARTESIAN_POINT('',(-5.45344959365561E-12,89.9999971096445,21.0000002262021));
#490=CARTESIAN_POINT('Origin',(-5.4508778353497E-12,89.9999971096445,0.));
#491=CARTESIAN_POINT('Origin',(-5.4508778353497E-12,89.9999971096445,0.));
#492=CARTESIAN_POINT('Origin',(-4.72003385701279E-12,77.9999971096443,0.));
#493=CARTESIAN_POINT('',(-33.0000001327981,77.9999970494597,-4.04133445344876E-15));
#494=CARTESIAN_POINT('',(-4.72407518781234E-12,77.9999970494617,33.0000002262015));
#495=CARTESIAN_POINT('Origin',(-4.72003385334745E-12,77.9999970494617,0.));
#496=CARTESIAN_POINT('Origin',(-4.72003385334745E-12,77.9999970494617,0.));
#497=CARTESIAN_POINT('Origin',(-4.7226056153187E-12,77.9999971096443,21.0000002262015));
#498=CARTESIAN_POINT('Origin',(-3.58570318515318E-12,59.3749985247335,0.));
#499=CARTESIAN_POINT('',(-33.0000001327958,40.7500000000032,-4.04133445344876E-15));
#500=CARTESIAN_POINT('Origin',(-2.45137251695891E-12,40.7500000000052,0.));
#501=CARTESIAN_POINT('',(-33.000000132797,59.3749985247315,-4.04133445344876E-15));
#502=CARTESIAN_POINT('Origin',(45.7499999999974,40.7500000000072,0.));
#503=CARTESIAN_POINT('',(-45.7500000000024,40.7500000000016,-5.60275910609913E-15));
#504=CARTESIAN_POINT('Origin',(-2.45137251695886E-12,40.7500000000044,0.));
#505=CARTESIAN_POINT('Origin',(-1.97936911428295E-12,33.0000000000044,0.));
#506=CARTESIAN_POINT('',(-45.7500000000015,25.2500000000015,-5.60275910609913E-15));
#507=CARTESIAN_POINT('Origin',(-1.50736571160703E-12,25.2500000000043,0.));
#508=CARTESIAN_POINT('',(-45.7500000000019,33.0000000000016,-5.60275910609913E-15));
#509=CARTESIAN_POINT('Origin',(12.7000036708888,25.2500000000071,0.));
#510=CARTESIAN_POINT('',(-12.7000036708912,25.2500000000055,-1.55530188447147E-15));
#511=CARTESIAN_POINT('Origin',(-1.50736571160715E-12,25.2500000000063,0.));
#512=CARTESIAN_POINT('Origin',(-9.64343445095564E-13,16.3339147734886,0.));
#513=CARTESIAN_POINT('',(-12.7000036708901,7.41782954697002,-1.55530188447147E-15));
#514=CARTESIAN_POINT('Origin',(-4.21321178583974E-13,7.41782954697079,0.));
#515=CARTESIAN_POINT('',(-12.7000036708906,16.3339147734878,-1.55530188447147E-15));
#516=CARTESIAN_POINT('Origin',(-2.8222270308662E-13,5.13391977218324,0.));
#517=CARTESIAN_POINT('',(-25.2500036708902,2.85000999739478,-3.09223361740144E-15));
#518=CARTESIAN_POINT('Origin',(-1.43124227589303E-13,2.85000999739632,0.));
#519=CARTESIAN_POINT('',(-18.9750036708898,5.13391977218209,-2.32376775093641E-15));
#520=CARTESIAN_POINT('Origin',(-5.63362007227579E-14,1.42500499869815,0.));
#521=CARTESIAN_POINT('',(-25.2500036708898,-1.55708779203678E-12,-3.09223361740142E-15));
#522=CARTESIAN_POINT('Origin',(3.0451826143786E-14,-1.77635683940025E-14,
0.));
#523=CARTESIAN_POINT('',(-25.2500036708899,1.42500499869661,-3.09223361740142E-15));
#524=CARTESIAN_POINT('Origin',(-5.47117906535277E-12,0.,0.));
#525=UNCERTAINTY_MEASURE_WITH_UNIT(LENGTH_MEASURE(0.01),#529,
'DISTANCE_ACCURACY_VALUE',
'Maximum model space distance between geometric entities at asserted c
onnectivities');
#526=UNCERTAINTY_MEASURE_WITH_UNIT(LENGTH_MEASURE(0.01),#529,
'DISTANCE_ACCURACY_VALUE',
'Maximum model space distance between geometric entities at asserted c
onnectivities');
#527=(
GEOMETRIC_REPRESENTATION_CONTEXT(3)
GLOBAL_UNCERTAINTY_ASSIGNED_CONTEXT((#525))
GLOBAL_UNIT_ASSIGNED_CONTEXT((#529,#531,#532))
REPRESENTATION_CONTEXT('','3D')
);
#528=(
GEOMETRIC_REPRESENTATION_CONTEXT(3)
GLOBAL_UNCERTAINTY_ASSIGNED_CONTEXT((#526))
GLOBAL_UNIT_ASSIGNED_CONTEXT((#529,#531,#532))
REPRESENTATION_CONTEXT('','3D')
);
#529=(
LENGTH_UNIT()
NAMED_UNIT(*)
SI_UNIT(.MILLI.,.METRE.)
);
#530=(
LENGTH_UNIT()
NAMED_UNIT(*)
SI_UNIT(.CENTI.,.METRE.)
);
#531=(
NAMED_UNIT(*)
PLANE_ANGLE_UNIT()
SI_UNIT($,.RADIAN.)
);
#532=(
NAMED_UNIT(*)
SI_UNIT($,.STERADIAN.)
SOLID_ANGLE_UNIT()
);
#533=SHAPE_DEFINITION_REPRESENTATION(#534,#535);
#534=PRODUCT_DEFINITION_SHAPE('',$,#537);
#535=SHAPE_REPRESENTATION('',(#292),#527);
#536=PRODUCT_DEFINITION_CONTEXT('part definition',#541,'design');
#537=PRODUCT_DEFINITION('Part9','Part9',#538,#536);
#538=PRODUCT_DEFINITION_FORMATION('',$,#543);
#539=PRODUCT_RELATED_PRODUCT_CATEGORY('Part9','Part9',(#543));
#540=APPLICATION_PROTOCOL_DEFINITION('international standard',
'automotive_design',2009,#541);
#541=APPLICATION_CONTEXT(
'Core Data for Automotive Mechanical Design Process');
#542=PRODUCT_CONTEXT('part definition',#541,'mechanical');
#543=PRODUCT('Part9','Part9',$,(#542));
#544=PRESENTATION_STYLE_ASSIGNMENT((#546));
#545=PRESENTATION_STYLE_ASSIGNMENT((#547));
#546=SURFACE_STYLE_USAGE(.BOTH.,#552);
#547=SURFACE_STYLE_USAGE(.BOTH.,#553);
#548=SURFACE_STYLE_RENDERING_WITH_PROPERTIES($,#560,(#550));
#549=SURFACE_STYLE_RENDERING_WITH_PROPERTIES($,#561,(#551));
#550=SURFACE_STYLE_TRANSPARENT(0.);
#551=SURFACE_STYLE_TRANSPARENT(0.);
#552=SURFACE_SIDE_STYLE('',(#554,#548));
#553=SURFACE_SIDE_STYLE('',(#555,#549));
#554=SURFACE_STYLE_FILL_AREA(#556);
#555=SURFACE_STYLE_FILL_AREA(#557);
#556=FILL_AREA_STYLE('',(#558));
#557=FILL_AREA_STYLE('',(#559));
#558=FILL_AREA_STYLE_COLOUR('',#560);
#559=FILL_AREA_STYLE_COLOUR('',#561);
#560=COLOUR_RGB('',0.749019607843137,0.749019607843137,0.749019607843137);
#561=COLOUR_RGB('',0.749019607843137,0.749019607843137,0.749019607843137);
ENDSEC;
END-ISO-10303-21;
