ISO-10303-21;
HEADER;
/* Generated by software containing ST-Developer
 * from STEP Tools, Inc. (www.steptools.com) 
 */

FILE_DESCRIPTION(
/* description */ (''),
/* implementation_level */ '2;1');

FILE_NAME(
/* name */ 'CVSE-04-1.stp',
/* time_stamp */ '2024-04-03T10:29:58+09:00',
/* author */ ('autocad33'),
/* organization */ (''),
/* preprocessor_version */ 'ST-DEVELOPER v19.2',
/* originating_system */ 'Autodesk Inventor 2023',
/* authorisation */ '');

FILE_SCHEMA (('AUTOMOTIVE_DESIGN { 1 0 10303 214 3 1 1 }'));
ENDSEC;

DATA;
#10=MECHANICAL_DESIGN_GEOMETRIC_PRESENTATION_REPRESENTATION('',(#13),#516);
#11=SHAPE_REPRESENTATION_RELATIONSHIP('SRR','None',#523,#12);
#12=ADVANCED_BREP_SHAPE_REPRESENTATION('',(#14),#515);
#13=STYLED_ITEM('',(#532),#14);
#14=MANIFOLD_SOLID_BREP('\X2\30BD30EA30C330C9\X0\1',#258);
#15=TOROIDAL_SURFACE('',#298,21.0000002048871,11.9999999999995);
#16=B_SPLINE_CURVE_WITH_KNOTS('',3,(#439,#440,#441,#442,#443,#444,#445,
#446,#447,#448,#449,#450,#451,#452,#453,#454),.UNSPECIFIED.,.F.,.F.,(4,
2,2,2,2,2,2,4),(-6.85371700112596,-6.43648568301393,-5.72020629844701,-4.86925544173612,
-3.88909846308597,-3.22342977892284,-2.8446643795581,-2.70297140511511),
 .UNSPECIFIED.);
#17=B_SPLINE_CURVE_WITH_KNOTS('',3,(#460,#461,#462,#463,#464,#465,#466,
#467,#468,#469,#470,#471,#472,#473,#474,#475),.UNSPECIFIED.,.F.,.F.,(4,
2,2,2,2,2,2,4),(-2.70297140511511,-2.66210224140197,-2.44978387157577,-1.8772251508444,
-1.20038661768594,-0.710985094906527,-0.326558143206393,0.),
 .UNSPECIFIED.);
#18=CONICAL_SURFACE('',#293,13.9250030517566,1.22173046488718);
#19=CONICAL_SURFACE('',#314,13.9250011600231,1.22173349794507);
#20=CONICAL_SURFACE('',#316,16.9999981082654,1.32752242019938E-6);
#21=FACE_BOUND('',#55,.T.);
#22=FACE_BOUND('',#62,.T.);
#23=FACE_BOUND('',#65,.T.);
#24=FACE_BOUND('',#70,.T.);
#25=PLANE('',#284);
#26=PLANE('',#288);
#27=PLANE('',#289);
#28=PLANE('',#306);
#29=PLANE('',#310);
#30=PLANE('',#318);
#31=PLANE('',#319);
#32=FACE_OUTER_BOUND('',#50,.T.);
#33=FACE_OUTER_BOUND('',#51,.T.);
#34=FACE_OUTER_BOUND('',#52,.T.);
#35=FACE_OUTER_BOUND('',#53,.T.);
#36=FACE_OUTER_BOUND('',#54,.T.);
#37=FACE_OUTER_BOUND('',#56,.T.);
#38=FACE_OUTER_BOUND('',#57,.T.);
#39=FACE_OUTER_BOUND('',#58,.T.);
#40=FACE_OUTER_BOUND('',#59,.T.);
#41=FACE_OUTER_BOUND('',#60,.T.);
#42=FACE_OUTER_BOUND('',#61,.T.);
#43=FACE_OUTER_BOUND('',#63,.T.);
#44=FACE_OUTER_BOUND('',#64,.T.);
#45=FACE_OUTER_BOUND('',#66,.T.);
#46=FACE_OUTER_BOUND('',#67,.T.);
#47=FACE_OUTER_BOUND('',#68,.T.);
#48=FACE_OUTER_BOUND('',#69,.T.);
#49=FACE_OUTER_BOUND('',#71,.T.);
#50=EDGE_LOOP('',(#167,#168,#169,#170));
#51=EDGE_LOOP('',(#171));
#52=EDGE_LOOP('',(#172,#173,#174,#175));
#53=EDGE_LOOP('',(#176));
#54=EDGE_LOOP('',(#177));
#55=EDGE_LOOP('',(#178));
#56=EDGE_LOOP('',(#179,#180,#181,#182));
#57=EDGE_LOOP('',(#183,#184,#185,#186));
#58=EDGE_LOOP('',(#187,#188,#189,#190,#191,#192,#193));
#59=EDGE_LOOP('',(#194,#195,#196,#197,#198,#199,#200,#201));
#60=EDGE_LOOP('',(#202,#203,#204,#205,#206));
#61=EDGE_LOOP('',(#207));
#62=EDGE_LOOP('',(#208));
#63=EDGE_LOOP('',(#209,#210,#211,#212));
#64=EDGE_LOOP('',(#213));
#65=EDGE_LOOP('',(#214));
#66=EDGE_LOOP('',(#215,#216,#217,#218));
#67=EDGE_LOOP('',(#219,#220,#221,#222));
#68=EDGE_LOOP('',(#223,#224,#225,#226));
#69=EDGE_LOOP('',(#227));
#70=EDGE_LOOP('',(#228));
#71=EDGE_LOOP('',(#229,#230,#231,#232));
#72=LINE('',#415,#82);
#73=LINE('',#422,#83);
#74=LINE('',#431,#84);
#75=LINE('',#435,#85);
#76=LINE('',#457,#86);
#77=LINE('',#488,#87);
#78=LINE('',#495,#88);
#79=LINE('',#502,#89);
#80=LINE('',#506,#90);
#81=LINE('',#510,#91);
#82=VECTOR('',#326,9.2);
#83=VECTOR('',#335,9.2);
#84=VECTOR('',#348,16.9999999999987);
#85=VECTOR('',#353,13.9250030517566);
#86=VECTOR('',#358,10.8500061035151);
#87=VECTOR('',#377,33.0000001221372);
#88=VECTOR('',#386,45.7500000000014);
#89=VECTOR('',#395,10.8500061035157);
#90=VECTOR('',#400,13.9250011600231);
#91=VECTOR('',#405,16.9999981082654);
#92=CIRCLE('',#282,9.2);
#93=CIRCLE('',#283,9.2);
#94=CIRCLE('',#286,9.2);
#95=CIRCLE('',#287,9.2);
#96=CIRCLE('',#290,16.9999999999988);
#97=CIRCLE('',#292,16.9999999999986);
#98=CIRCLE('',#294,10.8500061035146);
#99=CIRCLE('',#296,10.8500061035151);
#100=CIRCLE('',#297,10.8500061035151);
#101=CIRCLE('',#299,33.0000002048866);
#102=CIRCLE('',#300,11.9999999999995);
#103=CIRCLE('',#301,21.0000002048868);
#104=CIRCLE('',#302,21.0000002048868);
#105=CIRCLE('',#303,33.0000002048866);
#106=CIRCLE('',#305,33.0000000393876);
#107=CIRCLE('',#307,45.750000000002);
#108=CIRCLE('',#309,45.7500000000009);
#109=CIRCLE('',#311,10.8500061035152);
#110=CIRCLE('',#313,10.8500061035162);
#111=CIRCLE('',#315,16.99999621653);
#112=CIRCLE('',#317,17.0000000000025);
#113=VERTEX_POINT('',#412);
#114=VERTEX_POINT('',#414);
#115=VERTEX_POINT('',#419);
#116=VERTEX_POINT('',#421);
#117=VERTEX_POINT('',#426);
#118=VERTEX_POINT('',#429);
#119=VERTEX_POINT('',#433);
#120=VERTEX_POINT('',#437);
#121=VERTEX_POINT('',#438);
#122=VERTEX_POINT('',#455);
#123=VERTEX_POINT('',#458);
#124=VERTEX_POINT('',#477);
#125=VERTEX_POINT('',#478);
#126=VERTEX_POINT('',#480);
#127=VERTEX_POINT('',#486);
#128=VERTEX_POINT('',#490);
#129=VERTEX_POINT('',#493);
#130=VERTEX_POINT('',#497);
#131=VERTEX_POINT('',#500);
#132=VERTEX_POINT('',#504);
#133=VERTEX_POINT('',#508);
#134=EDGE_CURVE('',#113,#113,#92,.T.);
#135=EDGE_CURVE('',#113,#114,#72,.T.);
#136=EDGE_CURVE('',#114,#114,#93,.T.);
#137=EDGE_CURVE('',#115,#115,#94,.T.);
#138=EDGE_CURVE('',#115,#116,#73,.T.);
#139=EDGE_CURVE('',#116,#116,#95,.T.);
#140=EDGE_CURVE('',#117,#117,#96,.T.);
#141=EDGE_CURVE('',#118,#118,#97,.T.);
#142=EDGE_CURVE('',#118,#117,#74,.T.);
#143=EDGE_CURVE('',#119,#119,#98,.T.);
#144=EDGE_CURVE('',#119,#118,#75,.T.);
#145=EDGE_CURVE('',#120,#121,#16,.T.);
#146=EDGE_CURVE('',#122,#120,#99,.T.);
#147=EDGE_CURVE('',#122,#119,#76,.T.);
#148=EDGE_CURVE('',#123,#122,#100,.T.);
#149=EDGE_CURVE('',#121,#123,#17,.T.);
#150=EDGE_CURVE('',#124,#125,#101,.T.);
#151=EDGE_CURVE('',#124,#126,#102,.T.);
#152=EDGE_CURVE('',#126,#120,#103,.T.);
#153=EDGE_CURVE('',#123,#126,#104,.T.);
#154=EDGE_CURVE('',#125,#124,#105,.T.);
#155=EDGE_CURVE('',#127,#127,#106,.T.);
#156=EDGE_CURVE('',#127,#125,#77,.T.);
#157=EDGE_CURVE('',#128,#128,#107,.T.);
#158=EDGE_CURVE('',#129,#129,#108,.T.);
#159=EDGE_CURVE('',#129,#128,#78,.T.);
#160=EDGE_CURVE('',#130,#130,#109,.T.);
#161=EDGE_CURVE('',#131,#131,#110,.T.);
#162=EDGE_CURVE('',#131,#130,#79,.T.);
#163=EDGE_CURVE('',#132,#132,#111,.T.);
#164=EDGE_CURVE('',#132,#131,#80,.T.);
#165=EDGE_CURVE('',#133,#133,#112,.T.);
#166=EDGE_CURVE('',#133,#132,#81,.T.);
#167=ORIENTED_EDGE('',*,*,#134,.F.);
#168=ORIENTED_EDGE('',*,*,#135,.T.);
#169=ORIENTED_EDGE('',*,*,#136,.T.);
#170=ORIENTED_EDGE('',*,*,#135,.F.);
#171=ORIENTED_EDGE('',*,*,#136,.F.);
#172=ORIENTED_EDGE('',*,*,#137,.F.);
#173=ORIENTED_EDGE('',*,*,#138,.T.);
#174=ORIENTED_EDGE('',*,*,#139,.T.);
#175=ORIENTED_EDGE('',*,*,#138,.F.);
#176=ORIENTED_EDGE('',*,*,#139,.F.);
#177=ORIENTED_EDGE('',*,*,#140,.F.);
#178=ORIENTED_EDGE('',*,*,#137,.T.);
#179=ORIENTED_EDGE('',*,*,#141,.F.);
#180=ORIENTED_EDGE('',*,*,#142,.T.);
#181=ORIENTED_EDGE('',*,*,#140,.T.);
#182=ORIENTED_EDGE('',*,*,#142,.F.);
#183=ORIENTED_EDGE('',*,*,#143,.F.);
#184=ORIENTED_EDGE('',*,*,#144,.T.);
#185=ORIENTED_EDGE('',*,*,#141,.T.);
#186=ORIENTED_EDGE('',*,*,#144,.F.);
#187=ORIENTED_EDGE('',*,*,#145,.F.);
#188=ORIENTED_EDGE('',*,*,#146,.F.);
#189=ORIENTED_EDGE('',*,*,#147,.T.);
#190=ORIENTED_EDGE('',*,*,#143,.T.);
#191=ORIENTED_EDGE('',*,*,#147,.F.);
#192=ORIENTED_EDGE('',*,*,#148,.F.);
#193=ORIENTED_EDGE('',*,*,#149,.F.);
#194=ORIENTED_EDGE('',*,*,#150,.F.);
#195=ORIENTED_EDGE('',*,*,#151,.T.);
#196=ORIENTED_EDGE('',*,*,#152,.T.);
#197=ORIENTED_EDGE('',*,*,#145,.T.);
#198=ORIENTED_EDGE('',*,*,#149,.T.);
#199=ORIENTED_EDGE('',*,*,#153,.T.);
#200=ORIENTED_EDGE('',*,*,#151,.F.);
#201=ORIENTED_EDGE('',*,*,#154,.F.);
#202=ORIENTED_EDGE('',*,*,#155,.F.);
#203=ORIENTED_EDGE('',*,*,#156,.T.);
#204=ORIENTED_EDGE('',*,*,#154,.T.);
#205=ORIENTED_EDGE('',*,*,#150,.T.);
#206=ORIENTED_EDGE('',*,*,#156,.F.);
#207=ORIENTED_EDGE('',*,*,#157,.F.);
#208=ORIENTED_EDGE('',*,*,#155,.T.);
#209=ORIENTED_EDGE('',*,*,#158,.F.);
#210=ORIENTED_EDGE('',*,*,#159,.T.);
#211=ORIENTED_EDGE('',*,*,#157,.T.);
#212=ORIENTED_EDGE('',*,*,#159,.F.);
#213=ORIENTED_EDGE('',*,*,#158,.T.);
#214=ORIENTED_EDGE('',*,*,#160,.F.);
#215=ORIENTED_EDGE('',*,*,#161,.F.);
#216=ORIENTED_EDGE('',*,*,#162,.T.);
#217=ORIENTED_EDGE('',*,*,#160,.T.);
#218=ORIENTED_EDGE('',*,*,#162,.F.);
#219=ORIENTED_EDGE('',*,*,#163,.F.);
#220=ORIENTED_EDGE('',*,*,#164,.T.);
#221=ORIENTED_EDGE('',*,*,#161,.T.);
#222=ORIENTED_EDGE('',*,*,#164,.F.);
#223=ORIENTED_EDGE('',*,*,#165,.F.);
#224=ORIENTED_EDGE('',*,*,#166,.T.);
#225=ORIENTED_EDGE('',*,*,#163,.T.);
#226=ORIENTED_EDGE('',*,*,#166,.F.);
#227=ORIENTED_EDGE('',*,*,#165,.T.);
#228=ORIENTED_EDGE('',*,*,#134,.T.);
#229=ORIENTED_EDGE('',*,*,#148,.T.);
#230=ORIENTED_EDGE('',*,*,#146,.T.);
#231=ORIENTED_EDGE('',*,*,#152,.F.);
#232=ORIENTED_EDGE('',*,*,#153,.F.);
#233=CYLINDRICAL_SURFACE('',#281,9.2);
#234=CYLINDRICAL_SURFACE('',#285,9.2);
#235=CYLINDRICAL_SURFACE('',#291,16.9999999999987);
#236=CYLINDRICAL_SURFACE('',#295,10.8500061035151);
#237=CYLINDRICAL_SURFACE('',#304,33.0000001221372);
#238=CYLINDRICAL_SURFACE('',#308,45.7500000000014);
#239=CYLINDRICAL_SURFACE('',#312,10.8500061035157);
#240=ADVANCED_FACE('',(#32),#233,.F.);
#241=ADVANCED_FACE('',(#33),#25,.T.);
#242=ADVANCED_FACE('',(#34),#234,.F.);
#243=ADVANCED_FACE('',(#35),#26,.T.);
#244=ADVANCED_FACE('',(#36,#21),#27,.T.);
#245=ADVANCED_FACE('',(#37),#235,.T.);
#246=ADVANCED_FACE('',(#38),#18,.T.);
#247=ADVANCED_FACE('',(#39),#236,.T.);
#248=ADVANCED_FACE('',(#40),#15,.T.);
#249=ADVANCED_FACE('',(#41),#237,.T.);
#250=ADVANCED_FACE('',(#42,#22),#28,.T.);
#251=ADVANCED_FACE('',(#43),#238,.T.);
#252=ADVANCED_FACE('',(#44,#23),#29,.T.);
#253=ADVANCED_FACE('',(#45),#239,.T.);
#254=ADVANCED_FACE('',(#46),#19,.T.);
#255=ADVANCED_FACE('',(#47),#20,.T.);
#256=ADVANCED_FACE('',(#48,#24),#30,.T.);
#257=ADVANCED_FACE('',(#49),#31,.T.);
#258=CLOSED_SHELL('',(#240,#241,#242,#243,#244,#245,#246,#247,#248,#249,
#250,#251,#252,#253,#254,#255,#256,#257));
#259=DERIVED_UNIT_ELEMENT(#262,1.);
#260=DERIVED_UNIT_ELEMENT(#518,-3.);
#261=DIMENSIONAL_EXPONENTS(0.,1.,0.,0.,0.,0.,0.);
#262=(
CONVERSION_BASED_UNIT('gram',#264)
MASS_UNIT()
NAMED_UNIT(#261)
);
#263=(
MASS_UNIT()
NAMED_UNIT(*)
SI_UNIT(.KILO.,.GRAM.)
);
#264=MASS_MEASURE_WITH_UNIT(MASS_MEASURE(0.001),#263);
#265=DERIVED_UNIT((#259,#260));
#266=MEASURE_REPRESENTATION_ITEM('density measure',
POSITIVE_RATIO_MEASURE(1.),#265);
#267=PROPERTY_DEFINITION_REPRESENTATION(#272,#269);
#268=PROPERTY_DEFINITION_REPRESENTATION(#273,#270);
#269=REPRESENTATION('material name',(#271),#515);
#270=REPRESENTATION('density',(#266),#515);
#271=DESCRIPTIVE_REPRESENTATION_ITEM('\X2\4E00822C\X0\','\X2\4E00822C\X0\');
#272=PROPERTY_DEFINITION('material property','material name',#525);
#273=PROPERTY_DEFINITION('material property','density of part',#525);
#274=DATE_TIME_ROLE('creation_date');
#275=APPLIED_DATE_AND_TIME_ASSIGNMENT(#276,#274,(#525));
#276=DATE_AND_TIME(#277,#278);
#277=CALENDAR_DATE(2024,3,4);
#278=LOCAL_TIME(0,0,0.,#279);
#279=COORDINATED_UNIVERSAL_TIME_OFFSET(0,0,.BEHIND.);
#280=AXIS2_PLACEMENT_3D('',#410,#320,#321);
#281=AXIS2_PLACEMENT_3D('',#411,#322,#323);
#282=AXIS2_PLACEMENT_3D('',#413,#324,#325);
#283=AXIS2_PLACEMENT_3D('',#416,#327,#328);
#284=AXIS2_PLACEMENT_3D('',#417,#329,#330);
#285=AXIS2_PLACEMENT_3D('',#418,#331,#332);
#286=AXIS2_PLACEMENT_3D('',#420,#333,#334);
#287=AXIS2_PLACEMENT_3D('',#423,#336,#337);
#288=AXIS2_PLACEMENT_3D('',#424,#338,#339);
#289=AXIS2_PLACEMENT_3D('',#425,#340,#341);
#290=AXIS2_PLACEMENT_3D('',#427,#342,#343);
#291=AXIS2_PLACEMENT_3D('',#428,#344,#345);
#292=AXIS2_PLACEMENT_3D('',#430,#346,#347);
#293=AXIS2_PLACEMENT_3D('',#432,#349,#350);
#294=AXIS2_PLACEMENT_3D('',#434,#351,#352);
#295=AXIS2_PLACEMENT_3D('',#436,#354,#355);
#296=AXIS2_PLACEMENT_3D('',#456,#356,#357);
#297=AXIS2_PLACEMENT_3D('',#459,#359,#360);
#298=AXIS2_PLACEMENT_3D('',#476,#361,#362);
#299=AXIS2_PLACEMENT_3D('',#479,#363,#364);
#300=AXIS2_PLACEMENT_3D('',#481,#365,#366);
#301=AXIS2_PLACEMENT_3D('',#482,#367,#368);
#302=AXIS2_PLACEMENT_3D('',#483,#369,#370);
#303=AXIS2_PLACEMENT_3D('',#484,#371,#372);
#304=AXIS2_PLACEMENT_3D('',#485,#373,#374);
#305=AXIS2_PLACEMENT_3D('',#487,#375,#376);
#306=AXIS2_PLACEMENT_3D('',#489,#378,#379);
#307=AXIS2_PLACEMENT_3D('',#491,#380,#381);
#308=AXIS2_PLACEMENT_3D('',#492,#382,#383);
#309=AXIS2_PLACEMENT_3D('',#494,#384,#385);
#310=AXIS2_PLACEMENT_3D('',#496,#387,#388);
#311=AXIS2_PLACEMENT_3D('',#498,#389,#390);
#312=AXIS2_PLACEMENT_3D('',#499,#391,#392);
#313=AXIS2_PLACEMENT_3D('',#501,#393,#394);
#314=AXIS2_PLACEMENT_3D('',#503,#396,#397);
#315=AXIS2_PLACEMENT_3D('',#505,#398,#399);
#316=AXIS2_PLACEMENT_3D('',#507,#401,#402);
#317=AXIS2_PLACEMENT_3D('',#509,#403,#404);
#318=AXIS2_PLACEMENT_3D('',#511,#406,#407);
#319=AXIS2_PLACEMENT_3D('',#512,#408,#409);
#320=DIRECTION('axis',(0.,0.,1.));
#321=DIRECTION('refdir',(1.,0.,0.));
#322=DIRECTION('center_axis',(-6.09078644767867E-14,1.,0.));
#323=DIRECTION('ref_axis',(1.,6.09078644767867E-14,0.));
#324=DIRECTION('center_axis',(-6.09036516219917E-14,1.,0.));
#325=DIRECTION('ref_axis',(1.,6.09078644767867E-14,0.));
#326=DIRECTION('',(-6.09078644767867E-14,1.,0.));
#327=DIRECTION('center_axis',(-6.09036516219917E-14,1.,0.));
#328=DIRECTION('ref_axis',(1.,6.09036516219917E-14,0.));
#329=DIRECTION('center_axis',(6.09036516219917E-14,-1.,0.));
#330=DIRECTION('ref_axis',(0.,0.,-1.));
#331=DIRECTION('center_axis',(1.33226762955019E-14,-1.,0.));
#332=DIRECTION('ref_axis',(1.,1.33226762955019E-14,0.));
#333=DIRECTION('center_axis',(1.33226762916888E-14,-1.,0.));
#334=DIRECTION('ref_axis',(1.,1.33226762955019E-14,0.));
#335=DIRECTION('',(1.33226762955019E-14,-1.,0.));
#336=DIRECTION('center_axis',(1.33226762916888E-14,-1.,0.));
#337=DIRECTION('ref_axis',(1.,1.33226762916888E-14,0.));
#338=DIRECTION('center_axis',(-1.33226762916888E-14,1.,0.));
#339=DIRECTION('ref_axis',(0.,0.,1.));
#340=DIRECTION('center_axis',(-1.33226762916888E-14,1.,0.));
#341=DIRECTION('ref_axis',(0.,0.,1.));
#342=DIRECTION('center_axis',(1.33226762916888E-14,-1.,0.));
#343=DIRECTION('ref_axis',(1.,1.33226762916888E-14,0.));
#344=DIRECTION('center_axis',(1.33226762916888E-14,-1.,0.));
#345=DIRECTION('ref_axis',(-1.,-1.33619905498931E-14,0.));
#346=DIRECTION('center_axis',(1.33226762916888E-14,-1.,0.));
#347=DIRECTION('ref_axis',(1.,1.33226762916888E-14,0.));
#348=DIRECTION('',(-1.33226762916888E-14,1.,0.));
#349=DIRECTION('center_axis',(-1.33226762916888E-14,1.,0.));
#350=DIRECTION('ref_axis',(-1.,-1.33619905498931E-14,0.));
#351=DIRECTION('center_axis',(1.33226762916888E-14,-1.,0.));
#352=DIRECTION('ref_axis',(1.,1.33226762916888E-14,0.));
#353=DIRECTION('',(0.939692616849645,0.342020154140464,1.15079155540732E-16));
#354=DIRECTION('center_axis',(1.33226762916888E-14,-1.,0.));
#355=DIRECTION('ref_axis',(-1.,-1.33619905498931E-14,0.));
#356=DIRECTION('center_axis',(6.09036516219917E-14,-1.,0.));
#357=DIRECTION('ref_axis',(-1.,-1.33619905498931E-14,0.));
#358=DIRECTION('',(-1.33226762916888E-14,1.,0.));
#359=DIRECTION('center_axis',(6.09036516219917E-14,-1.,0.));
#360=DIRECTION('ref_axis',(-1.,-1.33619905498931E-14,0.));
#361=DIRECTION('center_axis',(6.09036516219917E-14,-1.,0.));
#362=DIRECTION('ref_axis',(0.,0.,-1.));
#363=DIRECTION('center_axis',(6.09036516219917E-14,-1.,0.));
#364=DIRECTION('ref_axis',(1.,6.09036516219917E-14,0.));
#365=DIRECTION('center_axis',(-1.,-6.09036516219917E-14,-1.22464679914739E-16));
#366=DIRECTION('ref_axis',(-1.22464679914739E-16,0.,1.));
#367=DIRECTION('center_axis',(6.09036516219917E-14,-1.,0.));
#368=DIRECTION('ref_axis',(1.,6.09036516219917E-14,0.));
#369=DIRECTION('center_axis',(6.09036516219917E-14,-1.,0.));
#370=DIRECTION('ref_axis',(1.,6.09036516219917E-14,0.));
#371=DIRECTION('center_axis',(6.09036516219917E-14,-1.,0.));
#372=DIRECTION('ref_axis',(1.,6.09036516219917E-14,0.));
#373=DIRECTION('center_axis',(6.09036516219917E-14,-1.,0.));
#374=DIRECTION('ref_axis',(-1.,-6.09004188021594E-14,0.));
#375=DIRECTION('center_axis',(6.09036516219917E-14,-1.,0.));
#376=DIRECTION('ref_axis',(1.,6.09036516219917E-14,0.));
#377=DIRECTION('',(-6.09036516219917E-14,1.,0.));
#378=DIRECTION('center_axis',(-6.09036516219917E-14,1.,0.));
#379=DIRECTION('ref_axis',(0.,0.,1.));
#380=DIRECTION('center_axis',(6.09036516219917E-14,-1.,0.));
#381=DIRECTION('ref_axis',(1.,6.09036516219917E-14,0.));
#382=DIRECTION('center_axis',(6.09036516219917E-14,-1.,0.));
#383=DIRECTION('ref_axis',(-1.,-6.09004188021594E-14,0.));
#384=DIRECTION('center_axis',(6.09036516219917E-14,-1.,0.));
#385=DIRECTION('ref_axis',(1.,6.09036516219917E-14,0.));
#386=DIRECTION('',(-6.09036516219917E-14,1.,0.));
#387=DIRECTION('center_axis',(6.09036516219917E-14,-1.,0.));
#388=DIRECTION('ref_axis',(0.,0.,-1.));
#389=DIRECTION('center_axis',(6.09036516219917E-14,-1.,0.));
#390=DIRECTION('ref_axis',(1.,6.09036516219917E-14,0.));
#391=DIRECTION('center_axis',(6.09036516219917E-14,-1.,0.));
#392=DIRECTION('ref_axis',(-1.,-6.09004188021594E-14,0.));
#393=DIRECTION('center_axis',(6.09036516219917E-14,-1.,0.));
#394=DIRECTION('ref_axis',(1.,6.09036516219917E-14,0.));
#395=DIRECTION('',(-6.09036516219917E-14,1.,0.));
#396=DIRECTION('center_axis',(6.09036516219917E-14,-1.,0.));
#397=DIRECTION('ref_axis',(-1.,-6.09004188021594E-14,0.));
#398=DIRECTION('center_axis',(6.09036516219917E-14,-1.,0.));
#399=DIRECTION('ref_axis',(1.,6.09036516219917E-14,0.));
#400=DIRECTION('',(-0.939693654212275,0.342017303996715,-1.15079282581012E-16));
#401=DIRECTION('center_axis',(6.09036516219917E-14,-1.,0.));
#402=DIRECTION('ref_axis',(-1.,-6.09004188021594E-14,0.));
#403=DIRECTION('center_axis',(6.09036516219917E-14,-1.,0.));
#404=DIRECTION('ref_axis',(1.,6.09036516219917E-14,0.));
#405=DIRECTION('',(-1.32752248110264E-6,0.999999999999119,-1.62574608269304E-22));
#406=DIRECTION('center_axis',(6.09036516219917E-14,-1.,0.));
#407=DIRECTION('ref_axis',(0.,0.,-1.));
#408=DIRECTION('center_axis',(-6.09036516219917E-14,1.,0.));
#409=DIRECTION('ref_axis',(0.,0.,1.));
#410=CARTESIAN_POINT('',(0.,0.,0.));
#411=CARTESIAN_POINT('Origin',(2.55287735973629E-12,3.37507799486081E-13,
0.));
#412=CARTESIAN_POINT('',(-9.19999999999745,-2.22844553700357E-13,1.12667505521557E-15));
#413=CARTESIAN_POINT('Origin',(2.55287735973629E-12,3.37507799486081E-13,
0.));
#414=CARTESIAN_POINT('',(-9.19999999999975,37.7499999999998,1.12667505521557E-15));
#415=CARTESIAN_POINT('',(-9.19999999999745,-2.22844553700357E-13,1.12667505521557E-15));
#416=CARTESIAN_POINT('Origin',(2.53605475737589E-13,37.7500000000003,0.));
#417=CARTESIAN_POINT('Origin',(2.53130849614536E-13,37.7500000000003,0.));
#418=CARTESIAN_POINT('Origin',(-21.8000025898751,104.999997107089,0.));
#419=CARTESIAN_POINT('',(-31.0000025898751,104.999997107089,-1.12667505521557E-15));
#420=CARTESIAN_POINT('Origin',(-21.8000025898751,104.999997107089,0.));
#421=CARTESIAN_POINT('',(-31.0000025898746,70.9999971070888,-1.12667505521557E-15));
#422=CARTESIAN_POINT('',(-31.0000025898751,104.999997107089,-1.12667505521557E-15));
#423=CARTESIAN_POINT('Origin',(-21.8000025898746,70.9999971070889,0.));
#424=CARTESIAN_POINT('Origin',(-21.8000025898746,70.9999971070889,0.));
#425=CARTESIAN_POINT('Origin',(-38.8000025898739,104.999997107089,0.));
#426=CARTESIAN_POINT('',(-4.8000025898764,104.999997107089,2.08189955855034E-15));
#427=CARTESIAN_POINT('Origin',(-21.8000025898751,104.999997107089,0.));
#428=CARTESIAN_POINT('Origin',(-21.8000025898751,103.574996323892,0.));
#429=CARTESIAN_POINT('',(-4.80000258987636,102.149995540695,2.08189955855034E-15));
#430=CARTESIAN_POINT('Origin',(-21.8000025898751,102.149995540695,0.));
#431=CARTESIAN_POINT('',(-4.80000258987638,103.574996323892,2.08189955855034E-15));
#432=CARTESIAN_POINT('Origin',(-21.800002589875,101.030788140997,0.));
#433=CARTESIAN_POINT('',(-10.9499964863605,99.9115807413002,1.32874252453984E-15));
#434=CARTESIAN_POINT('Origin',(-21.800002589875,99.9115807413001,0.));
#435=CARTESIAN_POINT('',(-7.87499953811848,101.030788140998,1.70532104154508E-15));
#436=CARTESIAN_POINT('Origin',(-21.8000025898749,86.8943039714883,0.));
#437=CARTESIAN_POINT('',(-18.3146191333126,82.9999970979311,10.2749566717839));
#438=CARTESIAN_POINT('',(-32.6500086933903,73.8770272016763,0.));
#439=CARTESIAN_POINT('Ctrl Pts',(-18.3146191333126,82.9999970979303,10.2749566717839));
#440=CARTESIAN_POINT('Ctrl Pts',(-19.0046164164713,82.9999970979303,10.5090116846287));
#441=CARTESIAN_POINT('Ctrl Pts',(-19.7198755831968,82.935926469536,10.6740717209043));
#442=CARTESIAN_POINT('Ctrl Pts',(-21.7009204508778,82.6021694738501,10.9226650721798));
#443=CARTESIAN_POINT('Ctrl Pts',(-22.948944210853,82.2266235444508,10.8570121591517));
#444=CARTESIAN_POINT('Ctrl Pts',(-25.5415647680647,81.1567163216944,10.2859664014685));
#445=CARTESIAN_POINT('Ctrl Pts',(-26.8984836259696,80.3995703164532,9.69333580411279));
#446=CARTESIAN_POINT('Ctrl Pts',(-29.5133335753679,78.4738198799467,7.82235644547122));
#447=CARTESIAN_POINT('Ctrl Pts',(-30.5732874995121,77.3626548227202,6.56227587115939));
#448=CARTESIAN_POINT('Ctrl Pts',(-31.8038834341611,75.6667576886582,4.32563144996737));
#449=CARTESIAN_POINT('Ctrl Pts',(-32.1346280852207,75.0524833359356,3.41655432370799));
#450=CARTESIAN_POINT('Ctrl Pts',(-32.4578123159907,74.3649438369469,2.09238262093129));
#451=CARTESIAN_POINT('Ctrl Pts',(-32.5709389965495,74.0860906577029,1.48106212581858));
#452=CARTESIAN_POINT('Ctrl Pts',(-32.6402958859653,73.9036067659629,0.527640580838932));
#453=CARTESIAN_POINT('Ctrl Pts',(-32.6500086933898,73.877027201674,0.266537156859901));
#454=CARTESIAN_POINT('Ctrl Pts',(-32.6500086933898,73.877027201674,6.93889390390723E-17));
#455=CARTESIAN_POINT('',(-10.9499964863597,82.999997097931,1.3287425245399E-15));
#456=CARTESIAN_POINT('Origin',(-21.8000025898748,82.9999970979303,0.));
#457=CARTESIAN_POINT('',(-10.9499964863598,86.8943039714884,1.3287425245399E-15));
#458=CARTESIAN_POINT('',(-18.3146191333126,82.9999970979311,-10.2749566717839));
#459=CARTESIAN_POINT('Origin',(-21.8000025898748,82.9999970979303,0.));
#460=CARTESIAN_POINT('Ctrl Pts',(-32.6500086933898,73.877027201674,-2.08166817117217E-16));
#461=CARTESIAN_POINT('Ctrl Pts',(-32.6500086933898,73.877027201674,-0.0768785519688821));
#462=CARTESIAN_POINT('Ctrl Pts',(-32.6491923961037,73.8792369735372,-0.154209162521816));
#463=CARTESIAN_POINT('Ctrl Pts',(-32.6388702952291,73.907077193952,-0.636657756424226));
#464=CARTESIAN_POINT('Ctrl Pts',(-32.6079712501859,73.9912746835411,-1.03136618574384));
#465=CARTESIAN_POINT('Ctrl Pts',(-32.4186287274948,74.4619152398321,-2.46617549513339));
#466=CARTESIAN_POINT('Ctrl Pts',(-32.1117893895664,75.1585997289451,-3.5917445421603));
#467=CARTESIAN_POINT('Ctrl Pts',(-30.9499647570715,76.9064298106587,-6.00934792966609));
#468=CARTESIAN_POINT('Ctrl Pts',(-29.9737238658213,78.0528917247243,-7.36455756787217));
#469=CARTESIAN_POINT('Ctrl Pts',(-27.5133024132298,79.9877155480119,-9.31765084977106));
#470=CARTESIAN_POINT('Ctrl Pts',(-26.2935061657487,80.7523982569265,-9.9798068395969));
#471=CARTESIAN_POINT('Ctrl Pts',(-23.8355782626308,81.8976270928944,-10.7169727113073));
#472=CARTESIAN_POINT('Ctrl Pts',(-22.6627917942625,82.3229838012547,-10.8846738764277));
#473=CARTESIAN_POINT('Ctrl Pts',(-20.400502900425,82.8578884709205,-10.8094823443514));
#474=CARTESIAN_POINT('Ctrl Pts',(-19.3454544281664,82.9999970979302,-10.6246278575506));
#475=CARTESIAN_POINT('Ctrl Pts',(-18.3146191333129,82.9999970979303,-10.274956671784));
#476=CARTESIAN_POINT('Origin',(-1.77128172867856E-12,70.9999970979319,0.));
#477=CARTESIAN_POINT('',(-1.77532305950312E-12,70.9999970382028,33.0000002048866));
#478=CARTESIAN_POINT('',(33.0000001221354,70.9999970382049,4.04133445214376E-15));
#479=CARTESIAN_POINT('Origin',(-1.77128172504084E-12,70.9999970382028,0.));
#480=CARTESIAN_POINT('',(-2.50469730644573E-12,82.9999970979314,21.0000002048868));
#481=CARTESIAN_POINT('Origin',(-1.77385348698186E-12,70.9999970979319,21.0000002048871));
#482=CARTESIAN_POINT('Origin',(-2.50212554814243E-12,82.9999970979314,0.));
#483=CARTESIAN_POINT('Origin',(-2.50212554814243E-12,82.9999970979314,0.));
#484=CARTESIAN_POINT('Origin',(-1.77128172504084E-12,70.9999970382028,0.));
#485=CARTESIAN_POINT('Origin',(-7.58757997980538E-13,54.3749885190964,0.));
#486=CARTESIAN_POINT('',(33.0000001221375,37.749979999992,4.04133445214376E-15));
#487=CARTESIAN_POINT('Origin',(2.53765729079766E-13,37.74997999999,0.));
#488=CARTESIAN_POINT('',(33.0000001221364,54.3749885190984,4.04133445214376E-15));
#489=CARTESIAN_POINT('Origin',(-45.7500000000017,37.7499799999902,0.));
#490=CARTESIAN_POINT('',(45.7500000000017,37.7499799999958,5.60275910609932E-15));
#491=CARTESIAN_POINT('Origin',(2.53765729079582E-13,37.749979999993,0.));
#492=CARTESIAN_POINT('Origin',(7.25769029149999E-13,29.9999799999933,0.));
#493=CARTESIAN_POINT('',(45.7500000000026,22.2499799999964,5.60275910609932E-15));
#494=CARTESIAN_POINT('Origin',(1.19777232922042E-12,22.2499799999936,0.));
#495=CARTESIAN_POINT('',(45.7500000000022,29.9999799999961,5.60275910609932E-15));
#496=CARTESIAN_POINT('Origin',(-10.850006103514,22.2499799999907,0.));
#497=CARTESIAN_POINT('',(10.8500061035169,22.2499799999914,1.32874252453997E-15));
#498=CARTESIAN_POINT('Origin',(1.19777232922059E-12,22.2499799999908,0.));
#499=CARTESIAN_POINT('Origin',(1.7203732756536E-12,13.6691981828902,0.));
#500=CARTESIAN_POINT('',(10.8500061035179,5.08841636579021,1.32874252453997E-15));
#501=CARTESIAN_POINT('Origin',(2.24297422208662E-12,5.08841636578955,0.));
#502=CARTESIAN_POINT('',(10.8500061035174,13.6691981828908,1.32874252453997E-15));
#503=CARTESIAN_POINT('Origin',(2.31113735444172E-12,3.96922021679402,0.));
#504=CARTESIAN_POINT('',(16.9999962165324,2.85002406779953,2.08189909520906E-15));
#505=CARTESIAN_POINT('Origin',(2.37930048679682E-12,2.8500240677985,0.));
#506=CARTESIAN_POINT('',(13.9250011600254,3.96922021679487,1.70532080987455E-15));
#507=CARTESIAN_POINT('Origin',(2.46608892326653E-12,1.42501203389977,0.));
#508=CARTESIAN_POINT('',(17.0000000000034,2.06584749307126E-12,2.0818995585506E-15));
#509=CARTESIAN_POINT('Origin',(2.55287735973625E-12,1.03028696685215E-12,
0.));
#510=CARTESIAN_POINT('',(16.9999981082679,1.42501203390081,2.08189932687983E-15));
#511=CARTESIAN_POINT('Origin',(2.55351295663786E-12,3.37507799486081E-13,
0.));
#512=CARTESIAN_POINT('Origin',(-21.0000002048893,82.9999970979303,0.));
#513=UNCERTAINTY_MEASURE_WITH_UNIT(LENGTH_MEASURE(0.01),#517,
'DISTANCE_ACCURACY_VALUE',
'Maximum model space distance between geometric entities at asserted c
onnectivities');
#514=UNCERTAINTY_MEASURE_WITH_UNIT(LENGTH_MEASURE(0.01),#517,
'DISTANCE_ACCURACY_VALUE',
'Maximum model space distance between geometric entities at asserted c
onnectivities');
#515=(
GEOMETRIC_REPRESENTATION_CONTEXT(3)
GLOBAL_UNCERTAINTY_ASSIGNED_CONTEXT((#513))
GLOBAL_UNIT_ASSIGNED_CONTEXT((#517,#519,#520))
REPRESENTATION_CONTEXT('','3D')
);
#516=(
GEOMETRIC_REPRESENTATION_CONTEXT(3)
GLOBAL_UNCERTAINTY_ASSIGNED_CONTEXT((#514))
GLOBAL_UNIT_ASSIGNED_CONTEXT((#517,#519,#520))
REPRESENTATION_CONTEXT('','3D')
);
#517=(
LENGTH_UNIT()
NAMED_UNIT(*)
SI_UNIT(.MILLI.,.METRE.)
);
#518=(
LENGTH_UNIT()
NAMED_UNIT(*)
SI_UNIT(.CENTI.,.METRE.)
);
#519=(
NAMED_UNIT(*)
PLANE_ANGLE_UNIT()
SI_UNIT($,.RADIAN.)
);
#520=(
NAMED_UNIT(*)
SI_UNIT($,.STERADIAN.)
SOLID_ANGLE_UNIT()
);
#521=SHAPE_DEFINITION_REPRESENTATION(#522,#523);
#522=PRODUCT_DEFINITION_SHAPE('',$,#525);
#523=SHAPE_REPRESENTATION('',(#280),#515);
#524=PRODUCT_DEFINITION_CONTEXT('part definition',#529,'design');
#525=PRODUCT_DEFINITION('CVSE-04-1','CVSE-04-1',#526,#524);
#526=PRODUCT_DEFINITION_FORMATION('',$,#531);
#527=PRODUCT_RELATED_PRODUCT_CATEGORY('CVSE-04-1','CVSE-04-1',(#531));
#528=APPLICATION_PROTOCOL_DEFINITION('international standard',
'automotive_design',2009,#529);
#529=APPLICATION_CONTEXT(
'Core Data for Automotive Mechanical Design Process');
#530=PRODUCT_CONTEXT('part definition',#529,'mechanical');
#531=PRODUCT('CVSE-04-1','CVSE-04-1',$,(#530));
#532=PRESENTATION_STYLE_ASSIGNMENT((#533));
#533=SURFACE_STYLE_USAGE(.BOTH.,#536);
#534=SURFACE_STYLE_RENDERING_WITH_PROPERTIES($,#540,(#535));
#535=SURFACE_STYLE_TRANSPARENT(0.);
#536=SURFACE_SIDE_STYLE('',(#537,#534));
#537=SURFACE_STYLE_FILL_AREA(#538);
#538=FILL_AREA_STYLE('',(#539));
#539=FILL_AREA_STYLE_COLOUR('',#540);
#540=COLOUR_RGB('',0.749019607843137,0.749019607843137,0.749019607843137);
ENDSEC;
END-ISO-10303-21;
