ISO-10303-21;
HEADER;
/* Generated by software containing ST-Developer
 * from STEP Tools, Inc. (www.steptools.com) 
 */

FILE_DESCRIPTION(
/* description */ (''),
/* implementation_level */ '2;1');

FILE_NAME(
/* name */ 'CVSC-30-1.stp',
/* time_stamp */ '2024-03-28T11:34:03+09:00',
/* author */ ('autocad22'),
/* organization */ (''),
/* preprocessor_version */ 'ST-DEVELOPER v19.2',
/* originating_system */ 'Autodesk Inventor 2024',
/* authorisation */ '');

FILE_SCHEMA (('AUTOMOTIVE_DESIGN { 1 0 10303 214 3 1 1 }','MODEL_BASED_INTEGRATED_MANUFACTURING_SCHEMA'));
ENDSEC;

DATA;
#10=MECHANICAL_DESIGN_GEOMETRIC_PRESENTATION_REPRESENTATION('',(#13),#405);
#11=SHAPE_REPRESENTATION_RELATIONSHIP('SRR','None',#412,#12);
#12=ADVANCED_BREP_SHAPE_REPRESENTATION('',(#14),#404);
#13=STYLED_ITEM('',(#421),#14);
#14=MANIFOLD_SOLID_BREP('\X2\30BD30EA30C330C9\X0\1',#214);
#15=CONICAL_SURFACE('',#257,41.8249999176026,1.22173224371485);
#16=CONICAL_SURFACE('',#266,41.8250028963803,1.22173224419034);
#17=TOROIDAL_SURFACE('',#243,47.8049910534902,18.);
#18=FACE_BOUND('',#45,.T.);
#19=FACE_BOUND('',#49,.T.);
#20=FACE_BOUND('',#52,.T.);
#21=FACE_BOUND('',#57,.T.);
#22=FACE_BOUND('',#59,.T.);
#23=PLANE('',#240);
#24=PLANE('',#249);
#25=PLANE('',#253);
#26=PLANE('',#261);
#27=PLANE('',#262);
#28=FACE_OUTER_BOUND('',#43,.T.);
#29=FACE_OUTER_BOUND('',#44,.T.);
#30=FACE_OUTER_BOUND('',#46,.T.);
#31=FACE_OUTER_BOUND('',#47,.T.);
#32=FACE_OUTER_BOUND('',#48,.T.);
#33=FACE_OUTER_BOUND('',#50,.T.);
#34=FACE_OUTER_BOUND('',#51,.T.);
#35=FACE_OUTER_BOUND('',#53,.T.);
#36=FACE_OUTER_BOUND('',#54,.T.);
#37=FACE_OUTER_BOUND('',#55,.T.);
#38=FACE_OUTER_BOUND('',#56,.T.);
#39=FACE_OUTER_BOUND('',#58,.T.);
#40=FACE_OUTER_BOUND('',#60,.T.);
#41=FACE_OUTER_BOUND('',#61,.T.);
#42=FACE_OUTER_BOUND('',#62,.T.);
#43=EDGE_LOOP('',(#140,#141,#142,#143));
#44=EDGE_LOOP('',(#144));
#45=EDGE_LOOP('',(#145));
#46=EDGE_LOOP('',(#146,#147,#148,#149,#150));
#47=EDGE_LOOP('',(#151,#152,#153,#154,#155));
#48=EDGE_LOOP('',(#156));
#49=EDGE_LOOP('',(#157));
#50=EDGE_LOOP('',(#158,#159,#160,#161));
#51=EDGE_LOOP('',(#162));
#52=EDGE_LOOP('',(#163));
#53=EDGE_LOOP('',(#164,#165,#166,#167));
#54=EDGE_LOOP('',(#168,#169,#170,#171));
#55=EDGE_LOOP('',(#172,#173,#174,#175));
#56=EDGE_LOOP('',(#176));
#57=EDGE_LOOP('',(#177));
#58=EDGE_LOOP('',(#178));
#59=EDGE_LOOP('',(#179));
#60=EDGE_LOOP('',(#180,#181,#182,#183));
#61=EDGE_LOOP('',(#184,#185,#186,#187));
#62=EDGE_LOOP('',(#188,#189,#190,#191));
#63=LINE('',#349,#72);
#64=LINE('',#365,#73);
#65=LINE('',#372,#74);
#66=LINE('',#379,#75);
#67=LINE('',#383,#76);
#68=LINE('',#387,#77);
#69=LINE('',#395,#78);
#70=LINE('',#399,#79);
#71=LINE('',#401,#80);
#72=VECTOR('',#275,36.15);
#73=VECTOR('',#296,65.8049907324969);
#74=VECTOR('',#305,78.7499999999999);
#75=VECTOR('',#314,38.1499994204441);
#76=VECTOR('',#319,41.8249999176026);
#77=VECTOR('',#324,45.5000004169457);
#78=VECTOR('',#335,45.5000005012093);
#79=VECTOR('',#340,41.8250028963803);
#80=VECTOR('',#343,38.1500069610457);
#81=CIRCLE('',#238,36.15);
#82=CIRCLE('',#239,36.15);
#83=CIRCLE('',#241,47.8049914528525);
#84=CIRCLE('',#242,38.1500086302013);
#85=CIRCLE('',#244,65.8049908915658);
#86=CIRCLE('',#245,18.);
#87=CIRCLE('',#246,65.8049908915658);
#88=CIRCLE('',#248,65.8049907353524);
#89=CIRCLE('',#250,78.75);
#90=CIRCLE('',#252,78.7499999999997);
#91=CIRCLE('',#254,38.1499994229674);
#92=CIRCLE('',#256,38.1499994179207);
#93=CIRCLE('',#258,45.5000004172845);
#94=CIRCLE('',#260,45.5000004166069);
#95=CIRCLE('',#263,45.5000005015481);
#96=CIRCLE('',#265,45.5000005008705);
#97=CIRCLE('',#267,38.1500052918901);
#98=VERTEX_POINT('',#346);
#99=VERTEX_POINT('',#348);
#100=VERTEX_POINT('',#352);
#101=VERTEX_POINT('',#354);
#102=VERTEX_POINT('',#357);
#103=VERTEX_POINT('',#358);
#104=VERTEX_POINT('',#363);
#105=VERTEX_POINT('',#367);
#106=VERTEX_POINT('',#370);
#107=VERTEX_POINT('',#374);
#108=VERTEX_POINT('',#377);
#109=VERTEX_POINT('',#381);
#110=VERTEX_POINT('',#385);
#111=VERTEX_POINT('',#390);
#112=VERTEX_POINT('',#393);
#113=VERTEX_POINT('',#397);
#114=EDGE_CURVE('',#98,#98,#81,.T.);
#115=EDGE_CURVE('',#98,#99,#63,.T.);
#116=EDGE_CURVE('',#99,#99,#82,.T.);
#117=EDGE_CURVE('',#100,#100,#83,.T.);
#118=EDGE_CURVE('',#101,#101,#84,.T.);
#119=EDGE_CURVE('',#102,#103,#85,.T.);
#120=EDGE_CURVE('',#102,#100,#86,.T.);
#121=EDGE_CURVE('',#103,#102,#87,.T.);
#122=EDGE_CURVE('',#104,#104,#88,.T.);
#123=EDGE_CURVE('',#104,#103,#64,.T.);
#124=EDGE_CURVE('',#105,#105,#89,.T.);
#125=EDGE_CURVE('',#106,#106,#90,.T.);
#126=EDGE_CURVE('',#106,#105,#65,.T.);
#127=EDGE_CURVE('',#107,#107,#91,.T.);
#128=EDGE_CURVE('',#108,#108,#92,.T.);
#129=EDGE_CURVE('',#108,#107,#66,.T.);
#130=EDGE_CURVE('',#109,#109,#93,.T.);
#131=EDGE_CURVE('',#109,#108,#67,.T.);
#132=EDGE_CURVE('',#110,#110,#94,.T.);
#133=EDGE_CURVE('',#110,#109,#68,.T.);
#134=EDGE_CURVE('',#111,#111,#95,.T.);
#135=EDGE_CURVE('',#112,#112,#96,.T.);
#136=EDGE_CURVE('',#112,#111,#69,.T.);
#137=EDGE_CURVE('',#113,#113,#97,.T.);
#138=EDGE_CURVE('',#113,#112,#70,.T.);
#139=EDGE_CURVE('',#101,#113,#71,.T.);
#140=ORIENTED_EDGE('',*,*,#114,.F.);
#141=ORIENTED_EDGE('',*,*,#115,.T.);
#142=ORIENTED_EDGE('',*,*,#116,.F.);
#143=ORIENTED_EDGE('',*,*,#115,.F.);
#144=ORIENTED_EDGE('',*,*,#117,.F.);
#145=ORIENTED_EDGE('',*,*,#118,.T.);
#146=ORIENTED_EDGE('',*,*,#119,.F.);
#147=ORIENTED_EDGE('',*,*,#120,.T.);
#148=ORIENTED_EDGE('',*,*,#117,.T.);
#149=ORIENTED_EDGE('',*,*,#120,.F.);
#150=ORIENTED_EDGE('',*,*,#121,.F.);
#151=ORIENTED_EDGE('',*,*,#122,.F.);
#152=ORIENTED_EDGE('',*,*,#123,.T.);
#153=ORIENTED_EDGE('',*,*,#121,.T.);
#154=ORIENTED_EDGE('',*,*,#119,.T.);
#155=ORIENTED_EDGE('',*,*,#123,.F.);
#156=ORIENTED_EDGE('',*,*,#124,.F.);
#157=ORIENTED_EDGE('',*,*,#122,.T.);
#158=ORIENTED_EDGE('',*,*,#125,.F.);
#159=ORIENTED_EDGE('',*,*,#126,.T.);
#160=ORIENTED_EDGE('',*,*,#124,.T.);
#161=ORIENTED_EDGE('',*,*,#126,.F.);
#162=ORIENTED_EDGE('',*,*,#125,.T.);
#163=ORIENTED_EDGE('',*,*,#127,.F.);
#164=ORIENTED_EDGE('',*,*,#128,.F.);
#165=ORIENTED_EDGE('',*,*,#129,.T.);
#166=ORIENTED_EDGE('',*,*,#127,.T.);
#167=ORIENTED_EDGE('',*,*,#129,.F.);
#168=ORIENTED_EDGE('',*,*,#130,.F.);
#169=ORIENTED_EDGE('',*,*,#131,.T.);
#170=ORIENTED_EDGE('',*,*,#128,.T.);
#171=ORIENTED_EDGE('',*,*,#131,.F.);
#172=ORIENTED_EDGE('',*,*,#132,.F.);
#173=ORIENTED_EDGE('',*,*,#133,.T.);
#174=ORIENTED_EDGE('',*,*,#130,.T.);
#175=ORIENTED_EDGE('',*,*,#133,.F.);
#176=ORIENTED_EDGE('',*,*,#132,.T.);
#177=ORIENTED_EDGE('',*,*,#116,.T.);
#178=ORIENTED_EDGE('',*,*,#134,.F.);
#179=ORIENTED_EDGE('',*,*,#114,.T.);
#180=ORIENTED_EDGE('',*,*,#135,.F.);
#181=ORIENTED_EDGE('',*,*,#136,.T.);
#182=ORIENTED_EDGE('',*,*,#134,.T.);
#183=ORIENTED_EDGE('',*,*,#136,.F.);
#184=ORIENTED_EDGE('',*,*,#137,.F.);
#185=ORIENTED_EDGE('',*,*,#138,.T.);
#186=ORIENTED_EDGE('',*,*,#135,.T.);
#187=ORIENTED_EDGE('',*,*,#138,.F.);
#188=ORIENTED_EDGE('',*,*,#118,.F.);
#189=ORIENTED_EDGE('',*,*,#139,.T.);
#190=ORIENTED_EDGE('',*,*,#137,.T.);
#191=ORIENTED_EDGE('',*,*,#139,.F.);
#192=CYLINDRICAL_SURFACE('',#237,36.15);
#193=CYLINDRICAL_SURFACE('',#247,65.8049907324969);
#194=CYLINDRICAL_SURFACE('',#251,78.7499999999999);
#195=CYLINDRICAL_SURFACE('',#255,38.1499994204441);
#196=CYLINDRICAL_SURFACE('',#259,45.5000004169457);
#197=CYLINDRICAL_SURFACE('',#264,45.5000005012093);
#198=CYLINDRICAL_SURFACE('',#268,38.1500069610457);
#199=ADVANCED_FACE('',(#28),#192,.F.);
#200=ADVANCED_FACE('',(#29,#18),#23,.T.);
#201=ADVANCED_FACE('',(#30),#17,.T.);
#202=ADVANCED_FACE('',(#31),#193,.T.);
#203=ADVANCED_FACE('',(#32,#19),#24,.T.);
#204=ADVANCED_FACE('',(#33),#194,.T.);
#205=ADVANCED_FACE('',(#34,#20),#25,.T.);
#206=ADVANCED_FACE('',(#35),#195,.T.);
#207=ADVANCED_FACE('',(#36),#15,.T.);
#208=ADVANCED_FACE('',(#37),#196,.T.);
#209=ADVANCED_FACE('',(#38,#21),#26,.T.);
#210=ADVANCED_FACE('',(#39,#22),#27,.T.);
#211=ADVANCED_FACE('',(#40),#197,.T.);
#212=ADVANCED_FACE('',(#41),#16,.T.);
#213=ADVANCED_FACE('',(#42),#198,.T.);
#214=CLOSED_SHELL('',(#199,#200,#201,#202,#203,#204,#205,#206,#207,#208,
#209,#210,#211,#212,#213));
#215=DERIVED_UNIT_ELEMENT(#218,1.);
#216=DERIVED_UNIT_ELEMENT(#407,-3.);
#217=DIMENSIONAL_EXPONENTS(0.,1.,0.,0.,0.,0.,0.);
#218=(
CONVERSION_BASED_UNIT('gram',#220)
MASS_UNIT()
NAMED_UNIT(#217)
);
#219=(
MASS_UNIT()
NAMED_UNIT(*)
SI_UNIT(.KILO.,.GRAM.)
);
#220=MASS_MEASURE_WITH_UNIT(MASS_MEASURE(0.001),#219);
#221=DERIVED_UNIT((#215,#216));
#222=MEASURE_REPRESENTATION_ITEM('density measure',
POSITIVE_RATIO_MEASURE(1.),#221);
#223=PROPERTY_DEFINITION_REPRESENTATION(#228,#225);
#224=PROPERTY_DEFINITION_REPRESENTATION(#229,#226);
#225=REPRESENTATION('material name',(#227),#404);
#226=REPRESENTATION('density',(#222),#404);
#227=DESCRIPTIVE_REPRESENTATION_ITEM('\X2\4E00822C\X0\','\X2\4E00822C\X0\');
#228=PROPERTY_DEFINITION('material property','material name',#414);
#229=PROPERTY_DEFINITION('material property','density of part',#414);
#230=DATE_TIME_ROLE('creation_date');
#231=APPLIED_DATE_AND_TIME_ASSIGNMENT(#232,#230,(#414));
#232=DATE_AND_TIME(#233,#234);
#233=CALENDAR_DATE(2024,28,3);
#234=LOCAL_TIME(0,0,0.,#235);
#235=COORDINATED_UNIVERSAL_TIME_OFFSET(0,0,.BEHIND.);
#236=AXIS2_PLACEMENT_3D('',#344,#269,#270);
#237=AXIS2_PLACEMENT_3D('',#345,#271,#272);
#238=AXIS2_PLACEMENT_3D('',#347,#273,#274);
#239=AXIS2_PLACEMENT_3D('',#350,#276,#277);
#240=AXIS2_PLACEMENT_3D('',#351,#278,#279);
#241=AXIS2_PLACEMENT_3D('',#353,#280,#281);
#242=AXIS2_PLACEMENT_3D('',#355,#282,#283);
#243=AXIS2_PLACEMENT_3D('',#356,#284,#285);
#244=AXIS2_PLACEMENT_3D('',#359,#286,#287);
#245=AXIS2_PLACEMENT_3D('',#360,#288,#289);
#246=AXIS2_PLACEMENT_3D('',#361,#290,#291);
#247=AXIS2_PLACEMENT_3D('',#362,#292,#293);
#248=AXIS2_PLACEMENT_3D('',#364,#294,#295);
#249=AXIS2_PLACEMENT_3D('',#366,#297,#298);
#250=AXIS2_PLACEMENT_3D('',#368,#299,#300);
#251=AXIS2_PLACEMENT_3D('',#369,#301,#302);
#252=AXIS2_PLACEMENT_3D('',#371,#303,#304);
#253=AXIS2_PLACEMENT_3D('',#373,#306,#307);
#254=AXIS2_PLACEMENT_3D('',#375,#308,#309);
#255=AXIS2_PLACEMENT_3D('',#376,#310,#311);
#256=AXIS2_PLACEMENT_3D('',#378,#312,#313);
#257=AXIS2_PLACEMENT_3D('',#380,#315,#316);
#258=AXIS2_PLACEMENT_3D('',#382,#317,#318);
#259=AXIS2_PLACEMENT_3D('',#384,#320,#321);
#260=AXIS2_PLACEMENT_3D('',#386,#322,#323);
#261=AXIS2_PLACEMENT_3D('',#388,#325,#326);
#262=AXIS2_PLACEMENT_3D('',#389,#327,#328);
#263=AXIS2_PLACEMENT_3D('',#391,#329,#330);
#264=AXIS2_PLACEMENT_3D('',#392,#331,#332);
#265=AXIS2_PLACEMENT_3D('',#394,#333,#334);
#266=AXIS2_PLACEMENT_3D('',#396,#336,#337);
#267=AXIS2_PLACEMENT_3D('',#398,#338,#339);
#268=AXIS2_PLACEMENT_3D('',#400,#341,#342);
#269=DIRECTION('axis',(0.,0.,1.));
#270=DIRECTION('refdir',(1.,0.,0.));
#271=DIRECTION('center_axis',(-2.37744512965321E-10,-1.,0.));
#272=DIRECTION('ref_axis',(1.,-2.37744512965321E-10,0.));
#273=DIRECTION('center_axis',(-2.37744510069087E-10,-1.,0.));
#274=DIRECTION('ref_axis',(1.,-2.37744512965321E-10,0.));
#275=DIRECTION('',(-2.37744512965321E-10,-1.,0.));
#276=DIRECTION('center_axis',(2.37744510069087E-10,1.,0.));
#277=DIRECTION('ref_axis',(1.,-2.37744512965321E-10,0.));
#278=DIRECTION('center_axis',(2.37744510069087E-10,1.,0.));
#279=DIRECTION('ref_axis',(0.,0.,1.));
#280=DIRECTION('center_axis',(-2.37744510069087E-10,-1.,0.));
#281=DIRECTION('ref_axis',(1.,-2.37744510069087E-10,0.));
#282=DIRECTION('center_axis',(-2.37744510069087E-10,-1.,0.));
#283=DIRECTION('ref_axis',(1.,-2.37744510069087E-10,0.));
#284=DIRECTION('center_axis',(-2.37744510069087E-10,-1.,0.));
#285=DIRECTION('ref_axis',(0.,0.,-1.));
#286=DIRECTION('center_axis',(-2.37744510069087E-10,-1.,0.));
#287=DIRECTION('ref_axis',(1.,-2.37744510069087E-10,0.));
#288=DIRECTION('center_axis',(-1.,2.37744510069087E-10,-1.22464679412594E-16));
#289=DIRECTION('ref_axis',(-1.22464679412594E-16,0.,1.));
#290=DIRECTION('center_axis',(-2.37744510069087E-10,-1.,0.));
#291=DIRECTION('ref_axis',(1.,-2.37744510069087E-10,0.));
#292=DIRECTION('center_axis',(-2.37744510069087E-10,-1.,0.));
#293=DIRECTION('ref_axis',(-1.,2.37744484250547E-10,0.));
#294=DIRECTION('center_axis',(-2.37744510069087E-10,-1.,0.));
#295=DIRECTION('ref_axis',(1.,-2.37744510069087E-10,0.));
#296=DIRECTION('',(2.37744510069087E-10,1.,0.));
#297=DIRECTION('center_axis',(2.37744510069087E-10,1.,0.));
#298=DIRECTION('ref_axis',(0.,0.,1.));
#299=DIRECTION('center_axis',(-2.37744510069087E-10,-1.,0.));
#300=DIRECTION('ref_axis',(1.,-2.37744510069087E-10,0.));
#301=DIRECTION('center_axis',(-2.37744510069087E-10,-1.,0.));
#302=DIRECTION('ref_axis',(-1.,2.37744484250547E-10,0.));
#303=DIRECTION('center_axis',(-2.37744510069087E-10,-1.,0.));
#304=DIRECTION('ref_axis',(1.,-2.37744510069087E-10,0.));
#305=DIRECTION('',(2.37744510069087E-10,1.,0.));
#306=DIRECTION('center_axis',(-2.37744510069087E-10,-1.,0.));
#307=DIRECTION('ref_axis',(0.,0.,-1.));
#308=DIRECTION('center_axis',(-2.37744510069087E-10,-1.,0.));
#309=DIRECTION('ref_axis',(1.,-2.37744510069087E-10,0.));
#310=DIRECTION('center_axis',(-2.37744510069087E-10,-1.,0.));
#311=DIRECTION('ref_axis',(-1.,2.37744484250547E-10,0.));
#312=DIRECTION('center_axis',(-2.37744510069087E-10,-1.,0.));
#313=DIRECTION('ref_axis',(1.,-2.37744510069087E-10,0.));
#314=DIRECTION('',(2.37744510069087E-10,1.,0.));
#315=DIRECTION('center_axis',(-2.37744510069087E-10,-1.,0.));
#316=DIRECTION('ref_axis',(-1.,2.37744484250547E-10,0.));
#317=DIRECTION('center_axis',(-2.37744510069087E-10,-1.,0.));
#318=DIRECTION('ref_axis',(1.,-2.37744510069087E-10,0.));
#319=DIRECTION('',(-0.939693225161762,0.342018482812093,-1.15079230047438E-16));
#320=DIRECTION('center_axis',(-2.37744510069087E-10,-1.,0.));
#321=DIRECTION('ref_axis',(-1.,2.37744484250547E-10,0.));
#322=DIRECTION('center_axis',(-2.37744510069087E-10,-1.,0.));
#323=DIRECTION('ref_axis',(1.,-2.37744510069087E-10,0.));
#324=DIRECTION('',(2.37744510069087E-10,1.,0.));
#325=DIRECTION('center_axis',(-2.37744510069087E-10,-1.,0.));
#326=DIRECTION('ref_axis',(0.,0.,-1.));
#327=DIRECTION('center_axis',(2.37744510069087E-10,1.,0.));
#328=DIRECTION('ref_axis',(0.,0.,1.));
#329=DIRECTION('center_axis',(-2.37744510069087E-10,-1.,0.));
#330=DIRECTION('ref_axis',(1.,-2.37744510069087E-10,0.));
#331=DIRECTION('center_axis',(-2.37744510069087E-10,-1.,0.));
#332=DIRECTION('ref_axis',(-1.,2.37744484250547E-10,0.));
#333=DIRECTION('center_axis',(-2.37744510069087E-10,-1.,0.));
#334=DIRECTION('ref_axis',(1.,-2.37744510069087E-10,0.));
#335=DIRECTION('',(2.37744510069087E-10,1.,0.));
#336=DIRECTION('center_axis',(2.37744510069087E-10,1.,0.));
#337=DIRECTION('ref_axis',(-1.,2.37744484250547E-10,0.));
#338=DIRECTION('center_axis',(-2.37744510069087E-10,-1.,0.));
#339=DIRECTION('ref_axis',(1.,-2.37744510069087E-10,0.));
#340=DIRECTION('',(0.939693225487015,0.342018481918463,1.15079230067355E-16));
#341=DIRECTION('center_axis',(-2.37744510069087E-10,-1.,0.));
#342=DIRECTION('ref_axis',(-1.,2.37744484250547E-10,0.));
#343=DIRECTION('',(2.37744510069087E-10,1.,0.));
#344=CARTESIAN_POINT('',(0.,0.,0.));
#345=CARTESIAN_POINT('Origin',(4.27940118098639E-8,179.999999989183,0.));
#346=CARTESIAN_POINT('',(-36.149999957206,179.999999997777,-4.42709817891768E-15));
#347=CARTESIAN_POINT('Origin',(4.27940118098639E-8,179.999999989183,0.));
#348=CARTESIAN_POINT('',(-36.15,8.59446414369636E-9,4.42709817891768E-15));
#349=CARTESIAN_POINT('',(-36.149999957206,179.999999997777,-4.42709817891768E-15));
#350=CARTESIAN_POINT('Origin',(-5.21322127275685E-16,0.,0.));
#351=CARTESIAN_POINT('Origin',(-47.8049910001084,151.999999694327,0.));
#352=CARTESIAN_POINT('',(4.527441068016E-7,151.999999682961,47.8049914528525));
#353=CARTESIAN_POINT('Origin',(4.52744112656023E-7,151.999999682961,0.));
#354=CARTESIAN_POINT('',(38.1500074137898,151.999999888104,4.67202839122939E-15));
#355=CARTESIAN_POINT('Origin',(4.52744112706951E-7,151.999999897174,0.));
#356=CARTESIAN_POINT('Origin',(4.48464711474779E-7,133.999999682961,0.));
#357=CARTESIAN_POINT('',(4.48464703416267E-7,133.99999968412,65.8049908915658));
#358=CARTESIAN_POINT('',(65.8049911809616,133.999999668475,8.05878712684735E-15));
#359=CARTESIAN_POINT('Origin',(4.48464711475054E-7,133.99999968412,0.));
#360=CARTESIAN_POINT('Origin',(4.48464705620356E-7,133.999999682961,47.8049910534902));
#361=CARTESIAN_POINT('Origin',(4.48464711475054E-7,133.99999968412,0.));
#362=CARTESIAN_POINT('Origin',(4.37914797864657E-7,89.6249955785277,0.));
#363=CARTESIAN_POINT('',(65.8049911598617,45.2499914572909,8.05878712684735E-15));
#364=CARTESIAN_POINT('Origin',(4.27364884254259E-7,45.2499914729356,0.));
#365=CARTESIAN_POINT('',(65.8049911704117,89.6249955628829,8.05878712684735E-15));
#366=CARTESIAN_POINT('Origin',(-78.7499995726351,45.2499914885804,0.));
#367=CARTESIAN_POINT('',(78.7500004273648,45.2499914511357,9.64409354328539E-15));
#368=CARTESIAN_POINT('Origin',(4.27364884253527E-7,45.2499914698581,0.));
#369=CARTESIAN_POINT('Origin',(4.25165747581238E-7,35.9999916627104,0.));
#370=CARTESIAN_POINT('',(78.7500004229665,26.7499918368403,9.64409354328539E-15));
#371=CARTESIAN_POINT('Origin',(4.22966610908948E-7,26.7499918555627,0.));
#372=CARTESIAN_POINT('',(78.7500004251656,35.999991643988,9.64409354328539E-15));
#373=CARTESIAN_POINT('Origin',(-38.1499990000008,26.7499917673935,0.));
#374=CARTESIAN_POINT('',(38.1499998434107,26.7499917492536,4.67202746777202E-15));
#375=CARTESIAN_POINT('Origin',(4.2296661088583E-7,26.7499917583236,0.));
#376=CARTESIAN_POINT('Origin',(4.20443565801093E-7,16.1375696922836,0.));
#377=CARTESIAN_POINT('',(38.1499998383646,5.52514761717362,4.67202746777202E-15));
#378=CARTESIAN_POINT('Origin',(4.17920520716356E-7,5.52514762624357,0.));
#379=CARTESIAN_POINT('',(38.1499998408876,16.1375696832136,4.67202746777202E-15));
#380=CARTESIAN_POINT('Origin',(4.17602517597332E-7,4.18756418874597,0.));
#381=CARTESIAN_POINT('',(45.500000834569,2.84998074043097,5.57214298722307E-15));
#382=CARTESIAN_POINT('Origin',(4.17284514478307E-7,2.84998075124832,0.));
#383=CARTESIAN_POINT('',(41.8250003352051,4.18756417880231,5.12208522734304E-15));
#384=CARTESIAN_POINT('Origin',(4.16945730838316E-7,1.42499037021548,0.));
#385=CARTESIAN_POINT('',(45.5000008335527,-2.16347484371937E-8,5.57214298718158E-15));
#386=CARTESIAN_POINT('Origin',(4.16606947198324E-7,-1.08173736634853E-8,
0.));
#387=CARTESIAN_POINT('',(45.5000008338915,1.4249903593981,5.57214298718158E-15));
#388=CARTESIAN_POINT('Origin',(4.16606944497744E-7,0.,0.));
#389=CARTESIAN_POINT('Origin',(-45.5000000421471,180.,0.));
#390=CARTESIAN_POINT('',(45.5000009606103,179.999999978365,5.57214299750089E-15));
#391=CARTESIAN_POINT('Origin',(4.59400959010759E-7,179.999999989183,0.));
#392=CARTESIAN_POINT('Origin',(4.59062175370768E-7,178.57500960815,0.));
#393=CARTESIAN_POINT('',(45.5000009599327,177.1500192163,5.57214299750089E-15));
#394=CARTESIAN_POINT('Origin',(4.58723391730776E-7,177.150019227117,0.));
#395=CARTESIAN_POINT('',(45.5000009602715,178.575009597333,5.57214299750089E-15));
#396=CARTESIAN_POINT('Origin',(4.58405388862747E-7,175.812436845357,0.));
#397=CARTESIAN_POINT('',(38.1500057499775,174.474854454526,4.67202818681678E-15));
#398=CARTESIAN_POINT('Origin',(4.58087385994718E-7,174.474854463596,0.));
#399=CARTESIAN_POINT('',(41.8250033547857,175.812436835413,5.12208559213809E-15));
#400=CARTESIAN_POINT('Origin',(4.55415749350834E-7,163.237427180385,0.));
#401=CARTESIAN_POINT('',(38.1500074164615,163.237427171315,4.67202839122939E-15));
#402=UNCERTAINTY_MEASURE_WITH_UNIT(LENGTH_MEASURE(0.01),#406,
'DISTANCE_ACCURACY_VALUE',
'Maximum model space distance between geometric entities at asserted c
onnectivities');
#403=UNCERTAINTY_MEASURE_WITH_UNIT(LENGTH_MEASURE(0.01),#406,
'DISTANCE_ACCURACY_VALUE',
'Maximum model space distance between geometric entities at asserted c
onnectivities');
#404=(
GEOMETRIC_REPRESENTATION_CONTEXT(3)
GLOBAL_UNCERTAINTY_ASSIGNED_CONTEXT((#402))
GLOBAL_UNIT_ASSIGNED_CONTEXT((#406,#408,#409))
REPRESENTATION_CONTEXT('','3D')
);
#405=(
GEOMETRIC_REPRESENTATION_CONTEXT(3)
GLOBAL_UNCERTAINTY_ASSIGNED_CONTEXT((#403))
GLOBAL_UNIT_ASSIGNED_CONTEXT((#406,#408,#409))
REPRESENTATION_CONTEXT('','3D')
);
#406=(
LENGTH_UNIT()
NAMED_UNIT(*)
SI_UNIT(.MILLI.,.METRE.)
);
#407=(
LENGTH_UNIT()
NAMED_UNIT(*)
SI_UNIT(.CENTI.,.METRE.)
);
#408=(
NAMED_UNIT(*)
PLANE_ANGLE_UNIT()
SI_UNIT($,.RADIAN.)
);
#409=(
NAMED_UNIT(*)
SI_UNIT($,.STERADIAN.)
SOLID_ANGLE_UNIT()
);
#410=SHAPE_DEFINITION_REPRESENTATION(#411,#412);
#411=PRODUCT_DEFINITION_SHAPE('',$,#414);
#412=SHAPE_REPRESENTATION('',(#236),#404);
#413=PRODUCT_DEFINITION_CONTEXT('part definition',#418,'design');
#414=PRODUCT_DEFINITION('CVSC-30-1','CVSC-30-1',#415,#413);
#415=PRODUCT_DEFINITION_FORMATION('',$,#420);
#416=PRODUCT_RELATED_PRODUCT_CATEGORY('CVSC-30-1','CVSC-30-1',(#420));
#417=APPLICATION_PROTOCOL_DEFINITION('international standard',
'automotive_design',2009,#418);
#418=APPLICATION_CONTEXT(
'Core Data for Automotive Mechanical Design Process');
#419=PRODUCT_CONTEXT('part definition',#418,'mechanical');
#420=PRODUCT('CVSC-30-1','CVSC-30-1',$,(#419));
#421=PRESENTATION_STYLE_ASSIGNMENT((#422));
#422=SURFACE_STYLE_USAGE(.BOTH.,#425);
#423=SURFACE_STYLE_RENDERING_WITH_PROPERTIES($,#429,(#424));
#424=SURFACE_STYLE_TRANSPARENT(0.);
#425=SURFACE_SIDE_STYLE('',(#426,#423));
#426=SURFACE_STYLE_FILL_AREA(#427);
#427=FILL_AREA_STYLE('',(#428));
#428=FILL_AREA_STYLE_COLOUR('',#429);
#429=COLOUR_RGB('',0.749019607843137,0.749019607843137,0.749019607843137);
ENDSEC;
END-ISO-10303-21;
