ISO-10303-21;
HEADER;
/* Generated by software containing ST-Developer
 * from STEP Tools, Inc. (www.steptools.com) 
 */

FILE_DESCRIPTION(
/* description */ (''),
/* implementation_level */ '2;1');

FILE_NAME(
/* name */ 'CVSC-25-1.stp',
/* time_stamp */ '2024-03-28T11:29:48+09:00',
/* author */ ('autocad22'),
/* organization */ (''),
/* preprocessor_version */ 'ST-DEVELOPER v19.2',
/* originating_system */ 'Autodesk Inventor 2024',
/* authorisation */ '');

FILE_SCHEMA (('AUTOMOTIVE_DESIGN { 1 0 10303 214 3 1 1 }'));
ENDSEC;

DATA;
#10=MECHANICAL_DESIGN_GEOMETRIC_PRESENTATION_REPRESENTATION('',(#13),#405);
#11=SHAPE_REPRESENTATION_RELATIONSHIP('SRR','None',#412,#12);
#12=ADVANCED_BREP_SHAPE_REPRESENTATION('',(#14),#404);
#13=STYLED_ITEM('',(#421),#14);
#14=MANIFOLD_SOLID_BREP('\X2\30BD30EA30C330C9\X0\1',#214);
#15=TOROIDAL_SURFACE('',#256,44.5000002472112,18.);
#16=FACE_BOUND('',#48,.T.);
#17=FACE_BOUND('',#50,.T.);
#18=FACE_BOUND('',#55,.T.);
#19=FACE_BOUND('',#59,.T.);
#20=FACE_BOUND('',#62,.T.);
#21=PLANE('',#245);
#22=PLANE('',#246);
#23=PLANE('',#254);
#24=PLANE('',#262);
#25=PLANE('',#266);
#26=CONICAL_SURFACE('',#240,35.2500155475821,1.22173037598291);
#27=CONICAL_SURFACE('',#243,38.7500085200939,5.82282352700246E-6);
#28=CONICAL_SURFACE('',#250,35.250000222557,1.22173029811259);
#29=FACE_OUTER_BOUND('',#44,.T.);
#30=FACE_OUTER_BOUND('',#45,.T.);
#31=FACE_OUTER_BOUND('',#46,.T.);
#32=FACE_OUTER_BOUND('',#47,.T.);
#33=FACE_OUTER_BOUND('',#49,.T.);
#34=FACE_OUTER_BOUND('',#51,.T.);
#35=FACE_OUTER_BOUND('',#52,.T.);
#36=FACE_OUTER_BOUND('',#53,.T.);
#37=FACE_OUTER_BOUND('',#54,.T.);
#38=FACE_OUTER_BOUND('',#56,.T.);
#39=FACE_OUTER_BOUND('',#57,.T.);
#40=FACE_OUTER_BOUND('',#58,.T.);
#41=FACE_OUTER_BOUND('',#60,.T.);
#42=FACE_OUTER_BOUND('',#61,.T.);
#43=FACE_OUTER_BOUND('',#63,.T.);
#44=EDGE_LOOP('',(#141,#142,#143,#144));
#45=EDGE_LOOP('',(#145,#146,#147,#148));
#46=EDGE_LOOP('',(#149,#150,#151,#152));
#47=EDGE_LOOP('',(#153));
#48=EDGE_LOOP('',(#154));
#49=EDGE_LOOP('',(#155));
#50=EDGE_LOOP('',(#156));
#51=EDGE_LOOP('',(#157,#158,#159,#160));
#52=EDGE_LOOP('',(#161,#162,#163,#164));
#53=EDGE_LOOP('',(#165,#166,#167,#168));
#54=EDGE_LOOP('',(#169));
#55=EDGE_LOOP('',(#170));
#56=EDGE_LOOP('',(#171,#172,#173,#174,#175));
#57=EDGE_LOOP('',(#176,#177,#178,#179,#180));
#58=EDGE_LOOP('',(#181));
#59=EDGE_LOOP('',(#182));
#60=EDGE_LOOP('',(#183,#184,#185,#186));
#61=EDGE_LOOP('',(#187));
#62=EDGE_LOOP('',(#188));
#63=EDGE_LOOP('',(#189,#190,#191,#192));
#64=LINE('',#349,#73);
#65=LINE('',#355,#74);
#66=LINE('',#360,#75);
#67=LINE('',#368,#76);
#68=LINE('',#372,#77);
#69=LINE('',#376,#78);
#70=LINE('',#389,#79);
#71=LINE('',#396,#80);
#72=LINE('',#401,#81);
#73=VECTOR('',#275,29.75);
#74=VECTOR('',#282,35.2500155475821);
#75=VECTOR('',#289,38.7500085200939);
#76=VECTOR('',#300,38.750000222557);
#77=VECTOR('',#305,35.250000222557);
#78=VECTOR('',#310,31.7500002225571);
#79=VECTOR('',#327,62.5000002472112);
#80=VECTOR('',#336,78.7500000000001);
#81=VECTOR('',#343,31.7500077194665);
#82=CIRCLE('',#238,29.75);
#83=CIRCLE('',#239,29.75);
#84=CIRCLE('',#241,38.7500168176314);
#85=CIRCLE('',#242,31.7500142783554);
#86=CIRCLE('',#244,38.7500002225565);
#87=CIRCLE('',#247,38.750000222557);
#88=CIRCLE('',#249,38.750000222557);
#89=CIRCLE('',#251,31.7500002225568);
#90=CIRCLE('',#253,31.7500002225573);
#91=CIRCLE('',#255,44.5000002472124);
#92=CIRCLE('',#257,62.5000002472113);
#93=CIRCLE('',#258,18.);
#94=CIRCLE('',#259,62.5000002472113);
#95=CIRCLE('',#261,62.5000002472111);
#96=CIRCLE('',#263,78.7500000000002);
#97=CIRCLE('',#265,78.7500000000001);
#98=CIRCLE('',#267,31.7500011581724);
#99=VERTEX_POINT('',#346);
#100=VERTEX_POINT('',#348);
#101=VERTEX_POINT('',#352);
#102=VERTEX_POINT('',#354);
#103=VERTEX_POINT('',#358);
#104=VERTEX_POINT('',#363);
#105=VERTEX_POINT('',#366);
#106=VERTEX_POINT('',#370);
#107=VERTEX_POINT('',#374);
#108=VERTEX_POINT('',#378);
#109=VERTEX_POINT('',#381);
#110=VERTEX_POINT('',#382);
#111=VERTEX_POINT('',#387);
#112=VERTEX_POINT('',#391);
#113=VERTEX_POINT('',#394);
#114=VERTEX_POINT('',#398);
#115=EDGE_CURVE('',#99,#99,#82,.T.);
#116=EDGE_CURVE('',#99,#100,#64,.T.);
#117=EDGE_CURVE('',#100,#100,#83,.T.);
#118=EDGE_CURVE('',#101,#101,#84,.T.);
#119=EDGE_CURVE('',#101,#102,#65,.T.);
#120=EDGE_CURVE('',#102,#102,#85,.T.);
#121=EDGE_CURVE('',#103,#103,#86,.T.);
#122=EDGE_CURVE('',#103,#101,#66,.T.);
#123=EDGE_CURVE('',#104,#104,#87,.T.);
#124=EDGE_CURVE('',#105,#105,#88,.T.);
#125=EDGE_CURVE('',#105,#104,#67,.T.);
#126=EDGE_CURVE('',#106,#106,#89,.T.);
#127=EDGE_CURVE('',#106,#105,#68,.T.);
#128=EDGE_CURVE('',#107,#107,#90,.T.);
#129=EDGE_CURVE('',#107,#106,#69,.T.);
#130=EDGE_CURVE('',#108,#108,#91,.T.);
#131=EDGE_CURVE('',#109,#110,#92,.T.);
#132=EDGE_CURVE('',#109,#108,#93,.T.);
#133=EDGE_CURVE('',#110,#109,#94,.T.);
#134=EDGE_CURVE('',#111,#111,#95,.T.);
#135=EDGE_CURVE('',#111,#110,#70,.T.);
#136=EDGE_CURVE('',#112,#112,#96,.T.);
#137=EDGE_CURVE('',#113,#113,#97,.T.);
#138=EDGE_CURVE('',#113,#112,#71,.T.);
#139=EDGE_CURVE('',#114,#114,#98,.T.);
#140=EDGE_CURVE('',#102,#114,#72,.T.);
#141=ORIENTED_EDGE('',*,*,#115,.F.);
#142=ORIENTED_EDGE('',*,*,#116,.T.);
#143=ORIENTED_EDGE('',*,*,#117,.F.);
#144=ORIENTED_EDGE('',*,*,#116,.F.);
#145=ORIENTED_EDGE('',*,*,#118,.F.);
#146=ORIENTED_EDGE('',*,*,#119,.T.);
#147=ORIENTED_EDGE('',*,*,#120,.T.);
#148=ORIENTED_EDGE('',*,*,#119,.F.);
#149=ORIENTED_EDGE('',*,*,#121,.F.);
#150=ORIENTED_EDGE('',*,*,#122,.T.);
#151=ORIENTED_EDGE('',*,*,#118,.T.);
#152=ORIENTED_EDGE('',*,*,#122,.F.);
#153=ORIENTED_EDGE('',*,*,#121,.T.);
#154=ORIENTED_EDGE('',*,*,#117,.T.);
#155=ORIENTED_EDGE('',*,*,#123,.F.);
#156=ORIENTED_EDGE('',*,*,#115,.T.);
#157=ORIENTED_EDGE('',*,*,#124,.F.);
#158=ORIENTED_EDGE('',*,*,#125,.T.);
#159=ORIENTED_EDGE('',*,*,#123,.T.);
#160=ORIENTED_EDGE('',*,*,#125,.F.);
#161=ORIENTED_EDGE('',*,*,#126,.F.);
#162=ORIENTED_EDGE('',*,*,#127,.T.);
#163=ORIENTED_EDGE('',*,*,#124,.T.);
#164=ORIENTED_EDGE('',*,*,#127,.F.);
#165=ORIENTED_EDGE('',*,*,#128,.F.);
#166=ORIENTED_EDGE('',*,*,#129,.T.);
#167=ORIENTED_EDGE('',*,*,#126,.T.);
#168=ORIENTED_EDGE('',*,*,#129,.F.);
#169=ORIENTED_EDGE('',*,*,#130,.F.);
#170=ORIENTED_EDGE('',*,*,#128,.T.);
#171=ORIENTED_EDGE('',*,*,#131,.F.);
#172=ORIENTED_EDGE('',*,*,#132,.T.);
#173=ORIENTED_EDGE('',*,*,#130,.T.);
#174=ORIENTED_EDGE('',*,*,#132,.F.);
#175=ORIENTED_EDGE('',*,*,#133,.F.);
#176=ORIENTED_EDGE('',*,*,#134,.F.);
#177=ORIENTED_EDGE('',*,*,#135,.T.);
#178=ORIENTED_EDGE('',*,*,#133,.T.);
#179=ORIENTED_EDGE('',*,*,#131,.T.);
#180=ORIENTED_EDGE('',*,*,#135,.F.);
#181=ORIENTED_EDGE('',*,*,#136,.F.);
#182=ORIENTED_EDGE('',*,*,#134,.T.);
#183=ORIENTED_EDGE('',*,*,#137,.F.);
#184=ORIENTED_EDGE('',*,*,#138,.T.);
#185=ORIENTED_EDGE('',*,*,#136,.T.);
#186=ORIENTED_EDGE('',*,*,#138,.F.);
#187=ORIENTED_EDGE('',*,*,#137,.T.);
#188=ORIENTED_EDGE('',*,*,#139,.F.);
#189=ORIENTED_EDGE('',*,*,#120,.F.);
#190=ORIENTED_EDGE('',*,*,#140,.T.);
#191=ORIENTED_EDGE('',*,*,#139,.T.);
#192=ORIENTED_EDGE('',*,*,#140,.F.);
#193=CYLINDRICAL_SURFACE('',#237,29.75);
#194=CYLINDRICAL_SURFACE('',#248,38.750000222557);
#195=CYLINDRICAL_SURFACE('',#252,31.7500002225571);
#196=CYLINDRICAL_SURFACE('',#260,62.5000002472112);
#197=CYLINDRICAL_SURFACE('',#264,78.7500000000001);
#198=CYLINDRICAL_SURFACE('',#268,31.7500077194665);
#199=ADVANCED_FACE('',(#29),#193,.F.);
#200=ADVANCED_FACE('',(#30),#26,.T.);
#201=ADVANCED_FACE('',(#31),#27,.T.);
#202=ADVANCED_FACE('',(#32,#16),#21,.T.);
#203=ADVANCED_FACE('',(#33,#17),#22,.T.);
#204=ADVANCED_FACE('',(#34),#194,.T.);
#205=ADVANCED_FACE('',(#35),#28,.T.);
#206=ADVANCED_FACE('',(#36),#195,.T.);
#207=ADVANCED_FACE('',(#37,#18),#23,.T.);
#208=ADVANCED_FACE('',(#38),#15,.T.);
#209=ADVANCED_FACE('',(#39),#196,.T.);
#210=ADVANCED_FACE('',(#40,#19),#24,.T.);
#211=ADVANCED_FACE('',(#41),#197,.T.);
#212=ADVANCED_FACE('',(#42,#20),#25,.T.);
#213=ADVANCED_FACE('',(#43),#198,.T.);
#214=CLOSED_SHELL('',(#199,#200,#201,#202,#203,#204,#205,#206,#207,#208,
#209,#210,#211,#212,#213));
#215=DERIVED_UNIT_ELEMENT(#218,1.);
#216=DERIVED_UNIT_ELEMENT(#407,-3.);
#217=DIMENSIONAL_EXPONENTS(0.,1.,0.,0.,0.,0.,0.);
#218=(
CONVERSION_BASED_UNIT('gram',#220)
MASS_UNIT()
NAMED_UNIT(#217)
);
#219=(
MASS_UNIT()
NAMED_UNIT(*)
SI_UNIT(.KILO.,.GRAM.)
);
#220=MASS_MEASURE_WITH_UNIT(MASS_MEASURE(0.001),#219);
#221=DERIVED_UNIT((#215,#216));
#222=MEASURE_REPRESENTATION_ITEM('density measure',
POSITIVE_RATIO_MEASURE(1.),#221);
#223=PROPERTY_DEFINITION_REPRESENTATION(#228,#225);
#224=PROPERTY_DEFINITION_REPRESENTATION(#229,#226);
#225=REPRESENTATION('material name',(#227),#404);
#226=REPRESENTATION('density',(#222),#404);
#227=DESCRIPTIVE_REPRESENTATION_ITEM('\X2\4E00822C\X0\','\X2\4E00822C\X0\');
#228=PROPERTY_DEFINITION('material property','material name',#414);
#229=PROPERTY_DEFINITION('material property','density of part',#414);
#230=DATE_TIME_ROLE('creation_date');
#231=APPLIED_DATE_AND_TIME_ASSIGNMENT(#232,#230,(#414));
#232=DATE_AND_TIME(#233,#234);
#233=CALENDAR_DATE(2024,28,3);
#234=LOCAL_TIME(0,0,0.,#235);
#235=COORDINATED_UNIVERSAL_TIME_OFFSET(0,0,.BEHIND.);
#236=AXIS2_PLACEMENT_3D('',#344,#269,#270);
#237=AXIS2_PLACEMENT_3D('',#345,#271,#272);
#238=AXIS2_PLACEMENT_3D('',#347,#273,#274);
#239=AXIS2_PLACEMENT_3D('',#350,#276,#277);
#240=AXIS2_PLACEMENT_3D('',#351,#278,#279);
#241=AXIS2_PLACEMENT_3D('',#353,#280,#281);
#242=AXIS2_PLACEMENT_3D('',#356,#283,#284);
#243=AXIS2_PLACEMENT_3D('',#357,#285,#286);
#244=AXIS2_PLACEMENT_3D('',#359,#287,#288);
#245=AXIS2_PLACEMENT_3D('',#361,#290,#291);
#246=AXIS2_PLACEMENT_3D('',#362,#292,#293);
#247=AXIS2_PLACEMENT_3D('',#364,#294,#295);
#248=AXIS2_PLACEMENT_3D('',#365,#296,#297);
#249=AXIS2_PLACEMENT_3D('',#367,#298,#299);
#250=AXIS2_PLACEMENT_3D('',#369,#301,#302);
#251=AXIS2_PLACEMENT_3D('',#371,#303,#304);
#252=AXIS2_PLACEMENT_3D('',#373,#306,#307);
#253=AXIS2_PLACEMENT_3D('',#375,#308,#309);
#254=AXIS2_PLACEMENT_3D('',#377,#311,#312);
#255=AXIS2_PLACEMENT_3D('',#379,#313,#314);
#256=AXIS2_PLACEMENT_3D('',#380,#315,#316);
#257=AXIS2_PLACEMENT_3D('',#383,#317,#318);
#258=AXIS2_PLACEMENT_3D('',#384,#319,#320);
#259=AXIS2_PLACEMENT_3D('',#385,#321,#322);
#260=AXIS2_PLACEMENT_3D('',#386,#323,#324);
#261=AXIS2_PLACEMENT_3D('',#388,#325,#326);
#262=AXIS2_PLACEMENT_3D('',#390,#328,#329);
#263=AXIS2_PLACEMENT_3D('',#392,#330,#331);
#264=AXIS2_PLACEMENT_3D('',#393,#332,#333);
#265=AXIS2_PLACEMENT_3D('',#395,#334,#335);
#266=AXIS2_PLACEMENT_3D('',#397,#337,#338);
#267=AXIS2_PLACEMENT_3D('',#399,#339,#340);
#268=AXIS2_PLACEMENT_3D('',#400,#341,#342);
#269=DIRECTION('axis',(0.,0.,1.));
#270=DIRECTION('refdir',(1.,0.,0.));
#271=DIRECTION('center_axis',(-3.21964677141295E-15,-1.,0.));
#272=DIRECTION('ref_axis',(1.,-3.21964677141295E-15,0.));
#273=DIRECTION('center_axis',(-3.22973958566182E-15,-1.,0.));
#274=DIRECTION('ref_axis',(1.,-3.21964677141295E-15,0.));
#275=DIRECTION('',(-3.21964677141295E-15,-1.,0.));
#276=DIRECTION('center_axis',(3.22973958566182E-15,1.,0.));
#277=DIRECTION('ref_axis',(1.,-3.21964677141295E-15,0.));
#278=DIRECTION('center_axis',(-3.22973958566182E-15,-1.,0.));
#279=DIRECTION('ref_axis',(-1.,3.35689390734864E-15,0.));
#280=DIRECTION('center_axis',(-3.22973958566182E-15,-1.,0.));
#281=DIRECTION('ref_axis',(1.,-3.22973958566183E-15,0.));
#282=DIRECTION('',(-0.939692586442592,0.34202023768314,-1.15079151816942E-16));
#283=DIRECTION('center_axis',(-3.22973958566182E-15,-1.,0.));
#284=DIRECTION('ref_axis',(1.,-3.22973958566182E-15,0.));
#285=DIRECTION('center_axis',(3.22973958566182E-15,1.,0.));
#286=DIRECTION('ref_axis',(-1.,3.35689390734864E-15,0.));
#287=DIRECTION('center_axis',(-3.22973958566182E-15,-1.,0.));
#288=DIRECTION('ref_axis',(1.,-3.22973958566182E-15,0.));
#289=DIRECTION('',(5.8228235301993E-6,0.999999999983047,7.13090219430317E-22));
#290=DIRECTION('center_axis',(-3.22973958566182E-15,-1.,0.));
#291=DIRECTION('ref_axis',(0.,0.,-1.));
#292=DIRECTION('center_axis',(3.22973958566182E-15,1.,0.));
#293=DIRECTION('ref_axis',(0.,0.,1.));
#294=DIRECTION('center_axis',(-3.22973958566182E-15,-1.,0.));
#295=DIRECTION('ref_axis',(1.,-3.22973958566182E-15,0.));
#296=DIRECTION('center_axis',(-3.22973958566182E-15,-1.,0.));
#297=DIRECTION('ref_axis',(-1.,3.35689390734864E-15,0.));
#298=DIRECTION('center_axis',(-3.22973958566182E-15,-1.,0.));
#299=DIRECTION('ref_axis',(1.,-3.22973958566182E-15,0.));
#300=DIRECTION('',(3.22973958566182E-15,1.,0.));
#301=DIRECTION('center_axis',(3.22973958566182E-15,1.,0.));
#302=DIRECTION('ref_axis',(-1.,3.35689390734864E-15,0.));
#303=DIRECTION('center_axis',(-3.22973958566182E-15,-1.,0.));
#304=DIRECTION('ref_axis',(1.,-3.22973958566182E-15,0.));
#305=DIRECTION('',(0.939692559809366,0.342020310857295,1.15079148555312E-16));
#306=DIRECTION('center_axis',(-3.22973958566182E-15,-1.,0.));
#307=DIRECTION('ref_axis',(-1.,3.35689390734864E-15,0.));
#308=DIRECTION('center_axis',(-3.22973958566182E-15,-1.,0.));
#309=DIRECTION('ref_axis',(1.,-3.22973958566182E-15,0.));
#310=DIRECTION('',(3.22973958566182E-15,1.,0.));
#311=DIRECTION('center_axis',(3.22973958566182E-15,1.,0.));
#312=DIRECTION('ref_axis',(0.,0.,1.));
#313=DIRECTION('center_axis',(-3.22973958566182E-15,-1.,0.));
#314=DIRECTION('ref_axis',(1.,-3.22973958566182E-15,0.));
#315=DIRECTION('center_axis',(-3.22973958566182E-15,-1.,0.));
#316=DIRECTION('ref_axis',(0.,0.,-1.));
#317=DIRECTION('center_axis',(-3.22973958566182E-15,-1.,0.));
#318=DIRECTION('ref_axis',(1.,-3.22973958566182E-15,0.));
#319=DIRECTION('center_axis',(-1.,3.22973958566182E-15,-1.22464680009562E-16));
#320=DIRECTION('ref_axis',(-1.22464680009562E-16,0.,1.));
#321=DIRECTION('center_axis',(-3.22973958566182E-15,-1.,0.));
#322=DIRECTION('ref_axis',(1.,-3.22973958566182E-15,0.));
#323=DIRECTION('center_axis',(-3.22973958566182E-15,-1.,0.));
#324=DIRECTION('ref_axis',(-1.,3.35689390734864E-15,0.));
#325=DIRECTION('center_axis',(-3.22973958566182E-15,-1.,0.));
#326=DIRECTION('ref_axis',(1.,-3.22973958566182E-15,0.));
#327=DIRECTION('',(3.22973958566182E-15,1.,0.));
#328=DIRECTION('center_axis',(3.22973958566182E-15,1.,0.));
#329=DIRECTION('ref_axis',(0.,0.,1.));
#330=DIRECTION('center_axis',(-3.22973958566182E-15,-1.,0.));
#331=DIRECTION('ref_axis',(1.,-3.22973958566182E-15,0.));
#332=DIRECTION('center_axis',(-3.22973958566182E-15,-1.,0.));
#333=DIRECTION('ref_axis',(-1.,3.35689390734864E-15,0.));
#334=DIRECTION('center_axis',(-3.22973958566182E-15,-1.,0.));
#335=DIRECTION('ref_axis',(1.,-3.22973958566182E-15,0.));
#336=DIRECTION('',(3.22973958566182E-15,1.,0.));
#337=DIRECTION('center_axis',(-3.22973958566182E-15,-1.,0.));
#338=DIRECTION('ref_axis',(0.,0.,-1.));
#339=DIRECTION('center_axis',(-3.22973958566182E-15,-1.,0.));
#340=DIRECTION('ref_axis',(1.,-3.22973958566182E-15,0.));
#341=DIRECTION('center_axis',(-3.22973958566182E-15,-1.,0.));
#342=DIRECTION('ref_axis',(-1.,3.35689390734864E-15,0.));
#343=DIRECTION('',(3.22973958566182E-15,1.,0.));
#344=CARTESIAN_POINT('',(0.,0.,0.));
#345=CARTESIAN_POINT('Origin',(5.49055751106044E-13,170.000006666667,0.));
#346=CARTESIAN_POINT('',(-29.7499999999994,170.000006666667,-3.64332422746338E-15));
#347=CARTESIAN_POINT('Origin',(5.49055751106044E-13,170.000006666667,0.));
#348=CARTESIAN_POINT('',(-29.75,9.57844914495354E-14,3.64332422746338E-15));
#349=CARTESIAN_POINT('',(-29.7499999999994,170.000006666667,-3.64332422746338E-15));
#350=CARTESIAN_POINT('Origin',(1.71577850152899E-15,0.,0.));
#351=CARTESIAN_POINT('Origin',(2.22556502920219E-7,4.12390146370739,0.));
#352=CARTESIAN_POINT('',(38.7500170401879,2.85000478351175,4.74550840626184E-15));
#353=CARTESIAN_POINT('Origin',(2.22556498805864E-7,2.85000478351188,0.));
#354=CARTESIAN_POINT('',(31.7500145000893,5.39779814390279,3.88825533578632E-15));
#355=CARTESIAN_POINT('',(35.2500157701386,4.12390146370727,4.31688187102408E-15));
#356=CARTESIAN_POINT('Origin',(2.22556507034573E-7,5.3977981461631,0.));
#357=CARTESIAN_POINT('Origin',(2.22556494203478E-7,1.42500239175588,0.));
#358=CARTESIAN_POINT('',(38.750000445113,-2.59237076249974E-13,4.7455063739513E-15));
#359=CARTESIAN_POINT('Origin',(2.22556489601091E-7,-1.24344978758018E-13,
0.));
#360=CARTESIAN_POINT('',(38.7500087426504,1.42500239175575,4.74550739010657E-15));
#361=CARTESIAN_POINT('Origin',(2.22556484352765E-7,0.,0.));
#362=CARTESIAN_POINT('Origin',(-38.75,170.000006666667,0.));
#363=CARTESIAN_POINT('',(38.7500004451141,170.000006666667,4.74550637395137E-15));
#364=CARTESIAN_POINT('Origin',(2.22557038656842E-7,170.000006666667,0.));
#365=CARTESIAN_POINT('Origin',(2.22557034054435E-7,168.574997925664,0.));
#366=CARTESIAN_POINT('',(38.7500004451141,167.149989184662,4.74550637395137E-15));
#367=CARTESIAN_POINT('Origin',(2.22557029452028E-7,167.149989184662,0.));
#368=CARTESIAN_POINT('',(38.7500004451141,168.574997925664,4.74550637395137E-15));
#369=CARTESIAN_POINT('Origin',(2.22557025337674E-7,165.876092658075,0.));
#370=CARTESIAN_POINT('',(31.750000445114,164.602196131489,3.88825361454822E-15));
#371=CARTESIAN_POINT('Origin',(2.2255702122332E-7,164.602196131489,0.));
#372=CARTESIAN_POINT('',(35.250000445114,165.876092658075,4.31687999424979E-15));
#373=CARTESIAN_POINT('Origin',(2.22556976649378E-7,150.801101399076,0.));
#374=CARTESIAN_POINT('',(31.750000445114,137.000006666664,3.88825361454823E-15));
#375=CARTESIAN_POINT('Origin',(2.22556932075436E-7,137.000006666664,0.));
#376=CARTESIAN_POINT('',(31.7500004451141,150.801101399076,3.88825361454823E-15));
#377=CARTESIAN_POINT('Origin',(-44.5000000246554,137.000006666663,0.));
#378=CARTESIAN_POINT('',(2.22556926625757E-7,137.000006666663,44.5000002472124));
#379=CARTESIAN_POINT('Origin',(2.22556932075436E-7,137.000006666663,0.));
#380=CARTESIAN_POINT('Origin',(2.22556873940123E-7,119.000006666663,0.));
#381=CARTESIAN_POINT('',(2.22556866286081E-7,119.000006666663,62.5000002472113));
#382=CARTESIAN_POINT('',(62.5000004697681,119.000006666663,7.65404252494559E-15));
#383=CARTESIAN_POINT('Origin',(2.22556873940123E-7,119.000006666663,0.));
#384=CARTESIAN_POINT('Origin',(2.22556868490445E-7,119.000006666663,44.5000002472112));
#385=CARTESIAN_POINT('Origin',(2.22556873940123E-7,119.000006666663,0.));
#386=CARTESIAN_POINT('Origin',(2.22556761302948E-7,84.1250044835842,0.));
#387=CARTESIAN_POINT('',(62.5000004697678,49.2500023005049,7.65404252494559E-15));
#388=CARTESIAN_POINT('Origin',(2.22556648665773E-7,49.2500023005051,0.));
#389=CARTESIAN_POINT('',(62.5000004697679,84.125004483584,7.65404252494559E-15));
#390=CARTESIAN_POINT('Origin',(-78.7499997774435,49.2500023005053,0.));
#391=CARTESIAN_POINT('',(78.7500002225568,49.2500023005048,9.64409354328542E-15));
#392=CARTESIAN_POINT('Origin',(2.22556648665773E-7,49.250002300505,0.));
#393=CARTESIAN_POINT('Origin',(2.22556618790682E-7,40.0000024933573,0.));
#394=CARTESIAN_POINT('',(78.7500002225567,30.7500026862093,9.64409354328542E-15));
#395=CARTESIAN_POINT('Origin',(2.22556588915592E-7,30.7500026862095,0.));
#396=CARTESIAN_POINT('',(78.7500002225568,40.000002493357,9.64409354328542E-15));
#397=CARTESIAN_POINT('Origin',(-31.7500009356158,30.7500025624684,0.));
#398=CARTESIAN_POINT('',(31.7500079420231,30.7500025624682,3.88825453265484E-15));
#399=CARTESIAN_POINT('Origin',(2.22556588915591E-7,30.7500025624683,0.));
#400=CARTESIAN_POINT('Origin',(2.22556547975082E-7,18.0739003543157,0.));
#401=CARTESIAN_POINT('',(31.7500079420231,18.0739003543156,3.88825453265484E-15));
#402=UNCERTAINTY_MEASURE_WITH_UNIT(LENGTH_MEASURE(0.01),#406,
'DISTANCE_ACCURACY_VALUE',
'Maximum model space distance between geometric entities at asserted c
onnectivities');
#403=UNCERTAINTY_MEASURE_WITH_UNIT(LENGTH_MEASURE(0.01),#406,
'DISTANCE_ACCURACY_VALUE',
'Maximum model space distance between geometric entities at asserted c
onnectivities');
#404=(
GEOMETRIC_REPRESENTATION_CONTEXT(3)
GLOBAL_UNCERTAINTY_ASSIGNED_CONTEXT((#402))
GLOBAL_UNIT_ASSIGNED_CONTEXT((#406,#408,#409))
REPRESENTATION_CONTEXT('','3D')
);
#405=(
GEOMETRIC_REPRESENTATION_CONTEXT(3)
GLOBAL_UNCERTAINTY_ASSIGNED_CONTEXT((#403))
GLOBAL_UNIT_ASSIGNED_CONTEXT((#406,#408,#409))
REPRESENTATION_CONTEXT('','3D')
);
#406=(
LENGTH_UNIT()
NAMED_UNIT(*)
SI_UNIT(.MILLI.,.METRE.)
);
#407=(
LENGTH_UNIT()
NAMED_UNIT(*)
SI_UNIT(.CENTI.,.METRE.)
);
#408=(
NAMED_UNIT(*)
PLANE_ANGLE_UNIT()
SI_UNIT($,.RADIAN.)
);
#409=(
NAMED_UNIT(*)
SI_UNIT($,.STERADIAN.)
SOLID_ANGLE_UNIT()
);
#410=SHAPE_DEFINITION_REPRESENTATION(#411,#412);
#411=PRODUCT_DEFINITION_SHAPE('',$,#414);
#412=SHAPE_REPRESENTATION('',(#236),#404);
#413=PRODUCT_DEFINITION_CONTEXT('part definition',#418,'design');
#414=PRODUCT_DEFINITION('CVSC-25-1','CVSC-25-1',#415,#413);
#415=PRODUCT_DEFINITION_FORMATION('',$,#420);
#416=PRODUCT_RELATED_PRODUCT_CATEGORY('CVSC-25-1','CVSC-25-1',(#420));
#417=APPLICATION_PROTOCOL_DEFINITION('international standard',
'automotive_design',2009,#418);
#418=APPLICATION_CONTEXT(
'Core Data for Automotive Mechanical Design Process');
#419=PRODUCT_CONTEXT('part definition',#418,'mechanical');
#420=PRODUCT('CVSC-25-1','CVSC-25-1',$,(#419));
#421=PRESENTATION_STYLE_ASSIGNMENT((#422));
#422=SURFACE_STYLE_USAGE(.BOTH.,#425);
#423=SURFACE_STYLE_RENDERING_WITH_PROPERTIES($,#429,(#424));
#424=SURFACE_STYLE_TRANSPARENT(0.);
#425=SURFACE_SIDE_STYLE('',(#426,#423));
#426=SURFACE_STYLE_FILL_AREA(#427);
#427=FILL_AREA_STYLE('',(#428));
#428=FILL_AREA_STYLE_COLOUR('',#429);
#429=COLOUR_RGB('',0.749019607843137,0.749019607843137,0.749019607843137);
ENDSEC;
END-ISO-10303-21;
