ISO-10303-21;
HEADER;
/* Generated by software containing ST-Developer
 * from STEP Tools, Inc. (www.steptools.com) 
 */

FILE_DESCRIPTION(
/* description */ (''),
/* implementation_level */ '2;1');

FILE_NAME(
/* name */ 'CVSC-20-1.stp',
/* time_stamp */ '2024-03-28T11:26:40+09:00',
/* author */ ('autocad22'),
/* organization */ (''),
/* preprocessor_version */ 'ST-DEVELOPER v19.2',
/* originating_system */ 'Autodesk Inventor 2024',
/* authorisation */ '');

FILE_SCHEMA (('AUTOMOTIVE_DESIGN { 1 0 10303 214 3 1 1 }'));
ENDSEC;

DATA;
#10=MECHANICAL_DESIGN_GEOMETRIC_PRESENTATION_REPRESENTATION('',(#13),#405);
#11=SHAPE_REPRESENTATION_RELATIONSHIP('SRR','None',#412,#12);
#12=ADVANCED_BREP_SHAPE_REPRESENTATION('',(#14),#404);
#13=STYLED_ITEM('',(#421),#14);
#14=MANIFOLD_SOLID_BREP('\X2\30BD30EA30C330C9\X0\1',#214);
#15=TOROIDAL_SURFACE('',#247,34.9999967020167,18.);
#16=FACE_BOUND('',#48,.T.);
#17=FACE_BOUND('',#52,.T.);
#18=FACE_BOUND('',#55,.T.);
#19=FACE_BOUND('',#60,.T.);
#20=FACE_BOUND('',#62,.T.);
#21=PLANE('',#245);
#22=PLANE('',#253);
#23=PLANE('',#257);
#24=PLANE('',#265);
#25=PLANE('',#266);
#26=CONICAL_SURFACE('',#240,28.7000039999994,1.22173025267253);
#27=CONICAL_SURFACE('',#261,28.6999977830932,1.22172846396587);
#28=CONICAL_SURFACE('',#263,31.9999977830935,4.36275057162762E-6);
#29=FACE_OUTER_BOUND('',#44,.T.);
#30=FACE_OUTER_BOUND('',#45,.T.);
#31=FACE_OUTER_BOUND('',#46,.T.);
#32=FACE_OUTER_BOUND('',#47,.T.);
#33=FACE_OUTER_BOUND('',#49,.T.);
#34=FACE_OUTER_BOUND('',#50,.T.);
#35=FACE_OUTER_BOUND('',#51,.T.);
#36=FACE_OUTER_BOUND('',#53,.T.);
#37=FACE_OUTER_BOUND('',#54,.T.);
#38=FACE_OUTER_BOUND('',#56,.T.);
#39=FACE_OUTER_BOUND('',#57,.T.);
#40=FACE_OUTER_BOUND('',#58,.T.);
#41=FACE_OUTER_BOUND('',#59,.T.);
#42=FACE_OUTER_BOUND('',#61,.T.);
#43=FACE_OUTER_BOUND('',#63,.T.);
#44=EDGE_LOOP('',(#141,#142,#143,#144));
#45=EDGE_LOOP('',(#145,#146,#147,#148));
#46=EDGE_LOOP('',(#149,#150,#151,#152));
#47=EDGE_LOOP('',(#153));
#48=EDGE_LOOP('',(#154));
#49=EDGE_LOOP('',(#155,#156,#157,#158,#159));
#50=EDGE_LOOP('',(#160,#161,#162,#163,#164));
#51=EDGE_LOOP('',(#165));
#52=EDGE_LOOP('',(#166));
#53=EDGE_LOOP('',(#167,#168,#169,#170));
#54=EDGE_LOOP('',(#171));
#55=EDGE_LOOP('',(#172));
#56=EDGE_LOOP('',(#173,#174,#175,#176));
#57=EDGE_LOOP('',(#177,#178,#179,#180));
#58=EDGE_LOOP('',(#181,#182,#183,#184));
#59=EDGE_LOOP('',(#185));
#60=EDGE_LOOP('',(#186));
#61=EDGE_LOOP('',(#187));
#62=EDGE_LOOP('',(#188));
#63=EDGE_LOOP('',(#189,#190,#191,#192));
#64=LINE('',#349,#73);
#65=LINE('',#355,#74);
#66=LINE('',#360,#75);
#67=LINE('',#373,#76);
#68=LINE('',#380,#77);
#69=LINE('',#387,#78);
#70=LINE('',#391,#79);
#71=LINE('',#395,#80);
#72=LINE('',#401,#81);
#73=VECTOR('',#275,23.9);
#74=VECTOR('',#282,28.7000039999994);
#75=VECTOR('',#289,25.4000039999988);
#76=VECTOR('',#306,52.9999986546507);
#77=VECTOR('',#315,67.5);
#78=VECTOR('',#324,25.4000039999991);
#79=VECTOR('',#329,28.6999977830932);
#80=VECTOR('',#334,31.9999977830935);
#81=VECTOR('',#343,32.0000039999996);
#82=CIRCLE('',#238,23.9);
#83=CIRCLE('',#239,23.9);
#84=CIRCLE('',#241,25.4000039999991);
#85=CIRCLE('',#242,32.0000039999996);
#86=CIRCLE('',#244,25.4000039999985);
#87=CIRCLE('',#246,34.9999967020167);
#88=CIRCLE('',#248,52.9999967020167);
#89=CIRCLE('',#249,52.9999967020167);
#90=CIRCLE('',#250,18.);
#91=CIRCLE('',#252,53.0000006072845);
#92=CIRCLE('',#254,67.5);
#93=CIRCLE('',#256,67.5);
#94=CIRCLE('',#258,25.4000039999991);
#95=CIRCLE('',#260,25.4000039999991);
#96=CIRCLE('',#262,31.9999915661873);
#97=CIRCLE('',#264,32.0000039999996);
#98=CIRCLE('',#267,32.0000039999996);
#99=VERTEX_POINT('',#346);
#100=VERTEX_POINT('',#348);
#101=VERTEX_POINT('',#352);
#102=VERTEX_POINT('',#354);
#103=VERTEX_POINT('',#358);
#104=VERTEX_POINT('',#362);
#105=VERTEX_POINT('',#365);
#106=VERTEX_POINT('',#366);
#107=VERTEX_POINT('',#371);
#108=VERTEX_POINT('',#375);
#109=VERTEX_POINT('',#378);
#110=VERTEX_POINT('',#382);
#111=VERTEX_POINT('',#385);
#112=VERTEX_POINT('',#389);
#113=VERTEX_POINT('',#393);
#114=VERTEX_POINT('',#398);
#115=EDGE_CURVE('',#99,#99,#82,.T.);
#116=EDGE_CURVE('',#99,#100,#64,.T.);
#117=EDGE_CURVE('',#100,#100,#83,.T.);
#118=EDGE_CURVE('',#101,#101,#84,.T.);
#119=EDGE_CURVE('',#101,#102,#65,.T.);
#120=EDGE_CURVE('',#102,#102,#85,.T.);
#121=EDGE_CURVE('',#103,#103,#86,.T.);
#122=EDGE_CURVE('',#103,#101,#66,.T.);
#123=EDGE_CURVE('',#104,#104,#87,.T.);
#124=EDGE_CURVE('',#105,#106,#88,.T.);
#125=EDGE_CURVE('',#106,#105,#89,.T.);
#126=EDGE_CURVE('',#106,#104,#90,.T.);
#127=EDGE_CURVE('',#107,#107,#91,.T.);
#128=EDGE_CURVE('',#107,#105,#67,.T.);
#129=EDGE_CURVE('',#108,#108,#92,.T.);
#130=EDGE_CURVE('',#109,#109,#93,.T.);
#131=EDGE_CURVE('',#109,#108,#68,.T.);
#132=EDGE_CURVE('',#110,#110,#94,.T.);
#133=EDGE_CURVE('',#111,#111,#95,.T.);
#134=EDGE_CURVE('',#111,#110,#69,.T.);
#135=EDGE_CURVE('',#112,#112,#96,.T.);
#136=EDGE_CURVE('',#112,#111,#70,.T.);
#137=EDGE_CURVE('',#113,#113,#97,.T.);
#138=EDGE_CURVE('',#113,#112,#71,.T.);
#139=EDGE_CURVE('',#114,#114,#98,.T.);
#140=EDGE_CURVE('',#102,#114,#72,.T.);
#141=ORIENTED_EDGE('',*,*,#115,.F.);
#142=ORIENTED_EDGE('',*,*,#116,.T.);
#143=ORIENTED_EDGE('',*,*,#117,.F.);
#144=ORIENTED_EDGE('',*,*,#116,.F.);
#145=ORIENTED_EDGE('',*,*,#118,.F.);
#146=ORIENTED_EDGE('',*,*,#119,.T.);
#147=ORIENTED_EDGE('',*,*,#120,.T.);
#148=ORIENTED_EDGE('',*,*,#119,.F.);
#149=ORIENTED_EDGE('',*,*,#121,.F.);
#150=ORIENTED_EDGE('',*,*,#122,.T.);
#151=ORIENTED_EDGE('',*,*,#118,.T.);
#152=ORIENTED_EDGE('',*,*,#122,.F.);
#153=ORIENTED_EDGE('',*,*,#123,.F.);
#154=ORIENTED_EDGE('',*,*,#121,.T.);
#155=ORIENTED_EDGE('',*,*,#124,.F.);
#156=ORIENTED_EDGE('',*,*,#125,.F.);
#157=ORIENTED_EDGE('',*,*,#126,.T.);
#158=ORIENTED_EDGE('',*,*,#123,.T.);
#159=ORIENTED_EDGE('',*,*,#126,.F.);
#160=ORIENTED_EDGE('',*,*,#127,.F.);
#161=ORIENTED_EDGE('',*,*,#128,.T.);
#162=ORIENTED_EDGE('',*,*,#124,.T.);
#163=ORIENTED_EDGE('',*,*,#125,.T.);
#164=ORIENTED_EDGE('',*,*,#128,.F.);
#165=ORIENTED_EDGE('',*,*,#129,.F.);
#166=ORIENTED_EDGE('',*,*,#127,.T.);
#167=ORIENTED_EDGE('',*,*,#130,.F.);
#168=ORIENTED_EDGE('',*,*,#131,.T.);
#169=ORIENTED_EDGE('',*,*,#129,.T.);
#170=ORIENTED_EDGE('',*,*,#131,.F.);
#171=ORIENTED_EDGE('',*,*,#130,.T.);
#172=ORIENTED_EDGE('',*,*,#132,.F.);
#173=ORIENTED_EDGE('',*,*,#133,.F.);
#174=ORIENTED_EDGE('',*,*,#134,.T.);
#175=ORIENTED_EDGE('',*,*,#132,.T.);
#176=ORIENTED_EDGE('',*,*,#134,.F.);
#177=ORIENTED_EDGE('',*,*,#135,.F.);
#178=ORIENTED_EDGE('',*,*,#136,.T.);
#179=ORIENTED_EDGE('',*,*,#133,.T.);
#180=ORIENTED_EDGE('',*,*,#136,.F.);
#181=ORIENTED_EDGE('',*,*,#137,.F.);
#182=ORIENTED_EDGE('',*,*,#138,.T.);
#183=ORIENTED_EDGE('',*,*,#135,.T.);
#184=ORIENTED_EDGE('',*,*,#138,.F.);
#185=ORIENTED_EDGE('',*,*,#137,.T.);
#186=ORIENTED_EDGE('',*,*,#117,.T.);
#187=ORIENTED_EDGE('',*,*,#139,.F.);
#188=ORIENTED_EDGE('',*,*,#115,.T.);
#189=ORIENTED_EDGE('',*,*,#120,.F.);
#190=ORIENTED_EDGE('',*,*,#140,.T.);
#191=ORIENTED_EDGE('',*,*,#139,.T.);
#192=ORIENTED_EDGE('',*,*,#140,.F.);
#193=CYLINDRICAL_SURFACE('',#237,23.9);
#194=CYLINDRICAL_SURFACE('',#243,25.4000039999988);
#195=CYLINDRICAL_SURFACE('',#251,52.9999986546507);
#196=CYLINDRICAL_SURFACE('',#255,67.5);
#197=CYLINDRICAL_SURFACE('',#259,25.4000039999991);
#198=CYLINDRICAL_SURFACE('',#268,32.0000039999996);
#199=ADVANCED_FACE('',(#29),#193,.F.);
#200=ADVANCED_FACE('',(#30),#26,.T.);
#201=ADVANCED_FACE('',(#31),#194,.T.);
#202=ADVANCED_FACE('',(#32,#16),#21,.T.);
#203=ADVANCED_FACE('',(#33),#15,.T.);
#204=ADVANCED_FACE('',(#34),#195,.T.);
#205=ADVANCED_FACE('',(#35,#17),#22,.T.);
#206=ADVANCED_FACE('',(#36),#196,.T.);
#207=ADVANCED_FACE('',(#37,#18),#23,.T.);
#208=ADVANCED_FACE('',(#38),#197,.T.);
#209=ADVANCED_FACE('',(#39),#27,.T.);
#210=ADVANCED_FACE('',(#40),#28,.T.);
#211=ADVANCED_FACE('',(#41,#19),#24,.T.);
#212=ADVANCED_FACE('',(#42,#20),#25,.T.);
#213=ADVANCED_FACE('',(#43),#198,.T.);
#214=CLOSED_SHELL('',(#199,#200,#201,#202,#203,#204,#205,#206,#207,#208,
#209,#210,#211,#212,#213));
#215=DERIVED_UNIT_ELEMENT(#218,1.);
#216=DERIVED_UNIT_ELEMENT(#407,-3.);
#217=DIMENSIONAL_EXPONENTS(0.,1.,0.,0.,0.,0.,0.);
#218=(
CONVERSION_BASED_UNIT('gram',#220)
MASS_UNIT()
NAMED_UNIT(#217)
);
#219=(
MASS_UNIT()
NAMED_UNIT(*)
SI_UNIT(.KILO.,.GRAM.)
);
#220=MASS_MEASURE_WITH_UNIT(MASS_MEASURE(0.001),#219);
#221=DERIVED_UNIT((#215,#216));
#222=MEASURE_REPRESENTATION_ITEM('density measure',
POSITIVE_RATIO_MEASURE(1.),#221);
#223=PROPERTY_DEFINITION_REPRESENTATION(#228,#225);
#224=PROPERTY_DEFINITION_REPRESENTATION(#229,#226);
#225=REPRESENTATION('material name',(#227),#404);
#226=REPRESENTATION('density',(#222),#404);
#227=DESCRIPTIVE_REPRESENTATION_ITEM('\X2\4E00822C\X0\','\X2\4E00822C\X0\');
#228=PROPERTY_DEFINITION('material property','material name',#414);
#229=PROPERTY_DEFINITION('material property','density of part',#414);
#230=DATE_TIME_ROLE('creation_date');
#231=APPLIED_DATE_AND_TIME_ASSIGNMENT(#232,#230,(#414));
#232=DATE_AND_TIME(#233,#234);
#233=CALENDAR_DATE(2024,28,3);
#234=LOCAL_TIME(0,0,0.,#235);
#235=COORDINATED_UNIVERSAL_TIME_OFFSET(0,0,.BEHIND.);
#236=AXIS2_PLACEMENT_3D('',#344,#269,#270);
#237=AXIS2_PLACEMENT_3D('',#345,#271,#272);
#238=AXIS2_PLACEMENT_3D('',#347,#273,#274);
#239=AXIS2_PLACEMENT_3D('',#350,#276,#277);
#240=AXIS2_PLACEMENT_3D('',#351,#278,#279);
#241=AXIS2_PLACEMENT_3D('',#353,#280,#281);
#242=AXIS2_PLACEMENT_3D('',#356,#283,#284);
#243=AXIS2_PLACEMENT_3D('',#357,#285,#286);
#244=AXIS2_PLACEMENT_3D('',#359,#287,#288);
#245=AXIS2_PLACEMENT_3D('',#361,#290,#291);
#246=AXIS2_PLACEMENT_3D('',#363,#292,#293);
#247=AXIS2_PLACEMENT_3D('',#364,#294,#295);
#248=AXIS2_PLACEMENT_3D('',#367,#296,#297);
#249=AXIS2_PLACEMENT_3D('',#368,#298,#299);
#250=AXIS2_PLACEMENT_3D('',#369,#300,#301);
#251=AXIS2_PLACEMENT_3D('',#370,#302,#303);
#252=AXIS2_PLACEMENT_3D('',#372,#304,#305);
#253=AXIS2_PLACEMENT_3D('',#374,#307,#308);
#254=AXIS2_PLACEMENT_3D('',#376,#309,#310);
#255=AXIS2_PLACEMENT_3D('',#377,#311,#312);
#256=AXIS2_PLACEMENT_3D('',#379,#313,#314);
#257=AXIS2_PLACEMENT_3D('',#381,#316,#317);
#258=AXIS2_PLACEMENT_3D('',#383,#318,#319);
#259=AXIS2_PLACEMENT_3D('',#384,#320,#321);
#260=AXIS2_PLACEMENT_3D('',#386,#322,#323);
#261=AXIS2_PLACEMENT_3D('',#388,#325,#326);
#262=AXIS2_PLACEMENT_3D('',#390,#327,#328);
#263=AXIS2_PLACEMENT_3D('',#392,#330,#331);
#264=AXIS2_PLACEMENT_3D('',#394,#332,#333);
#265=AXIS2_PLACEMENT_3D('',#396,#335,#336);
#266=AXIS2_PLACEMENT_3D('',#397,#337,#338);
#267=AXIS2_PLACEMENT_3D('',#399,#339,#340);
#268=AXIS2_PLACEMENT_3D('',#400,#341,#342);
#269=DIRECTION('axis',(0.,0.,1.));
#270=DIRECTION('refdir',(1.,0.,0.));
#271=DIRECTION('center_axis',(0.,-1.,0.));
#272=DIRECTION('ref_axis',(1.,0.,0.));
#273=DIRECTION('center_axis',(0.,-1.,0.));
#274=DIRECTION('ref_axis',(1.,0.,0.));
#275=DIRECTION('',(0.,-1.,0.));
#276=DIRECTION('center_axis',(0.,1.,0.));
#277=DIRECTION('ref_axis',(1.,0.,0.));
#278=DIRECTION('center_axis',(0.,1.,0.));
#279=DIRECTION('ref_axis',(1.,0.,0.));
#280=DIRECTION('center_axis',(0.,-1.,0.));
#281=DIRECTION('ref_axis',(1.,0.,0.));
#282=DIRECTION('',(-0.939692544267942,0.34202035355698,-1.15079146652037E-16));
#283=DIRECTION('center_axis',(0.,-1.,0.));
#284=DIRECTION('ref_axis',(1.,0.,0.));
#285=DIRECTION('center_axis',(0.,-1.,0.));
#286=DIRECTION('ref_axis',(1.,0.,0.));
#287=DIRECTION('center_axis',(0.,-1.,0.));
#288=DIRECTION('ref_axis',(1.,0.,0.));
#289=DIRECTION('',(0.,1.,0.));
#290=DIRECTION('center_axis',(0.,1.,0.));
#291=DIRECTION('ref_axis',(0.,0.,1.));
#292=DIRECTION('center_axis',(0.,-1.,0.));
#293=DIRECTION('ref_axis',(1.,0.,0.));
#294=DIRECTION('center_axis',(0.,-1.,0.));
#295=DIRECTION('ref_axis',(0.,0.,-1.));
#296=DIRECTION('center_axis',(0.,-1.,0.));
#297=DIRECTION('ref_axis',(1.,0.,0.));
#298=DIRECTION('center_axis',(0.,-1.,0.));
#299=DIRECTION('ref_axis',(1.,0.,0.));
#300=DIRECTION('center_axis',(-1.,0.,-1.22464679914735E-16));
#301=DIRECTION('ref_axis',(-1.22464679914735E-16,0.,1.));
#302=DIRECTION('center_axis',(0.,-1.,0.));
#303=DIRECTION('ref_axis',(1.,0.,0.));
#304=DIRECTION('center_axis',(0.,-1.,0.));
#305=DIRECTION('ref_axis',(1.,0.,0.));
#306=DIRECTION('',(0.,1.,0.));
#307=DIRECTION('center_axis',(0.,1.,0.));
#308=DIRECTION('ref_axis',(0.,0.,1.));
#309=DIRECTION('center_axis',(0.,-1.,0.));
#310=DIRECTION('ref_axis',(1.,0.,0.));
#311=DIRECTION('center_axis',(0.,-1.,0.));
#312=DIRECTION('ref_axis',(1.,0.,0.));
#313=DIRECTION('center_axis',(0.,-1.,0.));
#314=DIRECTION('ref_axis',(1.,0.,0.));
#315=DIRECTION('',(0.,1.,0.));
#316=DIRECTION('center_axis',(0.,-1.,0.));
#317=DIRECTION('ref_axis',(0.,0.,-1.));
#318=DIRECTION('center_axis',(0.,-1.,0.));
#319=DIRECTION('ref_axis',(1.,0.,0.));
#320=DIRECTION('center_axis',(0.,-1.,0.));
#321=DIRECTION('ref_axis',(1.,0.,0.));
#322=DIRECTION('center_axis',(0.,-1.,0.));
#323=DIRECTION('ref_axis',(1.,0.,0.));
#324=DIRECTION('',(0.,1.,0.));
#325=DIRECTION('center_axis',(0.,-1.,0.));
#326=DIRECTION('ref_axis',(1.,0.,0.));
#327=DIRECTION('center_axis',(0.,-1.,0.));
#328=DIRECTION('ref_axis',(1.,0.,0.));
#329=DIRECTION('',(0.939691932492353,0.342022034390749,1.15079071731135E-16));
#330=DIRECTION('center_axis',(0.,-1.,0.));
#331=DIRECTION('ref_axis',(1.,0.,0.));
#332=DIRECTION('center_axis',(0.,-1.,0.));
#333=DIRECTION('ref_axis',(1.,0.,0.));
#334=DIRECTION('',(4.36275057161378E-6,0.999999999990483,5.3428285230051E-22));
#335=DIRECTION('center_axis',(0.,-1.,0.));
#336=DIRECTION('ref_axis',(0.,0.,-1.));
#337=DIRECTION('center_axis',(0.,1.,0.));
#338=DIRECTION('ref_axis',(0.,0.,1.));
#339=DIRECTION('center_axis',(0.,-1.,0.));
#340=DIRECTION('ref_axis',(1.,0.,0.));
#341=DIRECTION('center_axis',(0.,-1.,0.));
#342=DIRECTION('ref_axis',(1.,0.,0.));
#343=DIRECTION('',(0.,1.,0.));
#344=CARTESIAN_POINT('',(0.,0.,0.));
#345=CARTESIAN_POINT('Origin',(0.,139.999999999998,0.));
#346=CARTESIAN_POINT('',(-23.9,139.999999999998,-2.92690584996217E-15));
#347=CARTESIAN_POINT('Origin',(0.,139.999999999998,0.));
#348=CARTESIAN_POINT('',(-23.9,0.,2.92690584996217E-15));
#349=CARTESIAN_POINT('',(-23.9,139.999999999998,-2.92690584996217E-15));
#350=CARTESIAN_POINT('Origin',(0.,0.,0.));
#351=CARTESIAN_POINT('Origin',(0.,135.948897352174,0.));
#352=CARTESIAN_POINT('',(-25.4000039999991,134.747794743004,-3.11060335969289E-15));
#353=CARTESIAN_POINT('Origin',(0.,134.747794743004,0.));
#354=CARTESIAN_POINT('',(-32.0000039999996,137.149999961345,-3.91887024713021E-15));
#355=CARTESIAN_POINT('',(-28.7000039999994,135.948897352174,-3.51473680341155E-15));
#356=CARTESIAN_POINT('Origin',(0.,137.149999961345,0.));
#357=CARTESIAN_POINT('Origin',(0.,124.623897371502,0.));
#358=CARTESIAN_POINT('',(-25.4000039999988,114.5,-3.11060335969285E-15));
#359=CARTESIAN_POINT('Origin',(0.,114.5,0.));
#360=CARTESIAN_POINT('',(-25.4000039999988,124.623897371502,-3.11060335969285E-15));
#361=CARTESIAN_POINT('Origin',(34.9999967020167,114.5,0.));
#362=CARTESIAN_POINT('',(-4.28626339312927E-15,114.5,34.9999967020167));
#363=CARTESIAN_POINT('Origin',(0.,114.5,0.));
#364=CARTESIAN_POINT('Origin',(0.,96.5,0.));
#365=CARTESIAN_POINT('',(-52.9999986546507,96.5000013326031,-6.4906278707232E-15));
#366=CARTESIAN_POINT('',(-6.4906276315945E-15,96.5000013326031,52.9999967020167));
#367=CARTESIAN_POINT('Origin',(0.,96.5000013326031,0.));
#368=CARTESIAN_POINT('Origin',(0.,96.5000013326031,0.));
#369=CARTESIAN_POINT('Origin',(-4.28626339312927E-15,96.5,34.9999967020167));
#370=CARTESIAN_POINT('Origin',(0.,70.1250006663016,0.));
#371=CARTESIAN_POINT('',(-52.9999986546507,43.75,-6.4906278707232E-15));
#372=CARTESIAN_POINT('Origin',(0.,43.75,0.));
#373=CARTESIAN_POINT('',(-52.9999986546507,70.1250006663016,-6.4906278707232E-15));
#374=CARTESIAN_POINT('Origin',(67.5,43.75,0.));
#375=CARTESIAN_POINT('',(-67.5,43.75,-8.26636589424464E-15));
#376=CARTESIAN_POINT('Origin',(0.,43.75,0.));
#377=CARTESIAN_POINT('Origin',(0.,34.5,0.));
#378=CARTESIAN_POINT('',(-67.5,25.25,-8.26636589424464E-15));
#379=CARTESIAN_POINT('Origin',(0.,25.25,0.));
#380=CARTESIAN_POINT('',(-67.5,34.5,-8.26636589424464E-15));
#381=CARTESIAN_POINT('Origin',(25.4000039999991,25.25,0.));
#382=CARTESIAN_POINT('',(-25.4000039999991,25.25,-3.11060335969289E-15));
#383=CARTESIAN_POINT('Origin',(0.,25.25,0.));
#384=CARTESIAN_POINT('Origin',(0.,15.2511039613421,0.));
#385=CARTESIAN_POINT('',(-25.4000039999991,5.25220792268424,-3.11060335969289E-15));
#386=CARTESIAN_POINT('Origin',(0.,5.25220792268424,0.));
#387=CARTESIAN_POINT('',(-25.4000039999991,15.2511039613421,-3.11060335969289E-15));
#388=CARTESIAN_POINT('Origin',(0.,4.05110089159898,0.));
#389=CARTESIAN_POINT('',(-31.9999915661873,2.84999386051371,-3.91886872442736E-15));
#390=CARTESIAN_POINT('Origin',(0.,2.84999386051371,0.));
#391=CARTESIAN_POINT('',(-28.6999977830932,4.05110089159898,-3.51473604206012E-15));
#392=CARTESIAN_POINT('Origin',(0.,1.42499693025686,0.));
#393=CARTESIAN_POINT('',(-32.0000039999996,-2.77555756156289E-16,-3.91887024713021E-15));
#394=CARTESIAN_POINT('Origin',(0.,0.,0.));
#395=CARTESIAN_POINT('',(-31.9999977830935,1.42499693025686,-3.91886948577878E-15));
#396=CARTESIAN_POINT('Origin',(0.,0.,0.));
#397=CARTESIAN_POINT('Origin',(32.0000039999996,139.999999999998,0.));
#398=CARTESIAN_POINT('',(-32.0000039999996,139.999999999998,-3.91887024713021E-15));
#399=CARTESIAN_POINT('Origin',(0.,139.999999999998,0.));
#400=CARTESIAN_POINT('Origin',(0.,138.574999980671,0.));
#401=CARTESIAN_POINT('',(-32.0000039999996,138.574999980671,-3.91887024713021E-15));
#402=UNCERTAINTY_MEASURE_WITH_UNIT(LENGTH_MEASURE(0.01),#406,
'DISTANCE_ACCURACY_VALUE',
'Maximum model space distance between geometric entities at asserted c
onnectivities');
#403=UNCERTAINTY_MEASURE_WITH_UNIT(LENGTH_MEASURE(0.01),#406,
'DISTANCE_ACCURACY_VALUE',
'Maximum model space distance between geometric entities at asserted c
onnectivities');
#404=(
GEOMETRIC_REPRESENTATION_CONTEXT(3)
GLOBAL_UNCERTAINTY_ASSIGNED_CONTEXT((#402))
GLOBAL_UNIT_ASSIGNED_CONTEXT((#406,#408,#409))
REPRESENTATION_CONTEXT('','3D')
);
#405=(
GEOMETRIC_REPRESENTATION_CONTEXT(3)
GLOBAL_UNCERTAINTY_ASSIGNED_CONTEXT((#403))
GLOBAL_UNIT_ASSIGNED_CONTEXT((#406,#408,#409))
REPRESENTATION_CONTEXT('','3D')
);
#406=(
LENGTH_UNIT()
NAMED_UNIT(*)
SI_UNIT(.MILLI.,.METRE.)
);
#407=(
LENGTH_UNIT()
NAMED_UNIT(*)
SI_UNIT(.CENTI.,.METRE.)
);
#408=(
NAMED_UNIT(*)
PLANE_ANGLE_UNIT()
SI_UNIT($,.RADIAN.)
);
#409=(
NAMED_UNIT(*)
SI_UNIT($,.STERADIAN.)
SOLID_ANGLE_UNIT()
);
#410=SHAPE_DEFINITION_REPRESENTATION(#411,#412);
#411=PRODUCT_DEFINITION_SHAPE('',$,#414);
#412=SHAPE_REPRESENTATION('',(#236),#404);
#413=PRODUCT_DEFINITION_CONTEXT('part definition',#418,'design');
#414=PRODUCT_DEFINITION('CVSC-20-1','CVSC-20-1',#415,#413);
#415=PRODUCT_DEFINITION_FORMATION('',$,#420);
#416=PRODUCT_RELATED_PRODUCT_CATEGORY('CVSC-20-1','CVSC-20-1',(#420));
#417=APPLICATION_PROTOCOL_DEFINITION('international standard',
'automotive_design',2009,#418);
#418=APPLICATION_CONTEXT(
'Core Data for Automotive Mechanical Design Process');
#419=PRODUCT_CONTEXT('part definition',#418,'mechanical');
#420=PRODUCT('CVSC-20-1','CVSC-20-1',$,(#419));
#421=PRESENTATION_STYLE_ASSIGNMENT((#422));
#422=SURFACE_STYLE_USAGE(.BOTH.,#425);
#423=SURFACE_STYLE_RENDERING_WITH_PROPERTIES($,#429,(#424));
#424=SURFACE_STYLE_TRANSPARENT(0.);
#425=SURFACE_SIDE_STYLE('',(#426,#423));
#426=SURFACE_STYLE_FILL_AREA(#427);
#427=FILL_AREA_STYLE('',(#428));
#428=FILL_AREA_STYLE_COLOUR('',#429);
#429=COLOUR_RGB('',0.749019607843137,0.749019607843137,0.749019607843137);
ENDSEC;
END-ISO-10303-21;
