ISO-10303-21;
HEADER;
/* Generated by software containing ST-Developer
 * from STEP Tools, Inc. (www.steptools.com) 
 */

FILE_DESCRIPTION(
/* description */ (''),
/* implementation_level */ '2;1');

FILE_NAME(
/* name */ 'CVSC-15-1.stp',
/* time_stamp */ '2024-03-28T11:23:55+09:00',
/* author */ ('autocad22'),
/* organization */ (''),
/* preprocessor_version */ 'ST-DEVELOPER v19.2',
/* originating_system */ 'Autodesk Inventor 2024',
/* authorisation */ '');

FILE_SCHEMA (('AUTOMOTIVE_DESIGN { 1 0 10303 214 3 1 1 }'));
ENDSEC;

DATA;
#10=MECHANICAL_DESIGN_GEOMETRIC_PRESENTATION_REPRESENTATION('',(#13),#405);
#11=SHAPE_REPRESENTATION_RELATIONSHIP('SRR','None',#412,#12);
#12=ADVANCED_BREP_SHAPE_REPRESENTATION('',(#14),#404);
#13=STYLED_ITEM('',(#421),#14);
#14=MANIFOLD_SOLID_BREP('\X2\30BD30EA30C330C9\X0\1',#214);
#15=TOROIDAL_SURFACE('',#249,28.4999995601828,18.);
#16=FACE_BOUND('',#48,.T.);
#17=FACE_BOUND('',#52,.T.);
#18=FACE_BOUND('',#55,.T.);
#19=FACE_BOUND('',#60,.T.);
#20=FACE_BOUND('',#62,.T.);
#21=PLANE('',#247);
#22=PLANE('',#255);
#23=PLANE('',#259);
#24=PLANE('',#267);
#25=PLANE('',#268);
#26=CONICAL_SURFACE('',#243,22.1499970000376,1.22172667172903);
#27=CONICAL_SURFACE('',#263,22.149998999998,1.22173017873313);
#28=FACE_OUTER_BOUND('',#43,.T.);
#29=FACE_OUTER_BOUND('',#44,.T.);
#30=FACE_OUTER_BOUND('',#45,.T.);
#31=FACE_OUTER_BOUND('',#46,.T.);
#32=FACE_OUTER_BOUND('',#47,.T.);
#33=FACE_OUTER_BOUND('',#49,.T.);
#34=FACE_OUTER_BOUND('',#50,.T.);
#35=FACE_OUTER_BOUND('',#51,.T.);
#36=FACE_OUTER_BOUND('',#53,.T.);
#37=FACE_OUTER_BOUND('',#54,.T.);
#38=FACE_OUTER_BOUND('',#56,.T.);
#39=FACE_OUTER_BOUND('',#57,.T.);
#40=FACE_OUTER_BOUND('',#58,.T.);
#41=FACE_OUTER_BOUND('',#59,.T.);
#42=FACE_OUTER_BOUND('',#61,.T.);
#43=EDGE_LOOP('',(#140,#141,#142,#143));
#44=EDGE_LOOP('',(#144,#145,#146,#147));
#45=EDGE_LOOP('',(#148,#149,#150,#151));
#46=EDGE_LOOP('',(#152,#153,#154,#155));
#47=EDGE_LOOP('',(#156));
#48=EDGE_LOOP('',(#157));
#49=EDGE_LOOP('',(#158,#159,#160,#161,#162));
#50=EDGE_LOOP('',(#163,#164,#165,#166,#167));
#51=EDGE_LOOP('',(#168));
#52=EDGE_LOOP('',(#169));
#53=EDGE_LOOP('',(#170,#171,#172,#173));
#54=EDGE_LOOP('',(#174));
#55=EDGE_LOOP('',(#175));
#56=EDGE_LOOP('',(#176,#177,#178,#179));
#57=EDGE_LOOP('',(#180,#181,#182,#183));
#58=EDGE_LOOP('',(#184,#185,#186,#187));
#59=EDGE_LOOP('',(#188));
#60=EDGE_LOOP('',(#189));
#61=EDGE_LOOP('',(#190));
#62=EDGE_LOOP('',(#191));
#63=LINE('',#349,#72);
#64=LINE('',#355,#73);
#65=LINE('',#360,#74);
#66=LINE('',#364,#75);
#67=LINE('',#377,#76);
#68=LINE('',#384,#77);
#69=LINE('',#391,#78);
#70=LINE('',#395,#79);
#71=LINE('',#399,#80);
#72=VECTOR('',#275,17.85);
#73=VECTOR('',#282,25.2500020000396);
#74=VECTOR('',#289,22.1499970000376);
#75=VECTOR('',#294,19.0499920000351);
#76=VECTOR('',#311,46.5000001958764);
#77=VECTOR('',#320,60.5000000000192);
#78=VECTOR('',#329,19.0499940000008);
#79=VECTOR('',#334,22.149998999998);
#80=VECTOR('',#339,25.2500039999977);
#81=CIRCLE('',#238,17.85);
#82=CIRCLE('',#239,17.85);
#83=CIRCLE('',#241,25.2500020000384);
#84=CIRCLE('',#242,25.2500020000407);
#85=CIRCLE('',#244,19.0499920000368);
#86=CIRCLE('',#246,19.0499920000334);
#87=CIRCLE('',#248,28.4999995911461);
#88=CIRCLE('',#250,46.4999995601828);
#89=CIRCLE('',#251,18.);
#90=CIRCLE('',#252,46.4999995601828);
#91=CIRCLE('',#254,46.5000008315699);
#92=CIRCLE('',#256,60.5000000000255);
#93=CIRCLE('',#258,60.500000000013);
#94=CIRCLE('',#260,19.0499940000031);
#95=CIRCLE('',#262,19.0499939999985);
#96=CIRCLE('',#264,25.2500039999977);
#97=CIRCLE('',#266,25.2500039999977);
#98=VERTEX_POINT('',#346);
#99=VERTEX_POINT('',#348);
#100=VERTEX_POINT('',#352);
#101=VERTEX_POINT('',#354);
#102=VERTEX_POINT('',#358);
#103=VERTEX_POINT('',#362);
#104=VERTEX_POINT('',#366);
#105=VERTEX_POINT('',#369);
#106=VERTEX_POINT('',#370);
#107=VERTEX_POINT('',#375);
#108=VERTEX_POINT('',#379);
#109=VERTEX_POINT('',#382);
#110=VERTEX_POINT('',#386);
#111=VERTEX_POINT('',#389);
#112=VERTEX_POINT('',#393);
#113=VERTEX_POINT('',#397);
#114=EDGE_CURVE('',#98,#98,#81,.T.);
#115=EDGE_CURVE('',#98,#99,#63,.T.);
#116=EDGE_CURVE('',#99,#99,#82,.T.);
#117=EDGE_CURVE('',#100,#100,#83,.T.);
#118=EDGE_CURVE('',#100,#101,#64,.T.);
#119=EDGE_CURVE('',#101,#101,#84,.T.);
#120=EDGE_CURVE('',#102,#102,#85,.T.);
#121=EDGE_CURVE('',#102,#100,#65,.T.);
#122=EDGE_CURVE('',#103,#103,#86,.T.);
#123=EDGE_CURVE('',#103,#102,#66,.T.);
#124=EDGE_CURVE('',#104,#104,#87,.T.);
#125=EDGE_CURVE('',#105,#106,#88,.T.);
#126=EDGE_CURVE('',#105,#104,#89,.T.);
#127=EDGE_CURVE('',#106,#105,#90,.T.);
#128=EDGE_CURVE('',#107,#107,#91,.T.);
#129=EDGE_CURVE('',#107,#106,#67,.T.);
#130=EDGE_CURVE('',#108,#108,#92,.T.);
#131=EDGE_CURVE('',#109,#109,#93,.T.);
#132=EDGE_CURVE('',#109,#108,#68,.T.);
#133=EDGE_CURVE('',#110,#110,#94,.T.);
#134=EDGE_CURVE('',#111,#111,#95,.T.);
#135=EDGE_CURVE('',#111,#110,#69,.T.);
#136=EDGE_CURVE('',#112,#112,#96,.T.);
#137=EDGE_CURVE('',#112,#111,#70,.T.);
#138=EDGE_CURVE('',#113,#113,#97,.T.);
#139=EDGE_CURVE('',#113,#112,#71,.T.);
#140=ORIENTED_EDGE('',*,*,#114,.F.);
#141=ORIENTED_EDGE('',*,*,#115,.T.);
#142=ORIENTED_EDGE('',*,*,#116,.F.);
#143=ORIENTED_EDGE('',*,*,#115,.F.);
#144=ORIENTED_EDGE('',*,*,#117,.F.);
#145=ORIENTED_EDGE('',*,*,#118,.T.);
#146=ORIENTED_EDGE('',*,*,#119,.T.);
#147=ORIENTED_EDGE('',*,*,#118,.F.);
#148=ORIENTED_EDGE('',*,*,#120,.F.);
#149=ORIENTED_EDGE('',*,*,#121,.T.);
#150=ORIENTED_EDGE('',*,*,#117,.T.);
#151=ORIENTED_EDGE('',*,*,#121,.F.);
#152=ORIENTED_EDGE('',*,*,#122,.F.);
#153=ORIENTED_EDGE('',*,*,#123,.T.);
#154=ORIENTED_EDGE('',*,*,#120,.T.);
#155=ORIENTED_EDGE('',*,*,#123,.F.);
#156=ORIENTED_EDGE('',*,*,#124,.F.);
#157=ORIENTED_EDGE('',*,*,#122,.T.);
#158=ORIENTED_EDGE('',*,*,#125,.F.);
#159=ORIENTED_EDGE('',*,*,#126,.T.);
#160=ORIENTED_EDGE('',*,*,#124,.T.);
#161=ORIENTED_EDGE('',*,*,#126,.F.);
#162=ORIENTED_EDGE('',*,*,#127,.F.);
#163=ORIENTED_EDGE('',*,*,#128,.F.);
#164=ORIENTED_EDGE('',*,*,#129,.T.);
#165=ORIENTED_EDGE('',*,*,#127,.T.);
#166=ORIENTED_EDGE('',*,*,#125,.T.);
#167=ORIENTED_EDGE('',*,*,#129,.F.);
#168=ORIENTED_EDGE('',*,*,#130,.F.);
#169=ORIENTED_EDGE('',*,*,#128,.T.);
#170=ORIENTED_EDGE('',*,*,#131,.F.);
#171=ORIENTED_EDGE('',*,*,#132,.T.);
#172=ORIENTED_EDGE('',*,*,#130,.T.);
#173=ORIENTED_EDGE('',*,*,#132,.F.);
#174=ORIENTED_EDGE('',*,*,#131,.T.);
#175=ORIENTED_EDGE('',*,*,#133,.F.);
#176=ORIENTED_EDGE('',*,*,#134,.F.);
#177=ORIENTED_EDGE('',*,*,#135,.T.);
#178=ORIENTED_EDGE('',*,*,#133,.T.);
#179=ORIENTED_EDGE('',*,*,#135,.F.);
#180=ORIENTED_EDGE('',*,*,#136,.F.);
#181=ORIENTED_EDGE('',*,*,#137,.T.);
#182=ORIENTED_EDGE('',*,*,#134,.T.);
#183=ORIENTED_EDGE('',*,*,#137,.F.);
#184=ORIENTED_EDGE('',*,*,#138,.F.);
#185=ORIENTED_EDGE('',*,*,#139,.T.);
#186=ORIENTED_EDGE('',*,*,#136,.T.);
#187=ORIENTED_EDGE('',*,*,#139,.F.);
#188=ORIENTED_EDGE('',*,*,#138,.T.);
#189=ORIENTED_EDGE('',*,*,#116,.T.);
#190=ORIENTED_EDGE('',*,*,#119,.F.);
#191=ORIENTED_EDGE('',*,*,#114,.T.);
#192=CYLINDRICAL_SURFACE('',#237,17.85);
#193=CYLINDRICAL_SURFACE('',#240,25.2500020000396);
#194=CYLINDRICAL_SURFACE('',#245,19.0499920000351);
#195=CYLINDRICAL_SURFACE('',#253,46.5000001958764);
#196=CYLINDRICAL_SURFACE('',#257,60.5000000000192);
#197=CYLINDRICAL_SURFACE('',#261,19.0499940000008);
#198=CYLINDRICAL_SURFACE('',#265,25.2500039999977);
#199=ADVANCED_FACE('',(#28),#192,.F.);
#200=ADVANCED_FACE('',(#29),#193,.T.);
#201=ADVANCED_FACE('',(#30),#26,.T.);
#202=ADVANCED_FACE('',(#31),#194,.T.);
#203=ADVANCED_FACE('',(#32,#16),#21,.T.);
#204=ADVANCED_FACE('',(#33),#15,.T.);
#205=ADVANCED_FACE('',(#34),#195,.T.);
#206=ADVANCED_FACE('',(#35,#17),#22,.T.);
#207=ADVANCED_FACE('',(#36),#196,.T.);
#208=ADVANCED_FACE('',(#37,#18),#23,.T.);
#209=ADVANCED_FACE('',(#38),#197,.T.);
#210=ADVANCED_FACE('',(#39),#27,.T.);
#211=ADVANCED_FACE('',(#40),#198,.T.);
#212=ADVANCED_FACE('',(#41,#19),#24,.T.);
#213=ADVANCED_FACE('',(#42,#20),#25,.T.);
#214=CLOSED_SHELL('',(#199,#200,#201,#202,#203,#204,#205,#206,#207,#208,
#209,#210,#211,#212,#213));
#215=DERIVED_UNIT_ELEMENT(#218,1.);
#216=DERIVED_UNIT_ELEMENT(#407,-3.);
#217=DIMENSIONAL_EXPONENTS(0.,1.,0.,0.,0.,0.,0.);
#218=(
CONVERSION_BASED_UNIT('gram',#220)
MASS_UNIT()
NAMED_UNIT(#217)
);
#219=(
MASS_UNIT()
NAMED_UNIT(*)
SI_UNIT(.KILO.,.GRAM.)
);
#220=MASS_MEASURE_WITH_UNIT(MASS_MEASURE(0.001),#219);
#221=DERIVED_UNIT((#215,#216));
#222=MEASURE_REPRESENTATION_ITEM('density measure',
POSITIVE_RATIO_MEASURE(1.),#221);
#223=PROPERTY_DEFINITION_REPRESENTATION(#228,#225);
#224=PROPERTY_DEFINITION_REPRESENTATION(#229,#226);
#225=REPRESENTATION('material name',(#227),#404);
#226=REPRESENTATION('density',(#222),#404);
#227=DESCRIPTIVE_REPRESENTATION_ITEM('\X2\4E00822C\X0\','\X2\4E00822C\X0\');
#228=PROPERTY_DEFINITION('material property','material name',#414);
#229=PROPERTY_DEFINITION('material property','density of part',#414);
#230=DATE_TIME_ROLE('creation_date');
#231=APPLIED_DATE_AND_TIME_ASSIGNMENT(#232,#230,(#414));
#232=DATE_AND_TIME(#233,#234);
#233=CALENDAR_DATE(2024,28,3);
#234=LOCAL_TIME(0,0,0.,#235);
#235=COORDINATED_UNIVERSAL_TIME_OFFSET(0,0,.BEHIND.);
#236=AXIS2_PLACEMENT_3D('',#344,#269,#270);
#237=AXIS2_PLACEMENT_3D('',#345,#271,#272);
#238=AXIS2_PLACEMENT_3D('',#347,#273,#274);
#239=AXIS2_PLACEMENT_3D('',#350,#276,#277);
#240=AXIS2_PLACEMENT_3D('',#351,#278,#279);
#241=AXIS2_PLACEMENT_3D('',#353,#280,#281);
#242=AXIS2_PLACEMENT_3D('',#356,#283,#284);
#243=AXIS2_PLACEMENT_3D('',#357,#285,#286);
#244=AXIS2_PLACEMENT_3D('',#359,#287,#288);
#245=AXIS2_PLACEMENT_3D('',#361,#290,#291);
#246=AXIS2_PLACEMENT_3D('',#363,#292,#293);
#247=AXIS2_PLACEMENT_3D('',#365,#295,#296);
#248=AXIS2_PLACEMENT_3D('',#367,#297,#298);
#249=AXIS2_PLACEMENT_3D('',#368,#299,#300);
#250=AXIS2_PLACEMENT_3D('',#371,#301,#302);
#251=AXIS2_PLACEMENT_3D('',#372,#303,#304);
#252=AXIS2_PLACEMENT_3D('',#373,#305,#306);
#253=AXIS2_PLACEMENT_3D('',#374,#307,#308);
#254=AXIS2_PLACEMENT_3D('',#376,#309,#310);
#255=AXIS2_PLACEMENT_3D('',#378,#312,#313);
#256=AXIS2_PLACEMENT_3D('',#380,#314,#315);
#257=AXIS2_PLACEMENT_3D('',#381,#316,#317);
#258=AXIS2_PLACEMENT_3D('',#383,#318,#319);
#259=AXIS2_PLACEMENT_3D('',#385,#321,#322);
#260=AXIS2_PLACEMENT_3D('',#387,#323,#324);
#261=AXIS2_PLACEMENT_3D('',#388,#325,#326);
#262=AXIS2_PLACEMENT_3D('',#390,#327,#328);
#263=AXIS2_PLACEMENT_3D('',#392,#330,#331);
#264=AXIS2_PLACEMENT_3D('',#394,#332,#333);
#265=AXIS2_PLACEMENT_3D('',#396,#335,#336);
#266=AXIS2_PLACEMENT_3D('',#398,#337,#338);
#267=AXIS2_PLACEMENT_3D('',#400,#340,#341);
#268=AXIS2_PLACEMENT_3D('',#401,#342,#343);
#269=DIRECTION('axis',(0.,0.,1.));
#270=DIRECTION('refdir',(1.,0.,0.));
#271=DIRECTION('center_axis',(-2.11682523361863E-15,-1.,0.));
#272=DIRECTION('ref_axis',(1.,-2.11682523361863E-15,0.));
#273=DIRECTION('center_axis',(-2.1131382463733E-15,-1.,0.));
#274=DIRECTION('ref_axis',(1.,-2.11682523361863E-15,0.));
#275=DIRECTION('',(-2.11682523361863E-15,-1.,0.));
#276=DIRECTION('center_axis',(2.1131382463733E-15,1.,0.));
#277=DIRECTION('ref_axis',(1.,-2.11682523361863E-15,0.));
#278=DIRECTION('center_axis',(-2.1131382463733E-15,-1.,0.));
#279=DIRECTION('ref_axis',(-1.,2.12586303801403E-15,0.));
#280=DIRECTION('center_axis',(-2.1131382463733E-15,-1.,0.));
#281=DIRECTION('ref_axis',(1.,-2.1131382463733E-15,0.));
#282=DIRECTION('',(2.1131382463733E-15,1.,0.));
#283=DIRECTION('center_axis',(-2.1131382463733E-15,-1.,0.));
#284=DIRECTION('ref_axis',(1.,-2.1131382463733E-15,0.));
#285=DIRECTION('center_axis',(2.1131382463733E-15,1.,0.));
#286=DIRECTION('ref_axis',(-1.,2.12586303801403E-15,0.));
#287=DIRECTION('center_axis',(-2.1131382463733E-15,-1.,0.));
#288=DIRECTION('ref_axis',(1.,-2.1131382463733E-15,0.));
#289=DIRECTION('',(0.939691319506356,0.342023718540695,1.15078996662001E-16));
#290=DIRECTION('center_axis',(-2.1131382463733E-15,-1.,0.));
#291=DIRECTION('ref_axis',(-1.,2.12586303801403E-15,0.));
#292=DIRECTION('center_axis',(-2.1131382463733E-15,-1.,0.));
#293=DIRECTION('ref_axis',(1.,-2.1131382463733E-15,0.));
#294=DIRECTION('',(2.1131382463733E-15,1.,0.));
#295=DIRECTION('center_axis',(2.1131382463733E-15,1.,0.));
#296=DIRECTION('ref_axis',(0.,0.,1.));
#297=DIRECTION('center_axis',(-2.1131382463733E-15,-1.,0.));
#298=DIRECTION('ref_axis',(1.,-2.1131382463733E-15,0.));
#299=DIRECTION('center_axis',(-2.1131382463733E-15,-1.,0.));
#300=DIRECTION('ref_axis',(0.,0.,-1.));
#301=DIRECTION('center_axis',(-2.1131382463733E-15,-1.,0.));
#302=DIRECTION('ref_axis',(1.,-2.1131382463733E-15,0.));
#303=DIRECTION('center_axis',(-1.,2.1131382463733E-15,-1.22464679914738E-16));
#304=DIRECTION('ref_axis',(-1.22464679914738E-16,0.,1.));
#305=DIRECTION('center_axis',(-2.1131382463733E-15,-1.,0.));
#306=DIRECTION('ref_axis',(1.,-2.1131382463733E-15,0.));
#307=DIRECTION('center_axis',(-2.1131382463733E-15,-1.,0.));
#308=DIRECTION('ref_axis',(-1.,2.12586303801403E-15,0.));
#309=DIRECTION('center_axis',(-2.1131382463733E-15,-1.,0.));
#310=DIRECTION('ref_axis',(1.,-2.1131382463733E-15,0.));
#311=DIRECTION('',(2.1131382463733E-15,1.,0.));
#312=DIRECTION('center_axis',(2.1131382463733E-15,1.,0.));
#313=DIRECTION('ref_axis',(0.,0.,1.));
#314=DIRECTION('center_axis',(-2.1131382463733E-15,-1.,0.));
#315=DIRECTION('ref_axis',(1.,-2.1131382463733E-15,0.));
#316=DIRECTION('center_axis',(-2.1131382463733E-15,-1.,0.));
#317=DIRECTION('ref_axis',(-1.,2.12586303801403E-15,0.));
#318=DIRECTION('center_axis',(-2.1131382463733E-15,-1.,0.));
#319=DIRECTION('ref_axis',(1.,-2.1131382463733E-15,0.));
#320=DIRECTION('',(2.1131382463733E-15,1.,0.));
#321=DIRECTION('center_axis',(-2.1131382463733E-15,-1.,0.));
#322=DIRECTION('ref_axis',(0.,0.,-1.));
#323=DIRECTION('center_axis',(-2.1131382463733E-15,-1.,0.));
#324=DIRECTION('ref_axis',(1.,-2.1131382463733E-15,0.));
#325=DIRECTION('center_axis',(-2.1131382463733E-15,-1.,0.));
#326=DIRECTION('ref_axis',(-1.,2.12586303801403E-15,0.));
#327=DIRECTION('center_axis',(-2.1131382463733E-15,-1.,0.));
#328=DIRECTION('ref_axis',(1.,-2.1131382463733E-15,0.));
#329=DIRECTION('',(2.1131382463733E-15,1.,0.));
#330=DIRECTION('center_axis',(-2.1131382463733E-15,-1.,0.));
#331=DIRECTION('ref_axis',(-1.,2.12586303801403E-15,0.));
#332=DIRECTION('center_axis',(-2.1131382463733E-15,-1.,0.));
#333=DIRECTION('ref_axis',(1.,-2.1131382463733E-15,0.));
#334=DIRECTION('',(-0.939692518979157,0.342020423037289,-1.15079143555054E-16));
#335=DIRECTION('center_axis',(-2.1131382463733E-15,-1.,0.));
#336=DIRECTION('ref_axis',(-1.,2.12586303801403E-15,0.));
#337=DIRECTION('center_axis',(-2.1131382463733E-15,-1.,0.));
#338=DIRECTION('ref_axis',(1.,-2.1131382463733E-15,0.));
#339=DIRECTION('',(2.1131382463733E-15,1.,0.));
#340=DIRECTION('center_axis',(-2.1131382463733E-15,-1.,0.));
#341=DIRECTION('ref_axis',(0.,0.,-1.));
#342=DIRECTION('center_axis',(2.1131382463733E-15,1.,0.));
#343=DIRECTION('ref_axis',(0.,0.,1.));
#344=CARTESIAN_POINT('',(0.,0.,0.));
#345=CARTESIAN_POINT('Origin',(2.6414228054107E-13,124.999999879046,0.));
#346=CARTESIAN_POINT('',(-17.8499999999997,124.999999879046,-2.18599453647803E-15));
#347=CARTESIAN_POINT('Origin',(2.6414228054107E-13,124.999999879046,0.));
#348=CARTESIAN_POINT('',(-17.85,3.77853304200926E-14,2.18599453647803E-15));
#349=CARTESIAN_POINT('',(-17.8499999999997,124.999999879046,-2.18599453647803E-15));
#350=CARTESIAN_POINT('Origin',(-4.60873405220725E-16,0.,0.));
#351=CARTESIAN_POINT('Origin',(-1.57571434605963E-12,123.575007992465,0.));
#352=CARTESIAN_POINT('',(25.250002000038,122.150016105884,3.09223341278127E-15));
#353=CARTESIAN_POINT('Origin',(-1.57872555091594E-12,122.150016105884,0.));
#354=CARTESIAN_POINT('',(25.250002000038,124.999999879046,3.09223341278127E-15));
#355=CARTESIAN_POINT('',(25.250002000038,123.575007992465,3.09223341278127E-15));
#356=CARTESIAN_POINT('Origin',(-1.57270314120332E-12,124.999999879046,0.));
#357=CARTESIAN_POINT('Origin',(-1.58110985319663E-12,121.021693202836,0.));
#358=CARTESIAN_POINT('',(19.0499920000353,119.893370299787,2.33295117266278E-15));
#359=CARTESIAN_POINT('Origin',(-1.58349415547732E-12,119.893370299787,0.));
#360=CARTESIAN_POINT('',(22.1499970000361,121.021693202836,2.71259229272196E-15));
#361=CARTESIAN_POINT('Origin',(-1.60345630720182E-12,110.446685134365,0.));
#362=CARTESIAN_POINT('',(19.0499920000335,100.999999968942,2.33295117266257E-15));
#363=CARTESIAN_POINT('Origin',(-1.62341845892632E-12,100.999999968942,0.));
#364=CARTESIAN_POINT('',(19.0499920000335,110.446685134365,2.33295117266257E-15));
#365=CARTESIAN_POINT('Origin',(-28.4999995911477,100.999999952687,0.));
#366=CARTESIAN_POINT('',(-1.62690870228679E-12,100.999999953341,28.4999995911461));
#367=CARTESIAN_POINT('Origin',(-1.62341845895929E-12,100.999999953341,0.));
#368=CARTESIAN_POINT('Origin',(-1.66145494739262E-12,82.9999999539959,0.));
#369=CARTESIAN_POINT('',(-1.6671495538102E-12,83.0000004956519,46.4999995601828));
#370=CARTESIAN_POINT('',(46.5000001958747,83.0000004956518,5.69460764002313E-15));
#371=CARTESIAN_POINT('Origin',(-1.66145494624803E-12,83.0000004956519,0.));
#372=CARTESIAN_POINT('Origin',(-1.66494519071633E-12,82.9999999539959,28.4999995601828));
#373=CARTESIAN_POINT('Origin',(-1.66145494624803E-12,83.0000004956519,0.));
#374=CARTESIAN_POINT('Origin',(-1.70609499222633E-12,61.875000247837,0.));
#375=CARTESIAN_POINT('',(46.5000001958746,40.750000000022,5.69460764002313E-15));
#376=CARTESIAN_POINT('Origin',(-1.75073503820464E-12,40.7500000000221,0.));
#377=CARTESIAN_POINT('',(46.5000001958747,61.8750002478369,5.69460764002313E-15));
#378=CARTESIAN_POINT('Origin',(-60.5000000000273,40.75,0.));
#379=CARTESIAN_POINT('',(60.5000000000175,40.7499999999997,7.40911313484384E-15));
#380=CARTESIAN_POINT('Origin',(-1.75073503820468E-12,40.7499999999999,0.));
#381=CARTESIAN_POINT('Origin',(-1.76922499786045E-12,31.9999999999999,0.));
#382=CARTESIAN_POINT('',(60.5000000000175,23.2499999999997,7.40911313484384E-15));
#383=CARTESIAN_POINT('Origin',(-1.78771495751621E-12,23.2499999999999,0.));
#384=CARTESIAN_POINT('',(60.5000000000175,31.9999999999997,7.40911313484384E-15));
#385=CARTESIAN_POINT('Origin',(-19.0499940000049,23.25,0.));
#386=CARTESIAN_POINT('',(19.049993999999,23.2499999999999,2.33295141758773E-15));
#387=CARTESIAN_POINT('Origin',(-1.78771495751621E-12,23.25,0.));
#388=CARTESIAN_POINT('Origin',(-1.80688470242673E-12,14.1783053565413,0.));
#389=CARTESIAN_POINT('',(19.049993999999,5.10661071308252,2.33295141758773E-15));
#390=CARTESIAN_POINT('Origin',(-1.82605444733724E-12,5.10661071308256,0.));
#391=CARTESIAN_POINT('',(19.049993999999,14.1783053565412,2.33295141758773E-15));
#392=CARTESIAN_POINT('Origin',(-1.82843872360103E-12,3.97830012200759,0.));
#393=CARTESIAN_POINT('',(25.2500039999959,2.8499895309331,3.09223365770551E-15));
#394=CARTESIAN_POINT('Origin',(-1.83082299986482E-12,2.84998953093316,0.));
#395=CARTESIAN_POINT('',(22.1499989999962,3.97830012200754,2.71259253764647E-15));
#396=CARTESIAN_POINT('Origin',(-1.83383421080461E-12,1.42499476546291,0.));
#397=CARTESIAN_POINT('',(25.2500039999959,-7.39019956341735E-12,3.09223365770551E-15));
#398=CARTESIAN_POINT('Origin',(-1.83684542174441E-12,-7.33635374672303E-12,
0.));
#399=CARTESIAN_POINT('',(25.2500039999959,1.42499476546286,3.09223365770551E-15));
#400=CARTESIAN_POINT('Origin',(0.,0.,0.));
#401=CARTESIAN_POINT('Origin',(-25.2500020000423,124.999999879046,0.));
#402=UNCERTAINTY_MEASURE_WITH_UNIT(LENGTH_MEASURE(0.01),#406,
'DISTANCE_ACCURACY_VALUE',
'Maximum model space distance between geometric entities at asserted c
onnectivities');
#403=UNCERTAINTY_MEASURE_WITH_UNIT(LENGTH_MEASURE(0.01),#406,
'DISTANCE_ACCURACY_VALUE',
'Maximum model space distance between geometric entities at asserted c
onnectivities');
#404=(
GEOMETRIC_REPRESENTATION_CONTEXT(3)
GLOBAL_UNCERTAINTY_ASSIGNED_CONTEXT((#402))
GLOBAL_UNIT_ASSIGNED_CONTEXT((#406,#408,#409))
REPRESENTATION_CONTEXT('','3D')
);
#405=(
GEOMETRIC_REPRESENTATION_CONTEXT(3)
GLOBAL_UNCERTAINTY_ASSIGNED_CONTEXT((#403))
GLOBAL_UNIT_ASSIGNED_CONTEXT((#406,#408,#409))
REPRESENTATION_CONTEXT('','3D')
);
#406=(
LENGTH_UNIT()
NAMED_UNIT(*)
SI_UNIT(.MILLI.,.METRE.)
);
#407=(
LENGTH_UNIT()
NAMED_UNIT(*)
SI_UNIT(.CENTI.,.METRE.)
);
#408=(
NAMED_UNIT(*)
PLANE_ANGLE_UNIT()
SI_UNIT($,.RADIAN.)
);
#409=(
NAMED_UNIT(*)
SI_UNIT($,.STERADIAN.)
SOLID_ANGLE_UNIT()
);
#410=SHAPE_DEFINITION_REPRESENTATION(#411,#412);
#411=PRODUCT_DEFINITION_SHAPE('',$,#414);
#412=SHAPE_REPRESENTATION('',(#236),#404);
#413=PRODUCT_DEFINITION_CONTEXT('part definition',#418,'design');
#414=PRODUCT_DEFINITION('CVSC-15-1','CVSC-15-1',#415,#413);
#415=PRODUCT_DEFINITION_FORMATION('',$,#420);
#416=PRODUCT_RELATED_PRODUCT_CATEGORY('CVSC-15-1','CVSC-15-1',(#420));
#417=APPLICATION_PROTOCOL_DEFINITION('international standard',
'automotive_design',2009,#418);
#418=APPLICATION_CONTEXT(
'Core Data for Automotive Mechanical Design Process');
#419=PRODUCT_CONTEXT('part definition',#418,'mechanical');
#420=PRODUCT('CVSC-15-1','CVSC-15-1',$,(#419));
#421=PRESENTATION_STYLE_ASSIGNMENT((#422));
#422=SURFACE_STYLE_USAGE(.BOTH.,#425);
#423=SURFACE_STYLE_RENDERING_WITH_PROPERTIES($,#429,(#424));
#424=SURFACE_STYLE_TRANSPARENT(0.);
#425=SURFACE_SIDE_STYLE('',(#426,#423));
#426=SURFACE_STYLE_FILL_AREA(#427);
#427=FILL_AREA_STYLE('',(#428));
#428=FILL_AREA_STYLE_COLOUR('',#429);
#429=COLOUR_RGB('',0.749019607843137,0.749019607843137,0.749019607843137);
ENDSEC;
END-ISO-10303-21;
