ISO-10303-21;
HEADER;
/* Generated by software containing ST-Developer
 * from STEP Tools, Inc. (www.steptools.com) 
 */

FILE_DESCRIPTION(
/* description */ (''),
/* implementation_level */ '2;1');

FILE_NAME(
/* name */ 'CVSC-10-1.stp',
/* time_stamp */ '2024-03-28T11:18:44+09:00',
/* author */ ('autocad22'),
/* organization */ (''),
/* preprocessor_version */ 'ST-DEVELOPER v19.2',
/* originating_system */ 'Autodesk Inventor 2024',
/* authorisation */ '');

FILE_SCHEMA (('AUTOMOTIVE_DESIGN { 1 0 10303 214 3 1 1 }'));
ENDSEC;

DATA;
#10=MECHANICAL_DESIGN_GEOMETRIC_PRESENTATION_REPRESENTATION('',(#13),#405);
#11=SHAPE_REPRESENTATION_RELATIONSHIP('SRR','None',#412,#12);
#12=ADVANCED_BREP_SHAPE_REPRESENTATION('',(#14),#404);
#13=STYLED_ITEM('',(#421),#14);
#14=MANIFOLD_SOLID_BREP('\X2\30BD30EA30C330C9\X0\1',#214);
#15=TOROIDAL_SURFACE('',#252,21.0000002262111,12.);
#16=CONICAL_SURFACE('',#246,18.9749969999951,1.22172900946485);
#17=CONICAL_SURFACE('',#266,18.9750036708915,1.22173096121163);
#18=FACE_BOUND('',#45,.T.);
#19=FACE_BOUND('',#47,.T.);
#20=FACE_BOUND('',#52,.T.);
#21=FACE_BOUND('',#56,.T.);
#22=FACE_BOUND('',#59,.T.);
#23=PLANE('',#240);
#24=PLANE('',#242);
#25=PLANE('',#250);
#26=PLANE('',#258);
#27=PLANE('',#262);
#28=FACE_OUTER_BOUND('',#43,.T.);
#29=FACE_OUTER_BOUND('',#44,.T.);
#30=FACE_OUTER_BOUND('',#46,.T.);
#31=FACE_OUTER_BOUND('',#48,.T.);
#32=FACE_OUTER_BOUND('',#49,.T.);
#33=FACE_OUTER_BOUND('',#50,.T.);
#34=FACE_OUTER_BOUND('',#51,.T.);
#35=FACE_OUTER_BOUND('',#53,.T.);
#36=FACE_OUTER_BOUND('',#54,.T.);
#37=FACE_OUTER_BOUND('',#55,.T.);
#38=FACE_OUTER_BOUND('',#57,.T.);
#39=FACE_OUTER_BOUND('',#58,.T.);
#40=FACE_OUTER_BOUND('',#60,.T.);
#41=FACE_OUTER_BOUND('',#61,.T.);
#42=FACE_OUTER_BOUND('',#62,.T.);
#43=EDGE_LOOP('',(#140,#141,#142,#143));
#44=EDGE_LOOP('',(#144));
#45=EDGE_LOOP('',(#145));
#46=EDGE_LOOP('',(#146));
#47=EDGE_LOOP('',(#147));
#48=EDGE_LOOP('',(#148,#149,#150,#151));
#49=EDGE_LOOP('',(#152,#153,#154,#155));
#50=EDGE_LOOP('',(#156,#157,#158,#159));
#51=EDGE_LOOP('',(#160));
#52=EDGE_LOOP('',(#161));
#53=EDGE_LOOP('',(#162,#163,#164,#165,#166));
#54=EDGE_LOOP('',(#167,#168,#169,#170,#171));
#55=EDGE_LOOP('',(#172));
#56=EDGE_LOOP('',(#173));
#57=EDGE_LOOP('',(#174,#175,#176,#177));
#58=EDGE_LOOP('',(#178));
#59=EDGE_LOOP('',(#179));
#60=EDGE_LOOP('',(#180,#181,#182,#183));
#61=EDGE_LOOP('',(#184,#185,#186,#187));
#62=EDGE_LOOP('',(#188,#189,#190,#191));
#63=LINE('',#349,#72);
#64=LINE('',#360,#73);
#65=LINE('',#364,#74);
#66=LINE('',#368,#75);
#67=LINE('',#381,#76);
#68=LINE('',#388,#77);
#69=LINE('',#395,#78);
#70=LINE('',#399,#79);
#71=LINE('',#401,#80);
#72=VECTOR('',#275,11.5);
#73=VECTOR('',#290,25.2500019999962);
#74=VECTOR('',#295,18.9749969999951);
#75=VECTOR('',#300,12.6999919999955);
#76=VECTOR('',#317,33.0000001331248);
#77=VECTOR('',#326,45.7500000000148);
#78=VECTOR('',#335,12.7000036708912);
#79=VECTOR('',#340,18.9750036708915);
#80=VECTOR('',#343,25.2500036708914);
#81=CIRCLE('',#238,11.5);
#82=CIRCLE('',#239,11.5);
#83=CIRCLE('',#241,25.2500036708915);
#84=CIRCLE('',#243,25.2500019999972);
#85=CIRCLE('',#245,25.2500019999951);
#86=CIRCLE('',#247,12.699991999995);
#87=CIRCLE('',#249,12.699991999996);
#88=CIRCLE('',#251,21.0000002261994);
#89=CIRCLE('',#253,33.0000002262111);
#90=CIRCLE('',#254,12.);
#91=CIRCLE('',#255,33.0000002262111);
#92=CIRCLE('',#257,33.0000000400386);
#93=CIRCLE('',#259,45.7500000000251);
#94=CIRCLE('',#261,45.7500000000044);
#95=CIRCLE('',#263,12.7000036708907);
#96=CIRCLE('',#265,12.7000036708917);
#97=CIRCLE('',#267,25.2500036708913);
#98=VERTEX_POINT('',#346);
#99=VERTEX_POINT('',#348);
#100=VERTEX_POINT('',#352);
#101=VERTEX_POINT('',#355);
#102=VERTEX_POINT('',#358);
#103=VERTEX_POINT('',#362);
#104=VERTEX_POINT('',#366);
#105=VERTEX_POINT('',#370);
#106=VERTEX_POINT('',#373);
#107=VERTEX_POINT('',#374);
#108=VERTEX_POINT('',#379);
#109=VERTEX_POINT('',#383);
#110=VERTEX_POINT('',#386);
#111=VERTEX_POINT('',#390);
#112=VERTEX_POINT('',#393);
#113=VERTEX_POINT('',#397);
#114=EDGE_CURVE('',#98,#98,#81,.T.);
#115=EDGE_CURVE('',#98,#99,#63,.T.);
#116=EDGE_CURVE('',#99,#99,#82,.T.);
#117=EDGE_CURVE('',#100,#100,#83,.T.);
#118=EDGE_CURVE('',#101,#101,#84,.T.);
#119=EDGE_CURVE('',#102,#102,#85,.T.);
#120=EDGE_CURVE('',#102,#101,#64,.T.);
#121=EDGE_CURVE('',#103,#103,#86,.T.);
#122=EDGE_CURVE('',#103,#102,#65,.T.);
#123=EDGE_CURVE('',#104,#104,#87,.T.);
#124=EDGE_CURVE('',#104,#103,#66,.T.);
#125=EDGE_CURVE('',#105,#105,#88,.T.);
#126=EDGE_CURVE('',#106,#107,#89,.T.);
#127=EDGE_CURVE('',#106,#105,#90,.T.);
#128=EDGE_CURVE('',#107,#106,#91,.T.);
#129=EDGE_CURVE('',#108,#108,#92,.T.);
#130=EDGE_CURVE('',#108,#107,#67,.T.);
#131=EDGE_CURVE('',#109,#109,#93,.T.);
#132=EDGE_CURVE('',#110,#110,#94,.T.);
#133=EDGE_CURVE('',#110,#109,#68,.T.);
#134=EDGE_CURVE('',#111,#111,#95,.T.);
#135=EDGE_CURVE('',#112,#112,#96,.T.);
#136=EDGE_CURVE('',#112,#111,#69,.T.);
#137=EDGE_CURVE('',#113,#113,#97,.T.);
#138=EDGE_CURVE('',#113,#112,#70,.T.);
#139=EDGE_CURVE('',#100,#113,#71,.T.);
#140=ORIENTED_EDGE('',*,*,#114,.F.);
#141=ORIENTED_EDGE('',*,*,#115,.T.);
#142=ORIENTED_EDGE('',*,*,#116,.F.);
#143=ORIENTED_EDGE('',*,*,#115,.F.);
#144=ORIENTED_EDGE('',*,*,#117,.T.);
#145=ORIENTED_EDGE('',*,*,#116,.T.);
#146=ORIENTED_EDGE('',*,*,#118,.F.);
#147=ORIENTED_EDGE('',*,*,#114,.T.);
#148=ORIENTED_EDGE('',*,*,#119,.F.);
#149=ORIENTED_EDGE('',*,*,#120,.T.);
#150=ORIENTED_EDGE('',*,*,#118,.T.);
#151=ORIENTED_EDGE('',*,*,#120,.F.);
#152=ORIENTED_EDGE('',*,*,#121,.F.);
#153=ORIENTED_EDGE('',*,*,#122,.T.);
#154=ORIENTED_EDGE('',*,*,#119,.T.);
#155=ORIENTED_EDGE('',*,*,#122,.F.);
#156=ORIENTED_EDGE('',*,*,#123,.F.);
#157=ORIENTED_EDGE('',*,*,#124,.T.);
#158=ORIENTED_EDGE('',*,*,#121,.T.);
#159=ORIENTED_EDGE('',*,*,#124,.F.);
#160=ORIENTED_EDGE('',*,*,#125,.F.);
#161=ORIENTED_EDGE('',*,*,#123,.T.);
#162=ORIENTED_EDGE('',*,*,#126,.F.);
#163=ORIENTED_EDGE('',*,*,#127,.T.);
#164=ORIENTED_EDGE('',*,*,#125,.T.);
#165=ORIENTED_EDGE('',*,*,#127,.F.);
#166=ORIENTED_EDGE('',*,*,#128,.F.);
#167=ORIENTED_EDGE('',*,*,#129,.F.);
#168=ORIENTED_EDGE('',*,*,#130,.T.);
#169=ORIENTED_EDGE('',*,*,#128,.T.);
#170=ORIENTED_EDGE('',*,*,#126,.T.);
#171=ORIENTED_EDGE('',*,*,#130,.F.);
#172=ORIENTED_EDGE('',*,*,#131,.F.);
#173=ORIENTED_EDGE('',*,*,#129,.T.);
#174=ORIENTED_EDGE('',*,*,#132,.F.);
#175=ORIENTED_EDGE('',*,*,#133,.T.);
#176=ORIENTED_EDGE('',*,*,#131,.T.);
#177=ORIENTED_EDGE('',*,*,#133,.F.);
#178=ORIENTED_EDGE('',*,*,#132,.T.);
#179=ORIENTED_EDGE('',*,*,#134,.F.);
#180=ORIENTED_EDGE('',*,*,#135,.F.);
#181=ORIENTED_EDGE('',*,*,#136,.T.);
#182=ORIENTED_EDGE('',*,*,#134,.T.);
#183=ORIENTED_EDGE('',*,*,#136,.F.);
#184=ORIENTED_EDGE('',*,*,#137,.F.);
#185=ORIENTED_EDGE('',*,*,#138,.T.);
#186=ORIENTED_EDGE('',*,*,#135,.T.);
#187=ORIENTED_EDGE('',*,*,#138,.F.);
#188=ORIENTED_EDGE('',*,*,#117,.F.);
#189=ORIENTED_EDGE('',*,*,#139,.T.);
#190=ORIENTED_EDGE('',*,*,#137,.T.);
#191=ORIENTED_EDGE('',*,*,#139,.F.);
#192=CYLINDRICAL_SURFACE('',#237,11.5);
#193=CYLINDRICAL_SURFACE('',#244,25.2500019999962);
#194=CYLINDRICAL_SURFACE('',#248,12.6999919999955);
#195=CYLINDRICAL_SURFACE('',#256,33.0000001331248);
#196=CYLINDRICAL_SURFACE('',#260,45.7500000000148);
#197=CYLINDRICAL_SURFACE('',#264,12.7000036708912);
#198=CYLINDRICAL_SURFACE('',#268,25.2500036708914);
#199=ADVANCED_FACE('',(#28),#192,.F.);
#200=ADVANCED_FACE('',(#29,#18),#23,.T.);
#201=ADVANCED_FACE('',(#30,#19),#24,.T.);
#202=ADVANCED_FACE('',(#31),#193,.T.);
#203=ADVANCED_FACE('',(#32),#16,.T.);
#204=ADVANCED_FACE('',(#33),#194,.T.);
#205=ADVANCED_FACE('',(#34,#20),#25,.T.);
#206=ADVANCED_FACE('',(#35),#15,.T.);
#207=ADVANCED_FACE('',(#36),#195,.T.);
#208=ADVANCED_FACE('',(#37,#21),#26,.T.);
#209=ADVANCED_FACE('',(#38),#196,.T.);
#210=ADVANCED_FACE('',(#39,#22),#27,.T.);
#211=ADVANCED_FACE('',(#40),#197,.T.);
#212=ADVANCED_FACE('',(#41),#17,.T.);
#213=ADVANCED_FACE('',(#42),#198,.T.);
#214=CLOSED_SHELL('',(#199,#200,#201,#202,#203,#204,#205,#206,#207,#208,
#209,#210,#211,#212,#213));
#215=DERIVED_UNIT_ELEMENT(#218,1.);
#216=DERIVED_UNIT_ELEMENT(#407,-3.);
#217=DIMENSIONAL_EXPONENTS(0.,1.,0.,0.,0.,0.,0.);
#218=(
CONVERSION_BASED_UNIT('gram',#220)
MASS_UNIT()
NAMED_UNIT(#217)
);
#219=(
MASS_UNIT()
NAMED_UNIT(*)
SI_UNIT(.KILO.,.GRAM.)
);
#220=MASS_MEASURE_WITH_UNIT(MASS_MEASURE(0.001),#219);
#221=DERIVED_UNIT((#215,#216));
#222=MEASURE_REPRESENTATION_ITEM('density measure',
POSITIVE_RATIO_MEASURE(1.),#221);
#223=PROPERTY_DEFINITION_REPRESENTATION(#228,#225);
#224=PROPERTY_DEFINITION_REPRESENTATION(#229,#226);
#225=REPRESENTATION('material name',(#227),#404);
#226=REPRESENTATION('density',(#222),#404);
#227=DESCRIPTIVE_REPRESENTATION_ITEM('\X2\4E00822C\X0\','\X2\4E00822C\X0\');
#228=PROPERTY_DEFINITION('material property','material name',#414);
#229=PROPERTY_DEFINITION('material property','density of part',#414);
#230=DATE_TIME_ROLE('creation_date');
#231=APPLIED_DATE_AND_TIME_ASSIGNMENT(#232,#230,(#414));
#232=DATE_AND_TIME(#233,#234);
#233=CALENDAR_DATE(2024,28,3);
#234=LOCAL_TIME(0,0,0.,#235);
#235=COORDINATED_UNIVERSAL_TIME_OFFSET(0,0,.BEHIND.);
#236=AXIS2_PLACEMENT_3D('',#344,#269,#270);
#237=AXIS2_PLACEMENT_3D('',#345,#271,#272);
#238=AXIS2_PLACEMENT_3D('',#347,#273,#274);
#239=AXIS2_PLACEMENT_3D('',#350,#276,#277);
#240=AXIS2_PLACEMENT_3D('',#351,#278,#279);
#241=AXIS2_PLACEMENT_3D('',#353,#280,#281);
#242=AXIS2_PLACEMENT_3D('',#354,#282,#283);
#243=AXIS2_PLACEMENT_3D('',#356,#284,#285);
#244=AXIS2_PLACEMENT_3D('',#357,#286,#287);
#245=AXIS2_PLACEMENT_3D('',#359,#288,#289);
#246=AXIS2_PLACEMENT_3D('',#361,#291,#292);
#247=AXIS2_PLACEMENT_3D('',#363,#293,#294);
#248=AXIS2_PLACEMENT_3D('',#365,#296,#297);
#249=AXIS2_PLACEMENT_3D('',#367,#298,#299);
#250=AXIS2_PLACEMENT_3D('',#369,#301,#302);
#251=AXIS2_PLACEMENT_3D('',#371,#303,#304);
#252=AXIS2_PLACEMENT_3D('',#372,#305,#306);
#253=AXIS2_PLACEMENT_3D('',#375,#307,#308);
#254=AXIS2_PLACEMENT_3D('',#376,#309,#310);
#255=AXIS2_PLACEMENT_3D('',#377,#311,#312);
#256=AXIS2_PLACEMENT_3D('',#378,#313,#314);
#257=AXIS2_PLACEMENT_3D('',#380,#315,#316);
#258=AXIS2_PLACEMENT_3D('',#382,#318,#319);
#259=AXIS2_PLACEMENT_3D('',#384,#320,#321);
#260=AXIS2_PLACEMENT_3D('',#385,#322,#323);
#261=AXIS2_PLACEMENT_3D('',#387,#324,#325);
#262=AXIS2_PLACEMENT_3D('',#389,#327,#328);
#263=AXIS2_PLACEMENT_3D('',#391,#329,#330);
#264=AXIS2_PLACEMENT_3D('',#392,#331,#332);
#265=AXIS2_PLACEMENT_3D('',#394,#333,#334);
#266=AXIS2_PLACEMENT_3D('',#396,#336,#337);
#267=AXIS2_PLACEMENT_3D('',#398,#338,#339);
#268=AXIS2_PLACEMENT_3D('',#400,#341,#342);
#269=DIRECTION('axis',(0.,0.,1.));
#270=DIRECTION('refdir',(1.,0.,0.));
#271=DIRECTION('center_axis',(6.09142366177669E-14,-1.,0.));
#272=DIRECTION('ref_axis',(1.,6.09142366177669E-14,0.));
#273=DIRECTION('center_axis',(6.09070111334851E-14,-1.,0.));
#274=DIRECTION('ref_axis',(1.,6.09142366177669E-14,0.));
#275=DIRECTION('',(6.09142366177669E-14,-1.,0.));
#276=DIRECTION('center_axis',(-6.09070111334851E-14,1.,0.));
#277=DIRECTION('ref_axis',(1.,6.09142366177669E-14,0.));
#278=DIRECTION('center_axis',(6.09070111334851E-14,-1.,0.));
#279=DIRECTION('ref_axis',(0.,0.,-1.));
#280=DIRECTION('center_axis',(6.09070111334851E-14,-1.,0.));
#281=DIRECTION('ref_axis',(1.,6.09070111334851E-14,0.));
#282=DIRECTION('center_axis',(-6.09070111334851E-14,1.,0.));
#283=DIRECTION('ref_axis',(0.,0.,1.));
#284=DIRECTION('center_axis',(6.09070111334851E-14,-1.,0.));
#285=DIRECTION('ref_axis',(1.,6.09070111334851E-14,0.));
#286=DIRECTION('center_axis',(6.09070111334851E-14,-1.,0.));
#287=DIRECTION('ref_axis',(-1.,-6.12051574495339E-14,0.));
#288=DIRECTION('center_axis',(6.09070111334851E-14,-1.,0.));
#289=DIRECTION('ref_axis',(1.,6.09070111334851E-14,0.));
#290=DIRECTION('',(-6.09070111334851E-14,1.,0.));
#291=DIRECTION('center_axis',(-6.09070111334851E-14,1.,0.));
#292=DIRECTION('ref_axis',(-1.,-6.12051574495339E-14,0.));
#293=DIRECTION('center_axis',(6.09070111334851E-14,-1.,0.));
#294=DIRECTION('ref_axis',(1.,6.09070111334851E-14,0.));
#295=DIRECTION('',(0.939692119064865,0.342021521789761,1.15079094579681E-16));
#296=DIRECTION('center_axis',(6.09070111334851E-14,-1.,0.));
#297=DIRECTION('ref_axis',(-1.,-6.12051574495339E-14,0.));
#298=DIRECTION('center_axis',(6.09070111334851E-14,-1.,0.));
#299=DIRECTION('ref_axis',(1.,6.09070111334851E-14,0.));
#300=DIRECTION('',(-6.09070111334851E-14,1.,0.));
#301=DIRECTION('center_axis',(-6.09070111334851E-14,1.,0.));
#302=DIRECTION('ref_axis',(0.,0.,1.));
#303=DIRECTION('center_axis',(6.09070111334851E-14,-1.,0.));
#304=DIRECTION('ref_axis',(1.,6.09070111334851E-14,0.));
#305=DIRECTION('center_axis',(6.09070111334851E-14,-1.,0.));
#306=DIRECTION('ref_axis',(0.,0.,-1.));
#307=DIRECTION('center_axis',(6.09070111334851E-14,-1.,0.));
#308=DIRECTION('ref_axis',(1.,6.09070111334851E-14,0.));
#309=DIRECTION('center_axis',(-1.,-6.09070111334851E-14,-1.2246467991473E-16));
#310=DIRECTION('ref_axis',(-1.2246467991473E-16,0.,1.));
#311=DIRECTION('center_axis',(6.09070111334851E-14,-1.,0.));
#312=DIRECTION('ref_axis',(1.,6.09070111334851E-14,0.));
#313=DIRECTION('center_axis',(6.09070111334851E-14,-1.,0.));
#314=DIRECTION('ref_axis',(-1.,-6.12051574495339E-14,0.));
#315=DIRECTION('center_axis',(6.09070111334851E-14,-1.,0.));
#316=DIRECTION('ref_axis',(1.,6.09070111334851E-14,0.));
#317=DIRECTION('',(-6.0907011133485E-14,1.,0.));
#318=DIRECTION('center_axis',(-6.09070111334851E-14,1.,0.));
#319=DIRECTION('ref_axis',(0.,0.,1.));
#320=DIRECTION('center_axis',(6.09070111334851E-14,-1.,0.));
#321=DIRECTION('ref_axis',(1.,6.09070111334851E-14,0.));
#322=DIRECTION('center_axis',(6.09070111334851E-14,-1.,0.));
#323=DIRECTION('ref_axis',(-1.,-6.12051574495339E-14,0.));
#324=DIRECTION('center_axis',(6.09070111334851E-14,-1.,0.));
#325=DIRECTION('ref_axis',(1.,6.0907011133485E-14,0.));
#326=DIRECTION('',(-6.09070111334851E-14,1.,0.));
#327=DIRECTION('center_axis',(6.09070111334851E-14,-1.,0.));
#328=DIRECTION('ref_axis',(0.,0.,-1.));
#329=DIRECTION('center_axis',(6.09070111334851E-14,-1.,0.));
#330=DIRECTION('ref_axis',(1.,6.09070111334851E-14,0.));
#331=DIRECTION('center_axis',(6.09070111334851E-14,-1.,0.));
#332=DIRECTION('ref_axis',(-1.,-6.12051574495339E-14,0.));
#333=DIRECTION('center_axis',(6.09070111334851E-14,-1.,0.));
#334=DIRECTION('ref_axis',(1.,6.09070111334851E-14,0.));
#335=DIRECTION('',(-6.09070111334851E-14,1.,0.));
#336=DIRECTION('center_axis',(6.09070111334851E-14,-1.,0.));
#337=DIRECTION('ref_axis',(-1.,-6.12051574495339E-14,0.));
#338=DIRECTION('center_axis',(6.09070111334851E-14,-1.,0.));
#339=DIRECTION('ref_axis',(1.,6.09070111334851E-14,0.));
#340=DIRECTION('',(-0.939692786602519,0.34201968774793,-1.15079176329461E-16));
#341=DIRECTION('center_axis',(6.09070111334851E-14,-1.,0.));
#342=DIRECTION('ref_axis',(-1.,-6.12051574495339E-14,0.));
#343=DIRECTION('',(-6.09070111334851E-14,1.,0.));
#344=CARTESIAN_POINT('',(0.,0.,0.));
#345=CARTESIAN_POINT('Origin',(-7.0043062803511E-12,115.000000000005,0.));
#346=CARTESIAN_POINT('',(-11.500000000007,115.000000000004,-1.40834381901946E-15));
#347=CARTESIAN_POINT('Origin',(-7.0043062803511E-12,115.000000000005,0.));
#348=CARTESIAN_POINT('',(-11.5,-7.0051372110432E-13,1.40834381901946E-15));
#349=CARTESIAN_POINT('',(-11.500000000007,115.000000000004,-1.40834381901946E-15));
#350=CARTESIAN_POINT('Origin',(8.30930692414674E-16,0.,0.));
#351=CARTESIAN_POINT('Origin',(0.,0.,0.));
#352=CARTESIAN_POINT('',(25.2500036708913,3.07864844728556E-12,3.09223361740161E-15));
#353=CARTESIAN_POINT('Origin',(-1.11666759824539E-13,1.537936444862E-12,
0.));
#354=CARTESIAN_POINT('Origin',(-25.2500020000043,115.000000000004,0.));
#355=CARTESIAN_POINT('',(25.2500019999891,115.000000000007,3.09223341277596E-15));
#356=CARTESIAN_POINT('Origin',(-7.11597304017554E-12,115.000000000005,0.));
#357=CARTESIAN_POINT('Origin',(-7.02918100103517E-12,113.575007416636,0.));
#358=CARTESIAN_POINT('',(25.2500019999892,112.150014833269,3.09223341277596E-15));
#359=CARTESIAN_POINT('Origin',(-6.9423889618948E-12,112.150014833268,0.));
#360=CARTESIAN_POINT('',(25.2500019999891,113.575007416638,3.09223341277596E-15));
#361=CARTESIAN_POINT('Origin',(-6.80328188821239E-12,109.866089368964,0.));
#362=CARTESIAN_POINT('',(12.6999919999883,107.582163904661,1.55530045519908E-15));
#363=CARTESIAN_POINT('Origin',(-6.66417481452998E-12,107.58216390466,0.));
#364=CARTESIAN_POINT('',(18.9749969999882,109.866089368965,2.32376693398746E-15));
#365=CARTESIAN_POINT('Origin',(-6.12873620016302E-12,98.7910805071593,0.));
#366=CARTESIAN_POINT('',(12.6999919999899,89.9999971096595,1.55530045519915E-15));
#367=CARTESIAN_POINT('Origin',(-5.59329758579605E-12,89.9999971096587,0.));
#368=CARTESIAN_POINT('',(12.6999919999894,98.7910805071601,1.55530045519915E-15));
#369=CARTESIAN_POINT('Origin',(-21.000000226205,89.9999971096659,0.));
#370=CARTESIAN_POINT('',(-5.59586934410248E-12,89.9999971096672,21.0000002261994));
#371=CARTESIAN_POINT('Origin',(-5.59329758579656E-12,89.9999971096671,0.));
#372=CARTESIAN_POINT('Origin',(-4.86241345219474E-12,77.9999971096671,0.));
#373=CARTESIAN_POINT('',(-4.86645478300673E-12,77.9999970496921,33.0000002262111));
#374=CARTESIAN_POINT('',(33.00000013312,77.9999970496941,4.04133445348935E-15));
#375=CARTESIAN_POINT('Origin',(-4.86241344854184E-12,77.9999970496921,0.));
#376=CARTESIAN_POINT('Origin',(-4.86498521050066E-12,77.9999971096671,21.0000002262111));
#377=CARTESIAN_POINT('Origin',(-4.86241344854184E-12,77.9999970496921,0.));
#378=CARTESIAN_POINT('Origin',(-3.72802045602801E-12,59.3749985248477,0.));
#379=CARTESIAN_POINT('',(33.0000001331222,40.7500000000054,4.04133445348935E-15));
#380=CARTESIAN_POINT('Origin',(-2.59362746351417E-12,40.7500000000034,0.));
#381=CARTESIAN_POINT('',(33.0000001331211,59.3749985248498,4.04133445348935E-15));
#382=CARTESIAN_POINT('Origin',(-45.7500000000277,40.7500000000073,0.));
#383=CARTESIAN_POINT('',(45.7500000000122,40.7500000000129,5.60275910610095E-15));
#384=CARTESIAN_POINT('Origin',(-2.59362746351457E-12,40.7500000000101,0.));
#385=CARTESIAN_POINT('Origin',(-2.12159812723006E-12,33.0000000000101,0.));
#386=CARTESIAN_POINT('',(45.7500000000131,25.2500000000128,5.60275910610095E-15));
#387=CARTESIAN_POINT('Origin',(-1.64956879094556E-12,25.2500000000101,0.));
#388=CARTESIAN_POINT('',(45.7500000000127,33.0000000000129,5.60275910610095E-15));
#389=CARTESIAN_POINT('Origin',(-12.7000036708924,25.2500000000073,0.));
#390=CARTESIAN_POINT('',(12.7000036708896,25.2500000000088,1.55530188447166E-15));
#391=CARTESIAN_POINT('Origin',(-1.64956879094543E-12,25.250000000008,0.));
#392=CARTESIAN_POINT('Origin',(-1.10651668878676E-12,16.3339147734894,0.));
#393=CARTESIAN_POINT('',(12.7000036708907,7.41782954697163,1.55530188447166E-15));
#394=CARTESIAN_POINT('Origin',(-5.63464586628094E-13,7.41782954697086,0.));
#395=CARTESIAN_POINT('',(12.7000036708901,16.3339147734902,1.55530188447166E-15));
#396=CARTESIAN_POINT('Origin',(-4.24358468547223E-13,5.13391977218313,0.));
#397=CARTESIAN_POINT('',(25.2500036708911,2.85000999739735,3.0922336174016E-15));
#398=CARTESIAN_POINT('Origin',(-2.85252350466376E-13,2.85000999739581,0.));
#399=CARTESIAN_POINT('',(18.975003670891,5.13391977218429,2.32376775093665E-15));
#400=CARTESIAN_POINT('Origin',(-1.98459555145458E-13,1.42500499869867,0.));
#401=CARTESIAN_POINT('',(25.2500036708912,1.42500499870022,3.09223361740161E-15));
#402=UNCERTAINTY_MEASURE_WITH_UNIT(LENGTH_MEASURE(0.01),#406,
'DISTANCE_ACCURACY_VALUE',
'Maximum model space distance between geometric entities at asserted c
onnectivities');
#403=UNCERTAINTY_MEASURE_WITH_UNIT(LENGTH_MEASURE(0.01),#406,
'DISTANCE_ACCURACY_VALUE',
'Maximum model space distance between geometric entities at asserted c
onnectivities');
#404=(
GEOMETRIC_REPRESENTATION_CONTEXT(3)
GLOBAL_UNCERTAINTY_ASSIGNED_CONTEXT((#402))
GLOBAL_UNIT_ASSIGNED_CONTEXT((#406,#408,#409))
REPRESENTATION_CONTEXT('','3D')
);
#405=(
GEOMETRIC_REPRESENTATION_CONTEXT(3)
GLOBAL_UNCERTAINTY_ASSIGNED_CONTEXT((#403))
GLOBAL_UNIT_ASSIGNED_CONTEXT((#406,#408,#409))
REPRESENTATION_CONTEXT('','3D')
);
#406=(
LENGTH_UNIT()
NAMED_UNIT(*)
SI_UNIT(.MILLI.,.METRE.)
);
#407=(
LENGTH_UNIT()
NAMED_UNIT(*)
SI_UNIT(.CENTI.,.METRE.)
);
#408=(
NAMED_UNIT(*)
PLANE_ANGLE_UNIT()
SI_UNIT($,.RADIAN.)
);
#409=(
NAMED_UNIT(*)
SI_UNIT($,.STERADIAN.)
SOLID_ANGLE_UNIT()
);
#410=SHAPE_DEFINITION_REPRESENTATION(#411,#412);
#411=PRODUCT_DEFINITION_SHAPE('',$,#414);
#412=SHAPE_REPRESENTATION('',(#236),#404);
#413=PRODUCT_DEFINITION_CONTEXT('part definition',#418,'design');
#414=PRODUCT_DEFINITION('CVSC-10-1','CVSC-10-1',#415,#413);
#415=PRODUCT_DEFINITION_FORMATION('',$,#420);
#416=PRODUCT_RELATED_PRODUCT_CATEGORY('CVSC-10-1','CVSC-10-1',(#420));
#417=APPLICATION_PROTOCOL_DEFINITION('international standard',
'automotive_design',2009,#418);
#418=APPLICATION_CONTEXT(
'Core Data for Automotive Mechanical Design Process');
#419=PRODUCT_CONTEXT('part definition',#418,'mechanical');
#420=PRODUCT('CVSC-10-1','CVSC-10-1',$,(#419));
#421=PRESENTATION_STYLE_ASSIGNMENT((#422));
#422=SURFACE_STYLE_USAGE(.BOTH.,#425);
#423=SURFACE_STYLE_RENDERING_WITH_PROPERTIES($,#429,(#424));
#424=SURFACE_STYLE_TRANSPARENT(0.);
#425=SURFACE_SIDE_STYLE('',(#426,#423));
#426=SURFACE_STYLE_FILL_AREA(#427);
#427=FILL_AREA_STYLE('',(#428));
#428=FILL_AREA_STYLE_COLOUR('',#429);
#429=COLOUR_RGB('',0.749019607843137,0.749019607843137,0.749019607843137);
ENDSEC;
END-ISO-10303-21;
