ISO-10303-21;
HEADER;
/* Generated by software containing ST-Developer
 * from STEP Tools, Inc. (www.steptools.com) 
 */

FILE_DESCRIPTION(
/* description */ (''),
/* implementation_level */ '2;1');

FILE_NAME(
/* name */ 'CVSC-04-1.stp',
/* time_stamp */ '2024-04-03T10:29:18+09:00',
/* author */ ('autocad33'),
/* organization */ (''),
/* preprocessor_version */ 'ST-DEVELOPER v19.2',
/* originating_system */ 'Autodesk Inventor 2023',
/* authorisation */ '');

FILE_SCHEMA (('AUTOMOTIVE_DESIGN { 1 0 10303 214 3 1 1 }'));
ENDSEC;

DATA;
#10=MECHANICAL_DESIGN_GEOMETRIC_PRESENTATION_REPRESENTATION('',(#16),#409);
#11=GEOMETRICALLY_BOUNDED_WIREFRAME_SHAPE_REPRESENTATION('',(#12),#408);
#12=GEOMETRIC_CURVE_SET('\X2\30B930B130C330C1\X0\3',(#405));
#13=SHAPE_REPRESENTATION_RELATIONSHIP('SRR','None',#416,#15);
#14=SHAPE_REPRESENTATION_RELATIONSHIP('SRR','None',#416,#11);
#15=ADVANCED_BREP_SHAPE_REPRESENTATION('',(#17),#408);
#16=STYLED_ITEM('',(#425),#17);
#17=MANIFOLD_SOLID_BREP('\X2\30BD30EA30C330C9\X0\1',#217);
#18=TOROIDAL_SURFACE('',#255,21.0000002048868,12.0000000000002);
#19=CONICAL_SURFACE('',#249,13.9250030517571,1.2217304648871);
#20=CONICAL_SURFACE('',#269,13.9250011600233,1.22173349794497);
#21=CONICAL_SURFACE('',#271,16.9999981082655,1.32752247061046E-6);
#22=FACE_BOUND('',#49,.T.);
#23=FACE_BOUND('',#51,.T.);
#24=FACE_BOUND('',#56,.T.);
#25=FACE_BOUND('',#60,.T.);
#26=FACE_BOUND('',#63,.T.);
#27=PLANE('',#243);
#28=PLANE('',#245);
#29=PLANE('',#253);
#30=PLANE('',#261);
#31=PLANE('',#265);
#32=FACE_OUTER_BOUND('',#47,.T.);
#33=FACE_OUTER_BOUND('',#48,.T.);
#34=FACE_OUTER_BOUND('',#50,.T.);
#35=FACE_OUTER_BOUND('',#52,.T.);
#36=FACE_OUTER_BOUND('',#53,.T.);
#37=FACE_OUTER_BOUND('',#54,.T.);
#38=FACE_OUTER_BOUND('',#55,.T.);
#39=FACE_OUTER_BOUND('',#57,.T.);
#40=FACE_OUTER_BOUND('',#58,.T.);
#41=FACE_OUTER_BOUND('',#59,.T.);
#42=FACE_OUTER_BOUND('',#61,.T.);
#43=FACE_OUTER_BOUND('',#62,.T.);
#44=FACE_OUTER_BOUND('',#64,.T.);
#45=FACE_OUTER_BOUND('',#65,.T.);
#46=FACE_OUTER_BOUND('',#66,.T.);
#47=EDGE_LOOP('',(#144,#145,#146,#147));
#48=EDGE_LOOP('',(#148));
#49=EDGE_LOOP('',(#149));
#50=EDGE_LOOP('',(#150));
#51=EDGE_LOOP('',(#151));
#52=EDGE_LOOP('',(#152,#153,#154,#155));
#53=EDGE_LOOP('',(#156,#157,#158,#159));
#54=EDGE_LOOP('',(#160,#161,#162,#163));
#55=EDGE_LOOP('',(#164));
#56=EDGE_LOOP('',(#165));
#57=EDGE_LOOP('',(#166,#167,#168,#169,#170));
#58=EDGE_LOOP('',(#171,#172,#173,#174,#175));
#59=EDGE_LOOP('',(#176));
#60=EDGE_LOOP('',(#177));
#61=EDGE_LOOP('',(#178,#179,#180,#181));
#62=EDGE_LOOP('',(#182));
#63=EDGE_LOOP('',(#183));
#64=EDGE_LOOP('',(#184,#185,#186,#187));
#65=EDGE_LOOP('',(#188,#189,#190,#191));
#66=EDGE_LOOP('',(#192,#193,#194,#195));
#67=LINE('',#352,#76);
#68=LINE('',#363,#77);
#69=LINE('',#367,#78);
#70=LINE('',#371,#79);
#71=LINE('',#384,#80);
#72=LINE('',#391,#81);
#73=LINE('',#398,#82);
#74=LINE('',#402,#83);
#75=LINE('',#404,#84);
#76=VECTOR('',#278,9.2);
#77=VECTOR('',#293,16.9999999999991);
#78=VECTOR('',#298,13.9250030517571);
#79=VECTOR('',#303,10.8500061035155);
#80=VECTOR('',#320,33.0000001221371);
#81=VECTOR('',#329,45.7500000000017);
#82=VECTOR('',#338,10.8500061035158);
#83=VECTOR('',#343,13.9250011600233);
#84=VECTOR('',#346,16.9999981082655);
#85=CIRCLE('',#241,9.2);
#86=CIRCLE('',#242,9.2);
#87=CIRCLE('',#244,17.0000000000029);
#88=CIRCLE('',#246,16.999999999999);
#89=CIRCLE('',#248,16.9999999999992);
#90=CIRCLE('',#250,10.850006103515);
#91=CIRCLE('',#252,10.850006103516);
#92=CIRCLE('',#254,21.0000002048865);
#93=CIRCLE('',#256,33.000000204887);
#94=CIRCLE('',#257,12.0000000000002);
#95=CIRCLE('',#258,33.000000204887);
#96=CIRCLE('',#260,33.0000000393873);
#97=CIRCLE('',#262,45.7500000000023);
#98=CIRCLE('',#264,45.7500000000012);
#99=CIRCLE('',#266,10.8500061035152);
#100=CIRCLE('',#268,10.8500061035164);
#101=CIRCLE('',#270,16.99999621653);
#102=VERTEX_POINT('',#349);
#103=VERTEX_POINT('',#351);
#104=VERTEX_POINT('',#355);
#105=VERTEX_POINT('',#358);
#106=VERTEX_POINT('',#361);
#107=VERTEX_POINT('',#365);
#108=VERTEX_POINT('',#369);
#109=VERTEX_POINT('',#373);
#110=VERTEX_POINT('',#376);
#111=VERTEX_POINT('',#377);
#112=VERTEX_POINT('',#382);
#113=VERTEX_POINT('',#386);
#114=VERTEX_POINT('',#389);
#115=VERTEX_POINT('',#393);
#116=VERTEX_POINT('',#396);
#117=VERTEX_POINT('',#400);
#118=EDGE_CURVE('',#102,#102,#85,.T.);
#119=EDGE_CURVE('',#102,#103,#67,.T.);
#120=EDGE_CURVE('',#103,#103,#86,.T.);
#121=EDGE_CURVE('',#104,#104,#87,.T.);
#122=EDGE_CURVE('',#105,#105,#88,.T.);
#123=EDGE_CURVE('',#106,#106,#89,.T.);
#124=EDGE_CURVE('',#106,#105,#68,.T.);
#125=EDGE_CURVE('',#107,#107,#90,.T.);
#126=EDGE_CURVE('',#107,#106,#69,.T.);
#127=EDGE_CURVE('',#108,#108,#91,.T.);
#128=EDGE_CURVE('',#108,#107,#70,.T.);
#129=EDGE_CURVE('',#109,#109,#92,.T.);
#130=EDGE_CURVE('',#110,#111,#93,.T.);
#131=EDGE_CURVE('',#110,#109,#94,.T.);
#132=EDGE_CURVE('',#111,#110,#95,.T.);
#133=EDGE_CURVE('',#112,#112,#96,.T.);
#134=EDGE_CURVE('',#112,#111,#71,.T.);
#135=EDGE_CURVE('',#113,#113,#97,.T.);
#136=EDGE_CURVE('',#114,#114,#98,.T.);
#137=EDGE_CURVE('',#114,#113,#72,.T.);
#138=EDGE_CURVE('',#115,#115,#99,.T.);
#139=EDGE_CURVE('',#116,#116,#100,.T.);
#140=EDGE_CURVE('',#116,#115,#73,.T.);
#141=EDGE_CURVE('',#117,#117,#101,.T.);
#142=EDGE_CURVE('',#117,#116,#74,.T.);
#143=EDGE_CURVE('',#104,#117,#75,.T.);
#144=ORIENTED_EDGE('',*,*,#118,.F.);
#145=ORIENTED_EDGE('',*,*,#119,.T.);
#146=ORIENTED_EDGE('',*,*,#120,.F.);
#147=ORIENTED_EDGE('',*,*,#119,.F.);
#148=ORIENTED_EDGE('',*,*,#121,.T.);
#149=ORIENTED_EDGE('',*,*,#120,.T.);
#150=ORIENTED_EDGE('',*,*,#122,.F.);
#151=ORIENTED_EDGE('',*,*,#118,.T.);
#152=ORIENTED_EDGE('',*,*,#123,.F.);
#153=ORIENTED_EDGE('',*,*,#124,.T.);
#154=ORIENTED_EDGE('',*,*,#122,.T.);
#155=ORIENTED_EDGE('',*,*,#124,.F.);
#156=ORIENTED_EDGE('',*,*,#125,.F.);
#157=ORIENTED_EDGE('',*,*,#126,.T.);
#158=ORIENTED_EDGE('',*,*,#123,.T.);
#159=ORIENTED_EDGE('',*,*,#126,.F.);
#160=ORIENTED_EDGE('',*,*,#127,.F.);
#161=ORIENTED_EDGE('',*,*,#128,.T.);
#162=ORIENTED_EDGE('',*,*,#125,.T.);
#163=ORIENTED_EDGE('',*,*,#128,.F.);
#164=ORIENTED_EDGE('',*,*,#129,.F.);
#165=ORIENTED_EDGE('',*,*,#127,.T.);
#166=ORIENTED_EDGE('',*,*,#130,.F.);
#167=ORIENTED_EDGE('',*,*,#131,.T.);
#168=ORIENTED_EDGE('',*,*,#129,.T.);
#169=ORIENTED_EDGE('',*,*,#131,.F.);
#170=ORIENTED_EDGE('',*,*,#132,.F.);
#171=ORIENTED_EDGE('',*,*,#133,.F.);
#172=ORIENTED_EDGE('',*,*,#134,.T.);
#173=ORIENTED_EDGE('',*,*,#132,.T.);
#174=ORIENTED_EDGE('',*,*,#130,.T.);
#175=ORIENTED_EDGE('',*,*,#134,.F.);
#176=ORIENTED_EDGE('',*,*,#135,.F.);
#177=ORIENTED_EDGE('',*,*,#133,.T.);
#178=ORIENTED_EDGE('',*,*,#136,.F.);
#179=ORIENTED_EDGE('',*,*,#137,.T.);
#180=ORIENTED_EDGE('',*,*,#135,.T.);
#181=ORIENTED_EDGE('',*,*,#137,.F.);
#182=ORIENTED_EDGE('',*,*,#136,.T.);
#183=ORIENTED_EDGE('',*,*,#138,.F.);
#184=ORIENTED_EDGE('',*,*,#139,.F.);
#185=ORIENTED_EDGE('',*,*,#140,.T.);
#186=ORIENTED_EDGE('',*,*,#138,.T.);
#187=ORIENTED_EDGE('',*,*,#140,.F.);
#188=ORIENTED_EDGE('',*,*,#141,.F.);
#189=ORIENTED_EDGE('',*,*,#142,.T.);
#190=ORIENTED_EDGE('',*,*,#139,.T.);
#191=ORIENTED_EDGE('',*,*,#142,.F.);
#192=ORIENTED_EDGE('',*,*,#121,.F.);
#193=ORIENTED_EDGE('',*,*,#143,.T.);
#194=ORIENTED_EDGE('',*,*,#141,.T.);
#195=ORIENTED_EDGE('',*,*,#143,.F.);
#196=CYLINDRICAL_SURFACE('',#240,9.2);
#197=CYLINDRICAL_SURFACE('',#247,16.9999999999991);
#198=CYLINDRICAL_SURFACE('',#251,10.8500061035155);
#199=CYLINDRICAL_SURFACE('',#259,33.0000001221371);
#200=CYLINDRICAL_SURFACE('',#263,45.7500000000017);
#201=CYLINDRICAL_SURFACE('',#267,10.8500061035158);
#202=ADVANCED_FACE('',(#32),#196,.F.);
#203=ADVANCED_FACE('',(#33,#22),#27,.T.);
#204=ADVANCED_FACE('',(#34,#23),#28,.T.);
#205=ADVANCED_FACE('',(#35),#197,.T.);
#206=ADVANCED_FACE('',(#36),#19,.T.);
#207=ADVANCED_FACE('',(#37),#198,.T.);
#208=ADVANCED_FACE('',(#38,#24),#29,.T.);
#209=ADVANCED_FACE('',(#39),#18,.T.);
#210=ADVANCED_FACE('',(#40),#199,.T.);
#211=ADVANCED_FACE('',(#41,#25),#30,.T.);
#212=ADVANCED_FACE('',(#42),#200,.T.);
#213=ADVANCED_FACE('',(#43,#26),#31,.T.);
#214=ADVANCED_FACE('',(#44),#201,.T.);
#215=ADVANCED_FACE('',(#45),#20,.T.);
#216=ADVANCED_FACE('',(#46),#21,.T.);
#217=CLOSED_SHELL('',(#202,#203,#204,#205,#206,#207,#208,#209,#210,#211,
#212,#213,#214,#215,#216));
#218=DERIVED_UNIT_ELEMENT(#221,1.);
#219=DERIVED_UNIT_ELEMENT(#411,-3.);
#220=DIMENSIONAL_EXPONENTS(0.,1.,0.,0.,0.,0.,0.);
#221=(
CONVERSION_BASED_UNIT('gram',#223)
MASS_UNIT()
NAMED_UNIT(#220)
);
#222=(
MASS_UNIT()
NAMED_UNIT(*)
SI_UNIT(.KILO.,.GRAM.)
);
#223=MASS_MEASURE_WITH_UNIT(MASS_MEASURE(0.001),#222);
#224=DERIVED_UNIT((#218,#219));
#225=MEASURE_REPRESENTATION_ITEM('density measure',
POSITIVE_RATIO_MEASURE(1.),#224);
#226=PROPERTY_DEFINITION_REPRESENTATION(#231,#228);
#227=PROPERTY_DEFINITION_REPRESENTATION(#232,#229);
#228=REPRESENTATION('material name',(#230),#408);
#229=REPRESENTATION('density',(#225),#408);
#230=DESCRIPTIVE_REPRESENTATION_ITEM('\X2\4E00822C\X0\','\X2\4E00822C\X0\');
#231=PROPERTY_DEFINITION('material property','material name',#418);
#232=PROPERTY_DEFINITION('material property','density of part',#418);
#233=DATE_TIME_ROLE('creation_date');
#234=APPLIED_DATE_AND_TIME_ASSIGNMENT(#235,#233,(#418));
#235=DATE_AND_TIME(#236,#237);
#236=CALENDAR_DATE(2024,3,4);
#237=LOCAL_TIME(0,0,0.,#238);
#238=COORDINATED_UNIVERSAL_TIME_OFFSET(0,0,.BEHIND.);
#239=AXIS2_PLACEMENT_3D('',#347,#272,#273);
#240=AXIS2_PLACEMENT_3D('',#348,#274,#275);
#241=AXIS2_PLACEMENT_3D('',#350,#276,#277);
#242=AXIS2_PLACEMENT_3D('',#353,#279,#280);
#243=AXIS2_PLACEMENT_3D('',#354,#281,#282);
#244=AXIS2_PLACEMENT_3D('',#356,#283,#284);
#245=AXIS2_PLACEMENT_3D('',#357,#285,#286);
#246=AXIS2_PLACEMENT_3D('',#359,#287,#288);
#247=AXIS2_PLACEMENT_3D('',#360,#289,#290);
#248=AXIS2_PLACEMENT_3D('',#362,#291,#292);
#249=AXIS2_PLACEMENT_3D('',#364,#294,#295);
#250=AXIS2_PLACEMENT_3D('',#366,#296,#297);
#251=AXIS2_PLACEMENT_3D('',#368,#299,#300);
#252=AXIS2_PLACEMENT_3D('',#370,#301,#302);
#253=AXIS2_PLACEMENT_3D('',#372,#304,#305);
#254=AXIS2_PLACEMENT_3D('',#374,#306,#307);
#255=AXIS2_PLACEMENT_3D('',#375,#308,#309);
#256=AXIS2_PLACEMENT_3D('',#378,#310,#311);
#257=AXIS2_PLACEMENT_3D('',#379,#312,#313);
#258=AXIS2_PLACEMENT_3D('',#380,#314,#315);
#259=AXIS2_PLACEMENT_3D('',#381,#316,#317);
#260=AXIS2_PLACEMENT_3D('',#383,#318,#319);
#261=AXIS2_PLACEMENT_3D('',#385,#321,#322);
#262=AXIS2_PLACEMENT_3D('',#387,#323,#324);
#263=AXIS2_PLACEMENT_3D('',#388,#325,#326);
#264=AXIS2_PLACEMENT_3D('',#390,#327,#328);
#265=AXIS2_PLACEMENT_3D('',#392,#330,#331);
#266=AXIS2_PLACEMENT_3D('',#394,#332,#333);
#267=AXIS2_PLACEMENT_3D('',#395,#334,#335);
#268=AXIS2_PLACEMENT_3D('',#397,#336,#337);
#269=AXIS2_PLACEMENT_3D('',#399,#339,#340);
#270=AXIS2_PLACEMENT_3D('',#401,#341,#342);
#271=AXIS2_PLACEMENT_3D('',#403,#344,#345);
#272=DIRECTION('axis',(0.,0.,1.));
#273=DIRECTION('refdir',(1.,0.,0.));
#274=DIRECTION('center_axis',(6.14534878011563E-14,-1.,0.));
#275=DIRECTION('ref_axis',(1.,6.14534878011563E-14,0.));
#276=DIRECTION('center_axis',(6.14523352434715E-14,-1.,0.));
#277=DIRECTION('ref_axis',(1.,6.14534878011563E-14,0.));
#278=DIRECTION('',(6.14534878011563E-14,-1.,0.));
#279=DIRECTION('center_axis',(-6.14523352434715E-14,1.,0.));
#280=DIRECTION('ref_axis',(1.,6.14534878011563E-14,0.));
#281=DIRECTION('center_axis',(6.14523352434715E-14,-1.,0.));
#282=DIRECTION('ref_axis',(0.,0.,-1.));
#283=DIRECTION('center_axis',(6.14523352434715E-14,-1.,0.));
#284=DIRECTION('ref_axis',(1.,6.14523352434715E-14,0.));
#285=DIRECTION('center_axis',(-6.14523352434715E-14,1.,0.));
#286=DIRECTION('ref_axis',(0.,0.,1.));
#287=DIRECTION('center_axis',(6.14523352434715E-14,-1.,0.));
#288=DIRECTION('ref_axis',(1.,6.14523352434715E-14,0.));
#289=DIRECTION('center_axis',(6.14523352434715E-14,-1.,0.));
#290=DIRECTION('ref_axis',(-1.,-6.16500392462483E-14,0.));
#291=DIRECTION('center_axis',(6.14523352434715E-14,-1.,0.));
#292=DIRECTION('ref_axis',(1.,6.14523352434715E-14,0.));
#293=DIRECTION('',(-6.14523352434715E-14,1.,0.));
#294=DIRECTION('center_axis',(-6.14523352434715E-14,1.,0.));
#295=DIRECTION('ref_axis',(-1.,-6.16500392462483E-14,0.));
#296=DIRECTION('center_axis',(6.14523352434715E-14,-1.,0.));
#297=DIRECTION('ref_axis',(1.,6.14523352434715E-14,0.));
#298=DIRECTION('',(0.939692616849599,0.342020154140589,1.15079155540729E-16));
#299=DIRECTION('center_axis',(6.14523352434715E-14,-1.,0.));
#300=DIRECTION('ref_axis',(-1.,-6.16500392462483E-14,0.));
#301=DIRECTION('center_axis',(6.14523352434715E-14,-1.,0.));
#302=DIRECTION('ref_axis',(1.,6.14523352434715E-14,0.));
#303=DIRECTION('',(-6.14523352434715E-14,1.,0.));
#304=DIRECTION('center_axis',(-6.14523352434715E-14,1.,0.));
#305=DIRECTION('ref_axis',(0.,0.,1.));
#306=DIRECTION('center_axis',(6.14523352434715E-14,-1.,0.));
#307=DIRECTION('ref_axis',(1.,6.14523352434715E-14,0.));
#308=DIRECTION('center_axis',(6.14523352434715E-14,-1.,0.));
#309=DIRECTION('ref_axis',(0.,0.,-1.));
#310=DIRECTION('center_axis',(6.14523352434715E-14,-1.,0.));
#311=DIRECTION('ref_axis',(1.,6.14523352434715E-14,0.));
#312=DIRECTION('center_axis',(-1.,-6.14523352434715E-14,-1.22464679914738E-16));
#313=DIRECTION('ref_axis',(-1.22464679914738E-16,0.,1.));
#314=DIRECTION('center_axis',(6.14523352434715E-14,-1.,0.));
#315=DIRECTION('ref_axis',(1.,6.14523352434715E-14,0.));
#316=DIRECTION('center_axis',(6.14523352434715E-14,-1.,0.));
#317=DIRECTION('ref_axis',(-1.,-6.16500392462483E-14,0.));
#318=DIRECTION('center_axis',(6.14523352434715E-14,-1.,0.));
#319=DIRECTION('ref_axis',(1.,6.14523352434715E-14,0.));
#320=DIRECTION('',(-6.14523352434715E-14,1.,0.));
#321=DIRECTION('center_axis',(-6.14523352434715E-14,1.,0.));
#322=DIRECTION('ref_axis',(0.,0.,1.));
#323=DIRECTION('center_axis',(6.14523352434715E-14,-1.,0.));
#324=DIRECTION('ref_axis',(1.,6.14523352434715E-14,0.));
#325=DIRECTION('center_axis',(6.14523352434715E-14,-1.,0.));
#326=DIRECTION('ref_axis',(-1.,-6.16500392462483E-14,0.));
#327=DIRECTION('center_axis',(6.14523352434715E-14,-1.,0.));
#328=DIRECTION('ref_axis',(1.,6.14523352434715E-14,0.));
#329=DIRECTION('',(-6.14523352434715E-14,1.,0.));
#330=DIRECTION('center_axis',(6.14523352434715E-14,-1.,0.));
#331=DIRECTION('ref_axis',(0.,0.,-1.));
#332=DIRECTION('center_axis',(6.14523352434715E-14,-1.,0.));
#333=DIRECTION('ref_axis',(1.,6.14523352434715E-14,0.));
#334=DIRECTION('center_axis',(6.14523352434715E-14,-1.,0.));
#335=DIRECTION('ref_axis',(-1.,-6.16500392462483E-14,0.));
#336=DIRECTION('center_axis',(6.14523352434715E-14,-1.,0.));
#337=DIRECTION('ref_axis',(1.,6.14523352434715E-14,0.));
#338=DIRECTION('',(-6.14523352434715E-14,1.,0.));
#339=DIRECTION('center_axis',(6.14523352434715E-14,-1.,0.));
#340=DIRECTION('ref_axis',(-1.,-6.16500392462483E-14,0.));
#341=DIRECTION('center_axis',(6.14523352434715E-14,-1.,0.));
#342=DIRECTION('ref_axis',(1.,6.14523352434715E-14,0.));
#343=DIRECTION('',(-0.93969365421224,0.342017303996812,-1.15079282581007E-16));
#344=DIRECTION('center_axis',(6.14523352434715E-14,-1.,0.));
#345=DIRECTION('ref_axis',(-1.,-6.16500392462483E-14,0.));
#346=DIRECTION('',(-1.3275225320624E-6,0.999999999999119,-1.62574614442881E-22));
#347=CARTESIAN_POINT('',(0.,0.,0.));
#348=CARTESIAN_POINT('Origin',(-6.45249502278841E-12,104.99999710709,0.));
#349=CARTESIAN_POINT('',(-9.20000000000645,104.999997107089,-1.12667505521557E-15));
#350=CARTESIAN_POINT('Origin',(-6.45249502278841E-12,104.99999710709,0.));
#351=CARTESIAN_POINT('',(-9.2,-5.6843418860808E-13,-1.12667505521557E-15));
#352=CARTESIAN_POINT('',(-9.20000000000645,104.999997107089,-1.12667505521557E-15));
#353=CARTESIAN_POINT('Origin',(1.2101855357044E-16,0.,0.));
#354=CARTESIAN_POINT('Origin',(2.87991852587766E-12,0.,0.));
#355=CARTESIAN_POINT('',(17.0000000000039,2.08943973234454E-12,2.08189955855063E-15));
#356=CARTESIAN_POINT('Origin',(2.87985731318716E-12,1.04471986617227E-12,
0.));
#357=CARTESIAN_POINT('Origin',(-17.0000000000026,104.999997107089,0.));
#358=CARTESIAN_POINT('',(16.9999999999955,104.999997107091,2.08189955855039E-15));
#359=CARTESIAN_POINT('Origin',(-3.57263770960118E-12,104.99999710709,0.));
#360=CARTESIAN_POINT('Origin',(-3.48506808374995E-12,103.574996323893,0.));
#361=CARTESIAN_POINT('',(16.9999999999957,102.149995540697,2.08189955855039E-15));
#362=CARTESIAN_POINT('Origin',(-3.39749845789872E-12,102.149995540696,0.));
#363=CARTESIAN_POINT('',(16.9999999999956,103.574996323894,2.08189955855039E-15));
#364=CARTESIAN_POINT('Origin',(-3.32872054956553E-12,101.030788140998,0.));
#365=CARTESIAN_POINT('',(10.8500061035117,99.9115807413009,1.32874252453989E-15));
#366=CARTESIAN_POINT('Origin',(-3.25994264123233E-12,99.9115807413003,0.));
#367=CARTESIAN_POINT('',(13.9250030517537,101.030788140999,1.70532104154514E-15));
#368=CARTESIAN_POINT('Origin',(-2.74031448745717E-12,91.4557889196158,0.));
#369=CARTESIAN_POINT('',(10.8500061035133,82.999997097932,1.32874252453995E-15));
#370=CARTESIAN_POINT('Origin',(-2.22068633368201E-12,82.9999970979313,0.));
#371=CARTESIAN_POINT('',(10.8500061035128,91.4557889196165,1.32874252453995E-15));
#372=CARTESIAN_POINT('Origin',(-21.0000002048887,82.9999970979303,0.));
#373=CARTESIAN_POINT('',(-2.22325809198533E-12,82.9999970979316,21.0000002048865));
#374=CARTESIAN_POINT('Origin',(-2.22068633368202E-12,82.9999970979316,0.));
#375=CARTESIAN_POINT('Origin',(-1.48325831076035E-12,70.9999970979313,0.));
#376=CARTESIAN_POINT('',(-1.48729964155214E-12,70.9999970382022,33.000000204887));
#377=CARTESIAN_POINT('',(33.0000001221356,70.9999970382042,4.04133445214375E-15));
#378=CARTESIAN_POINT('Origin',(-1.48325830708986E-12,70.9999970382022,0.));
#379=CARTESIAN_POINT('Origin',(-1.48583006906365E-12,70.9999970979313,21.0000002048868));
#380=CARTESIAN_POINT('Origin',(-1.48325830708986E-12,70.9999970382022,0.));
#381=CARTESIAN_POINT('Origin',(-4.61612710148165E-13,54.3749885190958,0.));
#382=CARTESIAN_POINT('',(33.0000001221376,37.7499799999915,4.04133445214375E-15));
#383=CARTESIAN_POINT('Origin',(5.60032886793528E-13,37.7499799999895,0.));
#384=CARTESIAN_POINT('',(33.0000001221366,54.3749885190979,4.04133445214375E-15));
#385=CARTESIAN_POINT('Origin',(-45.7500000000017,37.7499799999896,0.));
#386=CARTESIAN_POINT('',(45.7500000000023,37.7499799999953,5.60275910609936E-15));
#387=CARTESIAN_POINT('Origin',(5.60032886793346E-13,37.7499799999924,0.));
#388=CARTESIAN_POINT('Origin',(1.03628848493025E-12,29.9999799999924,0.));
#389=CARTESIAN_POINT('',(45.7500000000033,22.2499799999952,5.60275910609936E-15));
#390=CARTESIAN_POINT('Origin',(1.51254408306715E-12,22.2499799999924,0.));
#391=CARTESIAN_POINT('',(45.7500000000028,29.9999799999953,5.60275910609936E-15));
#392=CARTESIAN_POINT('Origin',(-10.8500061035137,22.2499799999896,0.));
#393=CARTESIAN_POINT('',(10.8500061035173,22.2499799999909,1.32874252453999E-15));
#394=CARTESIAN_POINT('Origin',(1.51254408306729E-12,22.2499799999903,0.));
#395=CARTESIAN_POINT('Origin',(2.03985316394282E-12,13.66919818289,0.));
#396=CARTESIAN_POINT('',(10.8500061035184,5.08841636579037,1.32874252453999E-15));
#397=CARTESIAN_POINT('Origin',(2.56716224481835E-12,5.0884163657897,0.));
#398=CARTESIAN_POINT('',(10.8500061035178,13.6691981828906,1.32874252453999E-15));
#399=CARTESIAN_POINT('Origin',(2.63593946176963E-12,3.96922021679401,0.));
#400=CARTESIAN_POINT('',(16.9999962165328,2.8500240677992,2.08189909520906E-15));
#401=CARTESIAN_POINT('Origin',(2.70471667872093E-12,2.85002406779815,0.));
#402=CARTESIAN_POINT('',(13.9250011600259,3.96922021679486,1.70532080987457E-15));
#403=CARTESIAN_POINT('Origin',(2.79228699595405E-12,1.4250120338996,0.));
#404=CARTESIAN_POINT('',(16.9999981082683,1.42501203390065,2.08189932687985E-15));
#405=CARTESIAN_POINT('',(0.,-1.76973957063344E-25,0.));
#406=UNCERTAINTY_MEASURE_WITH_UNIT(LENGTH_MEASURE(0.01),#410,
'DISTANCE_ACCURACY_VALUE',
'Maximum model space distance between geometric entities at asserted c
onnectivities');
#407=UNCERTAINTY_MEASURE_WITH_UNIT(LENGTH_MEASURE(0.01),#410,
'DISTANCE_ACCURACY_VALUE',
'Maximum model space distance between geometric entities at asserted c
onnectivities');
#408=(
GEOMETRIC_REPRESENTATION_CONTEXT(3)
GLOBAL_UNCERTAINTY_ASSIGNED_CONTEXT((#406))
GLOBAL_UNIT_ASSIGNED_CONTEXT((#410,#412,#413))
REPRESENTATION_CONTEXT('','3D')
);
#409=(
GEOMETRIC_REPRESENTATION_CONTEXT(3)
GLOBAL_UNCERTAINTY_ASSIGNED_CONTEXT((#407))
GLOBAL_UNIT_ASSIGNED_CONTEXT((#410,#412,#413))
REPRESENTATION_CONTEXT('','3D')
);
#410=(
LENGTH_UNIT()
NAMED_UNIT(*)
SI_UNIT(.MILLI.,.METRE.)
);
#411=(
LENGTH_UNIT()
NAMED_UNIT(*)
SI_UNIT(.CENTI.,.METRE.)
);
#412=(
NAMED_UNIT(*)
PLANE_ANGLE_UNIT()
SI_UNIT($,.RADIAN.)
);
#413=(
NAMED_UNIT(*)
SI_UNIT($,.STERADIAN.)
SOLID_ANGLE_UNIT()
);
#414=SHAPE_DEFINITION_REPRESENTATION(#415,#416);
#415=PRODUCT_DEFINITION_SHAPE('',$,#418);
#416=SHAPE_REPRESENTATION('',(#239),#408);
#417=PRODUCT_DEFINITION_CONTEXT('part definition',#422,'design');
#418=PRODUCT_DEFINITION('CVSC-04-1','CVSC-04-1',#419,#417);
#419=PRODUCT_DEFINITION_FORMATION('',$,#424);
#420=PRODUCT_RELATED_PRODUCT_CATEGORY('CVSC-04-1','CVSC-04-1',(#424));
#421=APPLICATION_PROTOCOL_DEFINITION('international standard',
'automotive_design',2009,#422);
#422=APPLICATION_CONTEXT(
'Core Data for Automotive Mechanical Design Process');
#423=PRODUCT_CONTEXT('part definition',#422,'mechanical');
#424=PRODUCT('CVSC-04-1','CVSC-04-1',$,(#423));
#425=PRESENTATION_STYLE_ASSIGNMENT((#427));
#426=PRESENTATION_STYLE_ASSIGNMENT((#428));
#427=SURFACE_STYLE_USAGE(.BOTH.,#431);
#428=SURFACE_STYLE_USAGE(.BOTH.,#432);
#429=SURFACE_STYLE_RENDERING_WITH_PROPERTIES($,#439,(#430));
#430=SURFACE_STYLE_TRANSPARENT(0.);
#431=SURFACE_SIDE_STYLE('',(#433,#429));
#432=SURFACE_SIDE_STYLE('',(#434));
#433=SURFACE_STYLE_FILL_AREA(#435);
#434=SURFACE_STYLE_FILL_AREA(#436);
#435=FILL_AREA_STYLE('',(#437));
#436=FILL_AREA_STYLE('',(#438));
#437=FILL_AREA_STYLE_COLOUR('',#439);
#438=FILL_AREA_STYLE_COLOUR('',#440);
#439=COLOUR_RGB('',0.749019607843137,0.749019607843137,0.749019607843137);
#440=COLOUR_RGB('',1.,1.,0.);
ENDSEC;
END-ISO-10303-21;
