ISO-10303-21;
HEADER;
/* Generated by software containing ST-Developer
 * from STEP Tools, Inc. (www.steptools.com) 
 */

FILE_DESCRIPTION(
/* description */ (''),
/* implementation_level */ '2;1');

FILE_NAME(
/* name */ 
'W:\\Work\\TOSTE\\\X2\958B767A\X0\\\3D\X2\30C730FC30BF590963DB\X0\\\DA
TA\\\X2\88DC5668985E\X0\\\CVCG_CXC\\CVCG_CXC_10.stp',
/* time_stamp */ '2021-08-19T18:19:39+09:00',
/* author */ ('nishioka'),
/* organization */ (''),
/* preprocessor_version */ 'ST-DEVELOPER v18.1',
/* originating_system */ 'Autodesk Inventor 2021',
/* authorisation */ '');

FILE_SCHEMA (('AUTOMOTIVE_DESIGN { 1 0 10303 214 3 1 1 }'));
ENDSEC;

DATA;
#10=MECHANICAL_DESIGN_GEOMETRIC_PRESENTATION_REPRESENTATION('',(#13),#421);
#11=SHAPE_REPRESENTATION_RELATIONSHIP('SRR','None',#428,#12);
#12=ADVANCED_BREP_SHAPE_REPRESENTATION('',(#14),#420);
#13=STYLED_ITEM('',(#437),#14);
#14=MANIFOLD_SOLID_BREP('\X2\30BD30EA30C330C9\X0\1',#227);
#15=CONICAL_SURFACE('',#252,18.975,1.22173047639603);
#16=CONICAL_SURFACE('',#256,18.35,1.30899693899575);
#17=CONICAL_SURFACE('',#268,18.35,1.0471975511966);
#18=CONICAL_SURFACE('',#272,18.975,1.22173047639603);
#19=LINE('',#366,#31);
#20=LINE('',#370,#32);
#21=LINE('',#374,#33);
#22=LINE('',#378,#34);
#23=LINE('',#382,#35);
#24=LINE('',#389,#36);
#25=LINE('',#396,#37);
#26=LINE('',#400,#38);
#27=LINE('',#404,#39);
#28=LINE('',#408,#40);
#29=LINE('',#412,#41);
#30=LINE('',#417,#42);
#31=VECTOR('',#291,25.25);
#32=VECTOR('',#296,18.975);
#33=VECTOR('',#301,12.7);
#34=VECTOR('',#306,18.35);
#35=VECTOR('',#311,24.);
#36=VECTOR('',#320,40.25);
#37=VECTOR('',#329,24.);
#38=VECTOR('',#334,18.35);
#39=VECTOR('',#339,12.7);
#40=VECTOR('',#344,18.975);
#41=VECTOR('',#349,25.25);
#42=VECTOR('',#356,11.5);
#43=CYLINDRICAL_SURFACE('',#250,25.25);
#44=CYLINDRICAL_SURFACE('',#254,12.7);
#45=CYLINDRICAL_SURFACE('',#258,24.);
#46=CYLINDRICAL_SURFACE('',#262,40.25);
#47=CYLINDRICAL_SURFACE('',#266,24.);
#48=CYLINDRICAL_SURFACE('',#270,12.7);
#49=CYLINDRICAL_SURFACE('',#274,25.25);
#50=CYLINDRICAL_SURFACE('',#278,11.5);
#51=FACE_BOUND('',#72,.T.);
#52=FACE_BOUND('',#79,.T.);
#53=FACE_BOUND('',#82,.T.);
#54=FACE_BOUND('',#89,.T.);
#55=FACE_OUTER_BOUND('',#71,.T.);
#56=FACE_OUTER_BOUND('',#73,.T.);
#57=FACE_OUTER_BOUND('',#74,.T.);
#58=FACE_OUTER_BOUND('',#75,.T.);
#59=FACE_OUTER_BOUND('',#76,.T.);
#60=FACE_OUTER_BOUND('',#77,.T.);
#61=FACE_OUTER_BOUND('',#78,.T.);
#62=FACE_OUTER_BOUND('',#80,.T.);
#63=FACE_OUTER_BOUND('',#81,.T.);
#64=FACE_OUTER_BOUND('',#83,.T.);
#65=FACE_OUTER_BOUND('',#84,.T.);
#66=FACE_OUTER_BOUND('',#85,.T.);
#67=FACE_OUTER_BOUND('',#86,.T.);
#68=FACE_OUTER_BOUND('',#87,.T.);
#69=FACE_OUTER_BOUND('',#88,.T.);
#70=FACE_OUTER_BOUND('',#90,.T.);
#71=EDGE_LOOP('',(#151));
#72=EDGE_LOOP('',(#152));
#73=EDGE_LOOP('',(#153,#154,#155,#156));
#74=EDGE_LOOP('',(#157,#158,#159,#160));
#75=EDGE_LOOP('',(#161,#162,#163,#164));
#76=EDGE_LOOP('',(#165,#166,#167,#168));
#77=EDGE_LOOP('',(#169,#170,#171,#172));
#78=EDGE_LOOP('',(#173));
#79=EDGE_LOOP('',(#174));
#80=EDGE_LOOP('',(#175,#176,#177,#178));
#81=EDGE_LOOP('',(#179));
#82=EDGE_LOOP('',(#180));
#83=EDGE_LOOP('',(#181,#182,#183,#184));
#84=EDGE_LOOP('',(#185,#186,#187,#188));
#85=EDGE_LOOP('',(#189,#190,#191,#192));
#86=EDGE_LOOP('',(#193,#194,#195,#196));
#87=EDGE_LOOP('',(#197,#198,#199,#200));
#88=EDGE_LOOP('',(#201));
#89=EDGE_LOOP('',(#202));
#90=EDGE_LOOP('',(#203,#204,#205,#206));
#91=CIRCLE('',#248,25.25);
#92=CIRCLE('',#249,11.5);
#93=CIRCLE('',#251,25.25);
#94=CIRCLE('',#253,12.7);
#95=CIRCLE('',#255,12.7);
#96=CIRCLE('',#257,24.);
#97=CIRCLE('',#259,24.);
#98=CIRCLE('',#261,40.25);
#99=CIRCLE('',#263,40.25);
#100=CIRCLE('',#265,24.);
#101=CIRCLE('',#267,24.);
#102=CIRCLE('',#269,12.7);
#103=CIRCLE('',#271,12.7);
#104=CIRCLE('',#273,25.25);
#105=CIRCLE('',#275,25.25);
#106=CIRCLE('',#277,11.5);
#107=VERTEX_POINT('',#359);
#108=VERTEX_POINT('',#361);
#109=VERTEX_POINT('',#364);
#110=VERTEX_POINT('',#368);
#111=VERTEX_POINT('',#372);
#112=VERTEX_POINT('',#376);
#113=VERTEX_POINT('',#380);
#114=VERTEX_POINT('',#384);
#115=VERTEX_POINT('',#387);
#116=VERTEX_POINT('',#391);
#117=VERTEX_POINT('',#394);
#118=VERTEX_POINT('',#398);
#119=VERTEX_POINT('',#402);
#120=VERTEX_POINT('',#406);
#121=VERTEX_POINT('',#410);
#122=VERTEX_POINT('',#414);
#123=EDGE_CURVE('',#107,#107,#91,.T.);
#124=EDGE_CURVE('',#108,#108,#92,.T.);
#125=EDGE_CURVE('',#109,#109,#93,.T.);
#126=EDGE_CURVE('',#109,#107,#19,.T.);
#127=EDGE_CURVE('',#110,#110,#94,.T.);
#128=EDGE_CURVE('',#110,#109,#20,.T.);
#129=EDGE_CURVE('',#111,#111,#95,.T.);
#130=EDGE_CURVE('',#111,#110,#21,.T.);
#131=EDGE_CURVE('',#112,#112,#96,.T.);
#132=EDGE_CURVE('',#112,#111,#22,.T.);
#133=EDGE_CURVE('',#113,#113,#97,.T.);
#134=EDGE_CURVE('',#113,#112,#23,.T.);
#135=EDGE_CURVE('',#114,#114,#98,.T.);
#136=EDGE_CURVE('',#115,#115,#99,.T.);
#137=EDGE_CURVE('',#115,#114,#24,.T.);
#138=EDGE_CURVE('',#116,#116,#100,.T.);
#139=EDGE_CURVE('',#117,#117,#101,.T.);
#140=EDGE_CURVE('',#117,#116,#25,.T.);
#141=EDGE_CURVE('',#118,#118,#102,.T.);
#142=EDGE_CURVE('',#118,#117,#26,.T.);
#143=EDGE_CURVE('',#119,#119,#103,.T.);
#144=EDGE_CURVE('',#119,#118,#27,.T.);
#145=EDGE_CURVE('',#120,#120,#104,.T.);
#146=EDGE_CURVE('',#120,#119,#28,.T.);
#147=EDGE_CURVE('',#121,#121,#105,.T.);
#148=EDGE_CURVE('',#121,#120,#29,.T.);
#149=EDGE_CURVE('',#122,#122,#106,.T.);
#150=EDGE_CURVE('',#122,#108,#30,.T.);
#151=ORIENTED_EDGE('',*,*,#123,.F.);
#152=ORIENTED_EDGE('',*,*,#124,.T.);
#153=ORIENTED_EDGE('',*,*,#125,.F.);
#154=ORIENTED_EDGE('',*,*,#126,.T.);
#155=ORIENTED_EDGE('',*,*,#123,.T.);
#156=ORIENTED_EDGE('',*,*,#126,.F.);
#157=ORIENTED_EDGE('',*,*,#127,.F.);
#158=ORIENTED_EDGE('',*,*,#128,.T.);
#159=ORIENTED_EDGE('',*,*,#125,.T.);
#160=ORIENTED_EDGE('',*,*,#128,.F.);
#161=ORIENTED_EDGE('',*,*,#129,.F.);
#162=ORIENTED_EDGE('',*,*,#130,.T.);
#163=ORIENTED_EDGE('',*,*,#127,.T.);
#164=ORIENTED_EDGE('',*,*,#130,.F.);
#165=ORIENTED_EDGE('',*,*,#131,.F.);
#166=ORIENTED_EDGE('',*,*,#132,.T.);
#167=ORIENTED_EDGE('',*,*,#129,.T.);
#168=ORIENTED_EDGE('',*,*,#132,.F.);
#169=ORIENTED_EDGE('',*,*,#133,.F.);
#170=ORIENTED_EDGE('',*,*,#134,.T.);
#171=ORIENTED_EDGE('',*,*,#131,.T.);
#172=ORIENTED_EDGE('',*,*,#134,.F.);
#173=ORIENTED_EDGE('',*,*,#135,.F.);
#174=ORIENTED_EDGE('',*,*,#133,.T.);
#175=ORIENTED_EDGE('',*,*,#136,.F.);
#176=ORIENTED_EDGE('',*,*,#137,.T.);
#177=ORIENTED_EDGE('',*,*,#135,.T.);
#178=ORIENTED_EDGE('',*,*,#137,.F.);
#179=ORIENTED_EDGE('',*,*,#136,.T.);
#180=ORIENTED_EDGE('',*,*,#138,.F.);
#181=ORIENTED_EDGE('',*,*,#139,.F.);
#182=ORIENTED_EDGE('',*,*,#140,.T.);
#183=ORIENTED_EDGE('',*,*,#138,.T.);
#184=ORIENTED_EDGE('',*,*,#140,.F.);
#185=ORIENTED_EDGE('',*,*,#141,.F.);
#186=ORIENTED_EDGE('',*,*,#142,.T.);
#187=ORIENTED_EDGE('',*,*,#139,.T.);
#188=ORIENTED_EDGE('',*,*,#142,.F.);
#189=ORIENTED_EDGE('',*,*,#143,.F.);
#190=ORIENTED_EDGE('',*,*,#144,.T.);
#191=ORIENTED_EDGE('',*,*,#141,.T.);
#192=ORIENTED_EDGE('',*,*,#144,.F.);
#193=ORIENTED_EDGE('',*,*,#145,.F.);
#194=ORIENTED_EDGE('',*,*,#146,.T.);
#195=ORIENTED_EDGE('',*,*,#143,.T.);
#196=ORIENTED_EDGE('',*,*,#146,.F.);
#197=ORIENTED_EDGE('',*,*,#147,.F.);
#198=ORIENTED_EDGE('',*,*,#148,.T.);
#199=ORIENTED_EDGE('',*,*,#145,.T.);
#200=ORIENTED_EDGE('',*,*,#148,.F.);
#201=ORIENTED_EDGE('',*,*,#147,.T.);
#202=ORIENTED_EDGE('',*,*,#149,.F.);
#203=ORIENTED_EDGE('',*,*,#149,.T.);
#204=ORIENTED_EDGE('',*,*,#150,.T.);
#205=ORIENTED_EDGE('',*,*,#124,.F.);
#206=ORIENTED_EDGE('',*,*,#150,.F.);
#207=PLANE('',#247);
#208=PLANE('',#260);
#209=PLANE('',#264);
#210=PLANE('',#276);
#211=ADVANCED_FACE('',(#55,#51),#207,.T.);
#212=ADVANCED_FACE('',(#56),#43,.T.);
#213=ADVANCED_FACE('',(#57),#15,.T.);
#214=ADVANCED_FACE('',(#58),#44,.T.);
#215=ADVANCED_FACE('',(#59),#16,.T.);
#216=ADVANCED_FACE('',(#60),#45,.T.);
#217=ADVANCED_FACE('',(#61,#52),#208,.T.);
#218=ADVANCED_FACE('',(#62),#46,.T.);
#219=ADVANCED_FACE('',(#63,#53),#209,.T.);
#220=ADVANCED_FACE('',(#64),#47,.T.);
#221=ADVANCED_FACE('',(#65),#17,.T.);
#222=ADVANCED_FACE('',(#66),#48,.T.);
#223=ADVANCED_FACE('',(#67),#18,.T.);
#224=ADVANCED_FACE('',(#68),#49,.T.);
#225=ADVANCED_FACE('',(#69,#54),#210,.T.);
#226=ADVANCED_FACE('',(#70),#50,.F.);
#227=CLOSED_SHELL('',(#211,#212,#213,#214,#215,#216,#217,#218,#219,#220,
#221,#222,#223,#224,#225,#226));
#228=DERIVED_UNIT_ELEMENT(#230,1.);
#229=DERIVED_UNIT_ELEMENT(#423,-3.);
#230=(
MASS_UNIT()
NAMED_UNIT(*)
SI_UNIT($,.GRAM.)
);
#231=DERIVED_UNIT((#228,#229));
#232=MEASURE_REPRESENTATION_ITEM('density measure',
POSITIVE_RATIO_MEASURE(1.),#231);
#233=PROPERTY_DEFINITION_REPRESENTATION(#238,#235);
#234=PROPERTY_DEFINITION_REPRESENTATION(#239,#236);
#235=REPRESENTATION('material name',(#237),#420);
#236=REPRESENTATION('density',(#232),#420);
#237=DESCRIPTIVE_REPRESENTATION_ITEM('\X2\4E00822C\X0\','\X2\4E00822C\X0\');
#238=PROPERTY_DEFINITION('material property','material name',#430);
#239=PROPERTY_DEFINITION('material property','density of part',#430);
#240=DATE_TIME_ROLE('creation_date');
#241=APPLIED_DATE_AND_TIME_ASSIGNMENT(#242,#240,(#430));
#242=DATE_AND_TIME(#243,#244);
#243=CALENDAR_DATE(2005,20,6);
#244=LOCAL_TIME(0,0,0.,#245);
#245=COORDINATED_UNIVERSAL_TIME_OFFSET(0,0,.BEHIND.);
#246=AXIS2_PLACEMENT_3D('placement',#357,#279,#280);
#247=AXIS2_PLACEMENT_3D('',#358,#281,#282);
#248=AXIS2_PLACEMENT_3D('',#360,#283,#284);
#249=AXIS2_PLACEMENT_3D('',#362,#285,#286);
#250=AXIS2_PLACEMENT_3D('',#363,#287,#288);
#251=AXIS2_PLACEMENT_3D('',#365,#289,#290);
#252=AXIS2_PLACEMENT_3D('',#367,#292,#293);
#253=AXIS2_PLACEMENT_3D('',#369,#294,#295);
#254=AXIS2_PLACEMENT_3D('',#371,#297,#298);
#255=AXIS2_PLACEMENT_3D('',#373,#299,#300);
#256=AXIS2_PLACEMENT_3D('',#375,#302,#303);
#257=AXIS2_PLACEMENT_3D('',#377,#304,#305);
#258=AXIS2_PLACEMENT_3D('',#379,#307,#308);
#259=AXIS2_PLACEMENT_3D('',#381,#309,#310);
#260=AXIS2_PLACEMENT_3D('',#383,#312,#313);
#261=AXIS2_PLACEMENT_3D('',#385,#314,#315);
#262=AXIS2_PLACEMENT_3D('',#386,#316,#317);
#263=AXIS2_PLACEMENT_3D('',#388,#318,#319);
#264=AXIS2_PLACEMENT_3D('',#390,#321,#322);
#265=AXIS2_PLACEMENT_3D('',#392,#323,#324);
#266=AXIS2_PLACEMENT_3D('',#393,#325,#326);
#267=AXIS2_PLACEMENT_3D('',#395,#327,#328);
#268=AXIS2_PLACEMENT_3D('',#397,#330,#331);
#269=AXIS2_PLACEMENT_3D('',#399,#332,#333);
#270=AXIS2_PLACEMENT_3D('',#401,#335,#336);
#271=AXIS2_PLACEMENT_3D('',#403,#337,#338);
#272=AXIS2_PLACEMENT_3D('',#405,#340,#341);
#273=AXIS2_PLACEMENT_3D('',#407,#342,#343);
#274=AXIS2_PLACEMENT_3D('',#409,#345,#346);
#275=AXIS2_PLACEMENT_3D('',#411,#347,#348);
#276=AXIS2_PLACEMENT_3D('',#413,#350,#351);
#277=AXIS2_PLACEMENT_3D('',#415,#352,#353);
#278=AXIS2_PLACEMENT_3D('',#416,#354,#355);
#279=DIRECTION('axis',(0.,0.,1.));
#280=DIRECTION('refdir',(1.,0.,0.));
#281=DIRECTION('center_axis',(1.,0.,-4.89842541528951E-16));
#282=DIRECTION('ref_axis',(-4.89842541528951E-16,0.,-1.));
#283=DIRECTION('center_axis',(-1.,0.,4.89842541528951E-16));
#284=DIRECTION('ref_axis',(4.9024793886301E-16,0.,1.));
#285=DIRECTION('center_axis',(-1.,0.,4.89842541528951E-16));
#286=DIRECTION('ref_axis',(4.9024793886301E-16,0.,1.));
#287=DIRECTION('center_axis',(-1.,0.,4.89842541528951E-16));
#288=DIRECTION('ref_axis',(4.9024793886301E-16,0.,1.));
#289=DIRECTION('center_axis',(-1.,0.,4.89842541528951E-16));
#290=DIRECTION('ref_axis',(4.9024793886301E-16,0.,1.));
#291=DIRECTION('',(1.,0.,-4.89842541528951E-16));
#292=DIRECTION('center_axis',(1.,0.,-4.89842541528951E-16));
#293=DIRECTION('ref_axis',(4.9024793886301E-16,0.,1.));
#294=DIRECTION('center_axis',(-1.,0.,4.89842541528951E-16));
#295=DIRECTION('ref_axis',(4.9024793886301E-16,0.,1.));
#296=DIRECTION('',(0.342020143325668,-1.15079156022785E-16,-0.939692620785909));
#297=DIRECTION('center_axis',(-1.,0.,4.89842541528951E-16));
#298=DIRECTION('ref_axis',(4.9024793886301E-16,0.,1.));
#299=DIRECTION('center_axis',(-1.,0.,4.89842541528951E-16));
#300=DIRECTION('ref_axis',(4.9024793886301E-16,0.,1.));
#301=DIRECTION('',(1.,0.,-4.89842541528951E-16));
#302=DIRECTION('center_axis',(-1.,0.,4.89842541528951E-16));
#303=DIRECTION('ref_axis',(4.9024793886301E-16,0.,1.));
#304=DIRECTION('center_axis',(-1.,0.,4.89842541528951E-16));
#305=DIRECTION('ref_axis',(4.9024793886301E-16,0.,1.));
#306=DIRECTION('',(0.258819045102521,1.18291797137867E-16,0.965925826289068));
#307=DIRECTION('center_axis',(-1.,0.,4.89842541528951E-16));
#308=DIRECTION('ref_axis',(4.9024793886301E-16,0.,1.));
#309=DIRECTION('center_axis',(-1.,0.,4.89842541528951E-16));
#310=DIRECTION('ref_axis',(4.9024793886301E-16,0.,1.));
#311=DIRECTION('',(1.,0.,-4.89842541528951E-16));
#312=DIRECTION('center_axis',(1.,0.,-4.89842541528951E-16));
#313=DIRECTION('ref_axis',(-4.89842541528951E-16,0.,-1.));
#314=DIRECTION('center_axis',(-1.,0.,4.89842541528951E-16));
#315=DIRECTION('ref_axis',(4.9024793886301E-16,0.,1.));
#316=DIRECTION('center_axis',(-1.,0.,4.89842541528951E-16));
#317=DIRECTION('ref_axis',(4.9024793886301E-16,0.,1.));
#318=DIRECTION('center_axis',(-1.,0.,4.89842541528951E-16));
#319=DIRECTION('ref_axis',(4.9024793886301E-16,0.,1.));
#320=DIRECTION('',(1.,0.,-4.89842541528951E-16));
#321=DIRECTION('center_axis',(-1.,0.,4.89842541528951E-16));
#322=DIRECTION('ref_axis',(4.89842541528951E-16,0.,1.));
#323=DIRECTION('center_axis',(-1.,0.,4.89842541528951E-16));
#324=DIRECTION('ref_axis',(4.9024793886301E-16,0.,1.));
#325=DIRECTION('center_axis',(-1.,0.,4.89842541528951E-16));
#326=DIRECTION('ref_axis',(4.9024793886301E-16,0.,1.));
#327=DIRECTION('center_axis',(-1.,0.,4.89842541528951E-16));
#328=DIRECTION('ref_axis',(4.9024793886301E-16,0.,1.));
#329=DIRECTION('',(1.,0.,-4.89842541528951E-16));
#330=DIRECTION('center_axis',(1.,0.,-4.89842541528951E-16));
#331=DIRECTION('ref_axis',(4.9024793886301E-16,0.,1.));
#332=DIRECTION('center_axis',(-1.,0.,4.89842541528951E-16));
#333=DIRECTION('ref_axis',(4.9024793886301E-16,0.,1.));
#334=DIRECTION('',(0.500000000000001,-1.06057523872491E-16,-0.866025403784438));
#335=DIRECTION('center_axis',(-1.,0.,4.89842541528951E-16));
#336=DIRECTION('ref_axis',(4.9024793886301E-16,0.,1.));
#337=DIRECTION('center_axis',(-1.,0.,4.89842541528951E-16));
#338=DIRECTION('ref_axis',(4.9024793886301E-16,0.,1.));
#339=DIRECTION('',(1.,0.,-4.89842541528951E-16));
#340=DIRECTION('center_axis',(-1.,0.,4.89842541528951E-16));
#341=DIRECTION('ref_axis',(4.9024793886301E-16,0.,1.));
#342=DIRECTION('center_axis',(-1.,0.,4.89842541528951E-16));
#343=DIRECTION('ref_axis',(4.9024793886301E-16,0.,1.));
#344=DIRECTION('',(0.34202014332567,1.15079156022785E-16,0.939692620785908));
#345=DIRECTION('center_axis',(-1.,0.,4.89842541528951E-16));
#346=DIRECTION('ref_axis',(4.9024793886301E-16,0.,1.));
#347=DIRECTION('center_axis',(-1.,0.,4.89842541528951E-16));
#348=DIRECTION('ref_axis',(4.9024793886301E-16,0.,1.));
#349=DIRECTION('',(1.,0.,-4.89842541528951E-16));
#350=DIRECTION('center_axis',(-1.,0.,4.89842541528951E-16));
#351=DIRECTION('ref_axis',(4.89842541528951E-16,0.,1.));
#352=DIRECTION('center_axis',(-1.,0.,4.89842541528951E-16));
#353=DIRECTION('ref_axis',(4.9024793886301E-16,0.,1.));
#354=DIRECTION('center_axis',(-1.,0.,4.89842541528951E-16));
#355=DIRECTION('ref_axis',(4.9024793886301E-16,0.,1.));
#356=DIRECTION('',(1.,0.,-4.89842541528951E-16));
#357=CARTESIAN_POINT('',(0.,0.,0.));
#358=CARTESIAN_POINT('Origin',(6.2012637321203E-15,0.,18.375));
#359=CARTESIAN_POINT('',(-1.58206781009085E-14,-3.09223316784707E-15,-25.25));
#360=CARTESIAN_POINT('Origin',(-3.48679418671338E-15,0.,1.71022579061587E-30));
#361=CARTESIAN_POINT('',(-8.88178419700125E-15,-1.40834381901946E-15,-11.5));
#362=CARTESIAN_POINT('Origin',(-2.1163626406917E-15,0.,1.04000216996911E-30));
#363=CARTESIAN_POINT('Origin',(-1.425,0.,6.98025621678757E-16));
#364=CARTESIAN_POINT('',(-2.85000000000002,-3.09223316784707E-15,-25.25));
#365=CARTESIAN_POINT('Origin',(-2.85,0.,1.39605124335751E-15));
#366=CARTESIAN_POINT('',(-1.42500000000002,-3.09223316784707E-15,-25.25));
#367=CARTESIAN_POINT('Origin',(-5.13391322002043,0.,2.51480909968389E-15));
#368=CARTESIAN_POINT('',(-7.41782644004086,-1.55530143491714E-15,-12.7));
#369=CARTESIAN_POINT('Origin',(-7.41782644004086,0.,3.63356695601026E-15));
#370=CARTESIAN_POINT('',(-5.13391322002044,-2.32376730138211E-15,-18.975));
#371=CARTESIAN_POINT('Origin',(-16.1950002827846,0.,7.93300009858128E-15));
#372=CARTESIAN_POINT('',(-24.9721741255283,-1.55530143491714E-15,-12.7));
#373=CARTESIAN_POINT('Origin',(-24.9721741255283,0.,1.22324332411523E-14));
#374=CARTESIAN_POINT('',(-16.1950002827846,-1.55530143491714E-15,-12.7));
#375=CARTESIAN_POINT('Origin',(-26.4860870627642,0.,1.29740122019815E-14));
#376=CARTESIAN_POINT('',(-28.,-2.93915231795365E-15,-24.));
#377=CARTESIAN_POINT('Origin',(-28.,0.,1.37155911628106E-14));
#378=CARTESIAN_POINT('',(-26.4860870627642,-2.24722687643539E-15,-18.35));
#379=CARTESIAN_POINT('Origin',(-42.875,0.,2.10019989680538E-14));
#380=CARTESIAN_POINT('',(-57.75,-2.93915231795365E-15,-24.));
#381=CARTESIAN_POINT('Origin',(-57.75,0.,2.82884067732969E-14));
#382=CARTESIAN_POINT('',(-42.875,-2.93915231795365E-15,-24.));
#383=CARTESIAN_POINT('Origin',(-57.75,0.,32.125));
#384=CARTESIAN_POINT('',(-57.75,-4.9292033665681E-15,-40.25));
#385=CARTESIAN_POINT('Origin',(-57.75,0.,2.82884067732969E-14));
#386=CARTESIAN_POINT('Origin',(-68.625,0.,3.36154444124243E-14));
#387=CARTESIAN_POINT('',(-72.25,-4.9292033665681E-15,-40.25));
#388=CARTESIAN_POINT('Origin',(-72.25,0.,3.53911236254667E-14));
#389=CARTESIAN_POINT('',(-68.625,-4.9292033665681E-15,-40.25));
#390=CARTESIAN_POINT('Origin',(-72.25,0.,32.125));
#391=CARTESIAN_POINT('',(-72.25,-2.93915231795365E-15,-24.));
#392=CARTESIAN_POINT('Origin',(-72.25,0.,3.53911236254667E-14));
#393=CARTESIAN_POINT('Origin',(-79.125,0.,3.87587910984783E-14));
#394=CARTESIAN_POINT('',(-86.,-2.93915231795365E-15,-24.));
#395=CARTESIAN_POINT('Origin',(-86.,0.,4.21264585714898E-14));
#396=CARTESIAN_POINT('',(-79.125,-2.93915231795365E-15,-24.));
#397=CARTESIAN_POINT('Origin',(-89.2620290209214,0.,4.37243391576391E-14));
#398=CARTESIAN_POINT('',(-92.5240580418428,-1.55530143491714E-15,-12.6999999999999));
#399=CARTESIAN_POINT('Origin',(-92.5240580418428,0.,4.53222197437884E-14));
#400=CARTESIAN_POINT('',(-89.2620290209214,-2.24722687643539E-15,-18.3499999999999));
#401=CARTESIAN_POINT('Origin',(-100.053115800901,0.,4.90102725318038E-14));
#402=CARTESIAN_POINT('',(-107.582173559959,-1.55530143491714E-15,-12.6999999999999));
#403=CARTESIAN_POINT('Origin',(-107.582173559959,0.,5.26983253198191E-14));
#404=CARTESIAN_POINT('',(-100.053115800901,-1.55530143491714E-15,-12.6999999999999));
#405=CARTESIAN_POINT('Origin',(-109.86608677998,0.,5.38170831761455E-14));
#406=CARTESIAN_POINT('',(-112.15,-3.09223316784707E-15,-25.25));
#407=CARTESIAN_POINT('Origin',(-112.15,0.,5.49358410324719E-14));
#408=CARTESIAN_POINT('',(-109.86608677998,-2.3237673013821E-15,-18.9749999999999));
#409=CARTESIAN_POINT('Origin',(-113.575,0.,5.56338666541506E-14));
#410=CARTESIAN_POINT('',(-115.,-3.09223316784707E-15,-25.25));
#411=CARTESIAN_POINT('Origin',(-115.,0.,5.63318922758294E-14));
#412=CARTESIAN_POINT('',(-113.575,-3.09223316784707E-15,-25.25));
#413=CARTESIAN_POINT('Origin',(-115.,0.,18.375));
#414=CARTESIAN_POINT('',(-115.,-1.40834381901946E-15,-11.4999999999999));
#415=CARTESIAN_POINT('Origin',(-115.,0.,5.63318922758294E-14));
#416=CARTESIAN_POINT('Origin',(-57.5,0.,2.81659461379147E-14));
#417=CARTESIAN_POINT('',(-57.5,-1.40834381901946E-15,-11.5));
#418=UNCERTAINTY_MEASURE_WITH_UNIT(LENGTH_MEASURE(0.01),#422,
'DISTANCE_ACCURACY_VALUE',
'Maximum model space distance between geometric entities at asserted c
onnectivities');
#419=UNCERTAINTY_MEASURE_WITH_UNIT(LENGTH_MEASURE(0.01),#422,
'DISTANCE_ACCURACY_VALUE',
'Maximum model space distance between geometric entities at asserted c
onnectivities');
#420=(
GEOMETRIC_REPRESENTATION_CONTEXT(3)
GLOBAL_UNCERTAINTY_ASSIGNED_CONTEXT((#418))
GLOBAL_UNIT_ASSIGNED_CONTEXT((#422,#424,#425))
REPRESENTATION_CONTEXT('','3D')
);
#421=(
GEOMETRIC_REPRESENTATION_CONTEXT(3)
GLOBAL_UNCERTAINTY_ASSIGNED_CONTEXT((#419))
GLOBAL_UNIT_ASSIGNED_CONTEXT((#422,#424,#425))
REPRESENTATION_CONTEXT('','3D')
);
#422=(
LENGTH_UNIT()
NAMED_UNIT(*)
SI_UNIT(.MILLI.,.METRE.)
);
#423=(
LENGTH_UNIT()
NAMED_UNIT(*)
SI_UNIT(.CENTI.,.METRE.)
);
#424=(
NAMED_UNIT(*)
PLANE_ANGLE_UNIT()
SI_UNIT($,.RADIAN.)
);
#425=(
NAMED_UNIT(*)
SI_UNIT($,.STERADIAN.)
SOLID_ANGLE_UNIT()
);
#426=SHAPE_DEFINITION_REPRESENTATION(#427,#428);
#427=PRODUCT_DEFINITION_SHAPE('',$,#430);
#428=SHAPE_REPRESENTATION('',(#246),#420);
#429=PRODUCT_DEFINITION_CONTEXT('part definition',#434,'design');
#430=PRODUCT_DEFINITION('CVCG_CXC','CVCG_CXC_10',#431,#429);
#431=PRODUCT_DEFINITION_FORMATION('',$,#436);
#432=PRODUCT_RELATED_PRODUCT_CATEGORY('CVCG_CXC_10','CVCG_CXC_10',(#436));
#433=APPLICATION_PROTOCOL_DEFINITION('international standard',
'automotive_design',2009,#434);
#434=APPLICATION_CONTEXT(
'Core Data for Automotive Mechanical Design Process');
#435=PRODUCT_CONTEXT('part definition',#434,'mechanical');
#436=PRODUCT('CVCG_CXC','CVCG_CXC_10',$,(#435));
#437=PRESENTATION_STYLE_ASSIGNMENT((#438));
#438=SURFACE_STYLE_USAGE(.BOTH.,#441);
#439=SURFACE_STYLE_RENDERING_WITH_PROPERTIES($,#445,(#440));
#440=SURFACE_STYLE_TRANSPARENT(0.);
#441=SURFACE_SIDE_STYLE('',(#442,#439));
#442=SURFACE_STYLE_FILL_AREA(#443);
#443=FILL_AREA_STYLE('',(#444));
#444=FILL_AREA_STYLE_COLOUR('',#445);
#445=COLOUR_RGB('',0.749019607843137,0.749019607843137,0.749019607843137);
ENDSEC;
END-ISO-10303-21;
