  0
SECTION
  2
HEADER
  9
$ACADVER
  1
AC1015
  9
$ACADMAINTVER
 70
    14
  9
$DWGCODEPAGE
  3
ANSI_932
  9
$INSBASE
 10
0.0
 20
0.0
 30
0.0
  9
$EXTMIN
 10
449.5122677187246
 20
68.18881418029992
 30
-0.0000000349181948
  9
$EXTMAX
 10
1016.041747174633
 20
830.970320222179
 30
0.0000000814935746
  9
$LIMMIN
 10
-580.5701293945312
 20
0.0
  9
$LIMMAX
 10
0.0
 20
407.8999938964844
  9
$ORTHOMODE
 70
     0
  9
$REGENMODE
 70
     1
  9
$FILLMODE
 70
     1
  9
$QTEXTMODE
 70
     0
  9
$MIRRTEXT
 70
     1
  9
$LTSCALE
 40
1.0
  9
$ATTMODE
 70
     1
  9
$TEXTSIZE
 40
0.2
  9
$TRACEWID
 40
0.05
  9
$TEXTSTYLE
  7
STANDARD
  9
$CLAYER
  8
0
  9
$CELTYPE
  6
CONTINUOUS
  9
$CECOLOR
 62
   256
  9
$CELTSCALE
 40
1.0
  9
$DISPSILH
 70
     0
  9
$DIMSCALE
 40
1.0
  9
$DIMASZ
 40
1.0
  9
$DIMEXO
 40
2.54
  9
$DIMDLI
 40
0.38
  9
$DIMRND
 40
0.0
  9
$DIMDLE
 40
0.0
  9
$DIMEXE
 40
2.54
  9
$DIMTP
 40
0.0
  9
$DIMTM
 40
0.0
  9
$DIMTXT
 40
3.200000047683714
  9
$DIMCEN
 40
0.09
  9
$DIMTSZ
 40
0.0
  9
$DIMTOL
 70
     0
  9
$DIMLIM
 70
     0
  9
$DIMTIH
 70
     0
  9
$DIMTOH
 70
     0
  9
$DIMSE1
 70
     0
  9
$DIMSE2
 70
     0
  9
$DIMTAD
 70
     1
  9
$DIMZIN
 70
     0
  9
$DIMBLK
  1

  9
$DIMASO
 70
     1
  9
$DIMSHO
 70
     0
  9
$DIMPOST
  1

  9
$DIMAPOST
  1

  9
$DIMALT
 70
     0
  9
$DIMALTD
 70
     2
  9
$DIMALTF
 40
25.4
  9
$DIMLFAC
 40
1.0
  9
$DIMTOFL
 70
     0
  9
$DIMTVP
 40
1.0
  9
$DIMTIX
 70
     0
  9
$DIMSOXD
 70
     0
  9
$DIMSAH
 70
     1
  9
$DIMBLK1
  1

  9
$DIMBLK2
  1

  9
$DIMSTYLE
  2
STANDARD
  9
$DIMCLRD
 70
     0
  9
$DIMCLRE
 70
     0
  9
$DIMCLRT
 70
     0
  9
$DIMTFAC
 40
1.0
  9
$DIMGAP
 40
1.600000023841857
  9
$DIMJUST
 70
     0
  9
$DIMSD1
 70
     0
  9
$DIMSD2
 70
     0
  9
$DIMTOLJ
 70
     1
  9
$DIMTZIN
 70
     0
  9
$DIMALTZ
 70
     0
  9
$DIMALTTZ
 70
     0
  9
$DIMUPT
 70
     0
  9
$DIMDEC
 70
     4
  9
$DIMTDEC
 70
     4
  9
$DIMALTU
 70
     2
  9
$DIMALTTD
 70
     2
  9
$DIMTXSTY
  7
STANDARD
  9
$DIMAUNIT
 70
     0
  9
$DIMADEC
 70
     0
  9
$DIMALTRND
 40
0.0
  9
$DIMAZIN
 70
     0
  9
$DIMDSEP
 70
    46
  9
$DIMATFIT
 70
     3
  9
$DIMFRAC
 70
     0
  9
$DIMLDRBLK
  1

  9
$DIMLUNIT
 70
     2
  9
$DIMLWD
 70
    -2
  9
$DIMLWE
 70
    -2
  9
$DIMTMOVE
 70
     0
  9
$LUNITS
 70
     2
  9
$LUPREC
 70
     4
  9
$SKETCHINC
 40
0.1
  9
$FILLETRAD
 40
0.0
  9
$AUNITS
 70
     0
  9
$AUPREC
 70
     0
  9
$MENU
  1
.
  9
$ELEVATION
 40
0.0
  9
$PELEVATION
 40
0.0
  9
$THICKNESS
 40
0.0
  9
$LIMCHECK
 70
     0
  9
$CHAMFERA
 40
0.0
  9
$CHAMFERB
 40
0.0
  9
$CHAMFERC
 40
0.0
  9
$CHAMFERD
 40
0.0
  9
$SKPOLY
 70
     0
  9
$TDCREATE
 40
2452717.604314595
  9
$TDUCREATE
 40
2452717.229314595
  9
$TDUPDATE
 40
2456899.681971829
  9
$TDUUPDATE
 40
2456899.306971829
  9
$TDINDWG
 40
0.0942049653
  9
$TDUSRTIMER
 40
0.0942049653
  9
$USRTIMER
 70
     1
  9
$ANGBASE
 50
0.0
  9
$ANGDIR
 70
     0
  9
$PDMODE
 70
     0
  9
$PDSIZE
 40
0.0
  9
$PLINEWID
 40
0.0
  9
$SPLFRAME
 70
     0
  9
$SPLINETYPE
 70
     6
  9
$SPLINESEGS
 70
     8
  9
$HANDSEED
  5
26D0
  9
$SURFTAB1
 70
     6
  9
$SURFTAB2
 70
     6
  9
$SURFTYPE
 70
     6
  9
$SURFU
 70
     6
  9
$SURFV
 70
     6
  9
$UCSBASE
  2

  9
$UCSNAME
  2

  9
$UCSORG
 10
0.0
 20
0.0
 30
0.0
  9
$UCSXDIR
 10
1.0
 20
0.0
 30
0.0
  9
$UCSYDIR
 10
0.0
 20
1.0
 30
0.0
  9
$UCSORTHOREF
  2

  9
$UCSORTHOVIEW
 70
     0
  9
$UCSORGTOP
 10
0.0
 20
0.0
 30
0.0
  9
$UCSORGBOTTOM
 10
0.0
 20
0.0
 30
0.0
  9
$UCSORGLEFT
 10
0.0
 20
0.0
 30
0.0
  9
$UCSORGRIGHT
 10
0.0
 20
0.0
 30
0.0
  9
$UCSORGFRONT
 10
0.0
 20
0.0
 30
0.0
  9
$UCSORGBACK
 10
0.0
 20
0.0
 30
0.0
  9
$PUCSBASE
  2

  9
$PUCSNAME
  2

  9
$PUCSORG
 10
0.0
 20
0.0
 30
0.0
  9
$PUCSXDIR
 10
1.0
 20
0.0
 30
0.0
  9
$PUCSYDIR
 10
0.0
 20
1.0
 30
0.0
  9
$PUCSORTHOREF
  2

  9
$PUCSORTHOVIEW
 70
     0
  9
$PUCSORGTOP
 10
0.0
 20
0.0
 30
0.0
  9
$PUCSORGBOTTOM
 10
0.0
 20
0.0
 30
0.0
  9
$PUCSORGLEFT
 10
0.0
 20
0.0
 30
0.0
  9
$PUCSORGRIGHT
 10
0.0
 20
0.0
 30
0.0
  9
$PUCSORGFRONT
 10
0.0
 20
0.0
 30
0.0
  9
$PUCSORGBACK
 10
0.0
 20
0.0
 30
0.0
  9
$USERI1
 70
     0
  9
$USERI2
 70
     0
  9
$USERI3
 70
     0
  9
$USERI4
 70
     0
  9
$USERI5
 70
     0
  9
$USERR1
 40
0.0
  9
$USERR2
 40
0.0
  9
$USERR3
 40
0.0
  9
$USERR4
 40
0.0
  9
$USERR5
 40
0.0
  9
$WORLDVIEW
 70
     1
  9
$SHADEDGE
 70
     3
  9
$SHADEDIF
 70
    70
  9
$TILEMODE
 70
     1
  9
$MAXACTVP
 70
    48
  9
$PINSBASE
 10
0.0
 20
0.0
 30
0.0
  9
$PLIMCHECK
 70
     0
  9
$PEXTMIN
 10
-580.5701293945312
 20
0.0
 30
0.0
  9
$PEXTMAX
 10
0.0
 20
407.8999938964844
 30
0.0
  9
$PLIMMIN
 10
-580.5701293945312
 20
0.0
  9
$PLIMMAX
 10
0.0
 20
407.8999938964844
  9
$UNITMODE
 70
     0
  9
$VISRETAIN
 70
     1
  9
$PLINEGEN
 70
     0
  9
$PSLTSCALE
 70
     1
  9
$TREEDEPTH
 70
  3020
  9
$CMLSTYLE
  2
Standard
  9
$CMLJUST
 70
     0
  9
$CMLSCALE
 40
1.0
  9
$PROXYGRAPHICS
 70
     1
  9
$MEASUREMENT
 70
     0
  9
$CELWEIGHT
370
    -1
  9
$ENDCAPS
280
     0
  9
$JOINSTYLE
280
     0
  9
$LWDISPLAY
290
     0
  9
$INSUNITS
 70
     0
  9
$HYPERLINKBASE
  1

  9
$STYLESHEET
  1

  9
$XEDIT
290
     1
  9
$CEPSNTYPE
380
     0
  9
$PSTYLEMODE
290
     1
  9
$FINGERPRINTGUID
  2
{5F866C76-9078-49DB-8E7F-54BC0EE427F2}
  9
$VERSIONGUID
  2
{23B33CCC-6FC3-4C70-BACA-11A75F2A0136}
  9
$EXTNAMES
290
     1
  9
$PSVPSCALE
 40
0.0
  9
$OLESTARTUP
290
     0
  0
ENDSEC
  0
SECTION
  2
CLASSES
  0
CLASS
  1
ACDBDICTIONARYWDFLT
  2
AcDbDictionaryWithDefault
  3
AutoCAD 2000
 90
        0
280
     0
281
     0
  0
CLASS
  1
ACDBPLACEHOLDER
  2
AcDbPlaceHolder
  3
AutoCAD 2000
 90
        0
280
     0
281
     0
  0
CLASS
  1
LAYOUT
  2
AcDbLayout
  3
AutoCAD 2000
 90
        0
280
     0
281
     0
  0
CLASS
  1
DICTIONARYVAR
  2
AcDbDictionaryVar
  3
AutoCAD 2000
 90
        0
280
     0
281
     0
  0
CLASS
  1
LONG_TRANSACTION
  2
AcDbLongTransaction
  3
AutoCAD 2000
 90
    32768
280
     0
281
     0
  0
CLASS
  1
LWPOLYLINE
  2
AcDbPolyline
  3
AutoCAD 2000
 90
    32768
280
     0
281
     1
  0
CLASS
  1
HATCH
  2
AcDbHatch
  3
AutoCAD 2000
 90
    32768
280
     0
281
     1
  0
CLASS
  1
XRECORD
  2
AcDbXrecord
  3
AutoCAD 2000
 90
    32768
280
     0
281
     0
  0
ENDSEC
  0
SECTION
  2
TABLES
  0
TABLE
  2
VPORT
  5
2657
330
0
100
AcDbSymbolTable
 70
     2
  0
VPORT
  5
26CF
330
2657
100
AcDbSymbolTableRecord
100
AcDbViewportTableRecord
  2
*Active
 70
     0
 10
0.0
 20
0.0
 11
1.0
 21
1.0
 12
732.7770074466789
 22
449.5795672012394
 13
0.0
 23
0.0
 14
1.0
 24
1.0
 15
0.0
 25
0.0
 16
0.0
 26
0.0
 36
1.0
 17
0.0
 27
0.0
 37
0.0
 40
767.6245632230973
 41
1.592161016949152
 42
50.0
 43
0.0
 44
0.0
 50
0.0
 51
0.0
 71
     0
 72
   100
 73
     1
 74
     3
 75
     0
 76
     0
 77
     0
 78
     0
281
     0
 65
     1
110
0.0
120
0.0
130
0.0
111
1.0
121
0.0
131
0.0
112
0.0
122
1.0
132
0.0
 79
     0
146
0.0
  0
ENDTAB
  0
TABLE
  2
LTYPE
  5
2654
330
0
100
AcDbSymbolTable
 70
     2
  0
LTYPE
  5
2662
330
2654
100
AcDbSymbolTableRecord
100
AcDbLinetypeTableRecord
  2
ByBlock
 70
     0
  3

 72
    65
 73
     0
 40
0.0
  0
LTYPE
  5
2663
330
2654
100
AcDbSymbolTableRecord
100
AcDbLinetypeTableRecord
  2
ByLayer
 70
     0
  3

 72
    65
 73
     0
 40
0.0
  0
LTYPE
  5
2664
330
2654
100
AcDbSymbolTableRecord
100
AcDbLinetypeTableRecord
  2
CONTINUOUS
 70
     0
  3
Solid line
 72
    65
 73
     0
 40
0.0
  0
LTYPE
  5
26B9
330
2654
100
AcDbSymbolTableRecord
100
AcDbLinetypeTableRecord
  2
CENTER
 70
     0
  3
__ . __
 72
    65
 73
     4
 40
7.0
 49
4.0
 74
     0
 49
-1.0
 74
     0
 49
1.0
 74
     0
 49
-1.0
 74
     0
  0
ENDTAB
  0
TABLE
  2
LAYER
  5
2651
102
{ACAD_XDICTIONARY
360
26BA
102
}
330
0
100
AcDbSymbolTable
 70
     2
  0
LAYER
  5
265F
330
2651
100
AcDbSymbolTableRecord
100
AcDbLayerTableRecord
  2
0
 70
     0
 62
     7
  6
CONTINUOUS
370
    -3
390
265E
  0
LAYER
  5
2672
330
2651
100
AcDbSymbolTableRecord
100
AcDbLayerTableRecord
  2
DEFPOINTS
 70
     0
 62
     7
  6
CONTINUOUS
290
     0
370
    -3
390
265E
  0
ENDTAB
  0
TABLE
  2
STYLE
  5
2652
330
0
100
AcDbSymbolTable
 70
     1
  0
STYLE
  5
2660
330
2652
100
AcDbSymbolTableRecord
100
AcDbTextStyleTableRecord
  2
STANDARD
 70
     0
 40
0.0
 41
1.0
 50
0.0
 71
     0
 42
0.2
  3
txt
  4
BIGFONT
  0
ENDTAB
  0
TABLE
  2
VIEW
  5
2655
330
0
100
AcDbSymbolTable
 70
     0
  0
ENDTAB
  0
TABLE
  2
UCS
  5
2656
330
0
100
AcDbSymbolTable
 70
     0
  0
ENDTAB
  0
TABLE
  2
APPID
  5
2658
330
0
100
AcDbSymbolTable
 70
     4
  0
APPID
  5
2661
330
2658
100
AcDbSymbolTableRecord
100
AcDbRegAppTableRecord
  2
ACAD
 70
     0
  0
APPID
  5
2673
330
2658
100
AcDbSymbolTableRecord
100
AcDbRegAppTableRecord
  2
MCAD_NO_VIS
 70
     0
  0
APPID
  5
2674
330
2658
100
AcDbSymbolTableRecord
100
AcDbRegAppTableRecord
  2
ACAD_TEMP_GRAPHIC
 70
     0
  0
APPID
  5
2675
330
2658
100
AcDbSymbolTableRecord
100
AcDbRegAppTableRecord
  2
ACATTRIBSERVICES
 70
     0
  0
ENDTAB
  0
TABLE
  2
DIMSTYLE
  5
2659
330
0
100
AcDbSymbolTable
 70
     1
100
AcDbDimStyleTable
 71
     0
  0
DIMSTYLE
105
2676
330
2659
100
AcDbSymbolTableRecord
100
AcDbDimStyleTableRecord
  2
STANDARD
 70
     0
279
     2
340
2660
  0
ENDTAB
  0
TABLE
  2
BLOCK_RECORD
  5
2650
330
0
100
AcDbSymbolTable
 70
     2
  0
BLOCK_RECORD
  5
266D
102
{ACAD_XDICTIONARY
360
267F
102
}
330
2650
100
AcDbSymbolTableRecord
100
AcDbBlockTableRecord
  2
*Model_Space
340
2670
  0
BLOCK_RECORD
  5
2669
102
{ACAD_XDICTIONARY
360
2681
102
}
330
2650
100
AcDbSymbolTableRecord
100
AcDbBlockTableRecord
  2
*Paper_Space
340
266C
  0
BLOCK_RECORD
  5
2679
330
2650
100
AcDbSymbolTableRecord
100
AcDbBlockTableRecord
  2
$MODEL_SPACE
340
0
  0
BLOCK_RECORD
  5
267B
330
2650
100
AcDbSymbolTableRecord
100
AcDbBlockTableRecord
  2
$PAPER_SPACE
340
0
  0
ENDTAB
  0
ENDSEC
  0
SECTION
  2
BLOCKS
  0
BLOCK
  5
266E
330
266D
100
AcDbEntity
  8
0
100
AcDbBlockBegin
  2
*Model_Space
 70
     0
 10
0.0
 20
0.0
 30
0.0
  3
*Model_Space
  1

  0
ENDBLK
  5
266F
330
266D
100
AcDbEntity
  8
0
100
AcDbBlockEnd
  0
BLOCK
  5
266A
330
2669
100
AcDbEntity
 67
     1
  8
0
100
AcDbBlockBegin
  2
*Paper_Space
 70
     0
 10
0.0
 20
0.0
 30
0.0
  3
*Paper_Space
  1

  0
ENDBLK
  5
266B
330
2669
100
AcDbEntity
 67
     1
  8
0
100
AcDbBlockEnd
  0
BLOCK
  5
267A
330
2679
100
AcDbEntity
  8
0
100
AcDbBlockBegin
  2
$MODEL_SPACE
 70
     0
 10
0.0
 20
0.0
 30
0.0
  3
$MODEL_SPACE
  1

  0
ENDBLK
  5
25C7
330
2679
100
AcDbEntity
  8
0
100
AcDbBlockEnd
  0
BLOCK
  5
267C
330
267B
100
AcDbEntity
  8
0
100
AcDbBlockBegin
  2
$PAPER_SPACE
 70
     0
 10
0.0
 20
0.0
 30
0.0
  3
$PAPER_SPACE
  1

  0
ENDBLK
  5
25C3
330
267B
100
AcDbEntity
  8
0
100
AcDbBlockEnd
  0
ENDSEC
  0
SECTION
  2
ENTITIES
  0
LINE
  5
1484
330
266D
100
AcDbEntity
  8
0
100
AcDbLine
 10
714.8890161916847
 20
263.7045111470502
 30
0.0
 11
714.889019731132
 21
277.5062079243932
 31
0.0
  0
LINE
  5
1494
330
266D
100
AcDbEntity
  8
0
100
AcDbLine
 10
752.8890161916846
 20
263.7045062744973
 30
0.0
 11
714.8890161916838
 21
263.7045062744973
 31
0.0
  0
LINE
  5
150A
330
266D
100
AcDbEntity
  8
0
100
AcDbLine
 10
752.8890161916838
 20
263.7045014019443
 30
0.0
 11
752.8890197311302
 21
277.5061981792879
 31
0.0
  0
LINE
  5
153D
330
266D
100
AcDbEntity
  8
0
100
AcDbLine
 10
755.3890552494822
 20
356.506197538156
 30
0.0
 11
712.3890399906936
 21
356.5062085655158
 31
0.0
  0
LINE
  5
1540
330
266D
100
AcDbEntity
  8
0
100
AcDbLine
 10
755.3890547365815
 20
354.506197538156
 30
0.0
 11
711.8890547365822
 21
354.506208693738
 31
0.0
  0
LINE
  5
1542
330
266D
100
AcDbEntity
  8
0
100
AcDbLine
 10
711.8890349899215
 20
277.50620869374
 30
0.0
 11
711.8890547365822
 21
354.506208693738
 31
0.0
  0
LINE
  5
1545
330
266D
100
AcDbEntity
  8
0
100
AcDbLine
 10
755.8890197311302
 20
277.5061974099374
 30
0.0
 11
711.8890349899215
 21
277.50620869374
 31
0.0
  0
LINE
  5
1546
330
266D
100
AcDbEntity
  8
0
100
AcDbLine
 10
711.8890530696529
 20
348.0061934349492
 30
0.0
 11
700.8890530696529
 21
348.0061962559001
 31
0.0
  0
LINE
  5
1547
330
266D
100
AcDbEntity
  8
0
100
AcDbLine
 10
711.889049222902
 20
333.0061934349491
 30
0.0
 11
700.889049222902
 21
333.0061962559012
 31
0.0
  0
LINE
  5
1551
330
266D
100
AcDbEntity
  8
0
100
AcDbLine
 10
696.389034861696
 20
336.5062279275081
 30
0.0
 11
700.889050120485
 21
336.5062267734792
 31
0.0
  0
LINE
  5
1552
330
266D
100
AcDbEntity
  8
0
100
AcDbLine
 10
696.3890369132887
 20
344.50619740993
 30
0.0
 11
700.8890521720777
 21
344.5061962559002
 31
0.0
  0
LINE
  5
1553
330
266D
100
AcDbEntity
  8
0
100
AcDbLine
 10
696.389034861696
 20
336.5062279275081
 30
0.0
 11
696.3890369132887
 21
344.50619740993
 31
0.0
  0
LINE
  5
1558
330
266D
100
AcDbEntity
  8
0
100
AcDbLine
 10
700.889049222902
 20
333.0061962559012
 30
0.0
 11
700.8890530696529
 21
348.0061962559001
 31
0.0
  0
LINE
  5
1562
330
266D
100
AcDbEntity
  8
0
100
AcDbLine
 10
712.3890394777936
 20
354.5062085655168
 30
0.0
 11
712.3890399906936
 21
356.5062085655158
 31
0.0
  0
LINE
  5
156C
330
266D
100
AcDbEntity
  8
0
100
AcDbLine
 10
725.8890412729439
 20
361.5062051034401
 30
0.0
 11
725.889039990693
 21
356.506205103439
 31
0.0
  0
LINE
  5
1571
330
266D
100
AcDbEntity
  8
0
100
AcDbLine
 10
741.8890412729439
 20
361.5062010002369
 30
0.0
 11
725.8890412729439
 21
361.5062051034401
 31
0.0
  0
LINE
  5
1575
330
266D
100
AcDbEntity
  8
0
100
AcDbLine
 10
821.8890223396646
 20
347.1779127015834
 30
0.0
 11
821.8890430680858
 21
428.006180484226
 31
0.0
  0
LINE
  5
1576
330
266D
100
AcDbEntity
  8
0
100
AcDbLine
 10
804.8890546083502
 20
354.0061695850847
 30
0.0
 11
804.8890728163142
 21
425.0061848438709
 31
0.0
  0
LINE
  5
1579
330
266D
100
AcDbEntity
  8
0
100
AcDbLine
 10
821.8890223396646
 20
347.1779127015834
 30
0.0
 11
755.8890374274898
 21
346.5112630923978
 31
0.0
  0
LINE
  5
157A
330
266D
100
AcDbEntity
  8
0
100
AcDbLine
 10
812.3890240907719
 20
354.0061676617161
 30
0.0
 11
755.3890546083529
 21
354.006182279367
 31
0.0
  0
LINE
  5
157B
330
266D
100
AcDbEntity
  8
0
100
AcDbLine
 10
755.8890197311302
 20
277.5061974099374
 30
0.0
 11
755.8890374274898
 21
346.5112630923978
 31
0.0
  0
LINE
  5
1583
330
266D
100
AcDbEntity
  8
0
100
AcDbLine
 10
741.8890412729439
 20
361.5062010002369
 30
0.0
 11
741.889039990693
 21
356.5062010002369
 31
0.0
  0
LINE
  5
1589
330
266D
100
AcDbEntity
  8
0
100
AcDbLine
 10
755.3890546083529
 20
354.006182279367
 30
0.0
 11
755.3890552494822
 21
356.506197538156
 31
0.0
  0
LINE
  5
1592
330
266D
100
AcDbEntity
  8
0
100
AcDbLine
 10
821.8890243472218
 20
355.0061652254398
 30
0.0
 11
804.8890548648005
 21
355.0061695850847
 31
0.0
  0
ARC
  5
159C
330
266D
100
AcDbEntity
  8
0
100
AcDbCircle
 10
807.8890728163139
 20
425.006184074522
 30
0.0
 40
3.0
100
AcDbArc
 50
89.99998280202019
 51
179.9999878109705
  0
LINE
  5
15A0
330
266D
100
AcDbEntity
  8
0
100
AcDbLine
 10
821.8890430680858
 20
428.006180484226
 30
0.0
 11
807.8890735856646
 21
428.0061840745211
 31
0.0
  0
LINE
  5
15A3
330
266D
100
AcDbEntity
  8
0
100
AcDbLine
 10
794.3890179947246
 20
246.2045057529574
 30
0.0
 11
794.3890179947246
 21
263.7045062744973
 31
0.0
  0
LINE
  5
15A4
330
266D
100
AcDbEntity
  8
0
100
AcDbLine
 10
773.8889143225101
 20
174.4544754961491
 30
0.0
 11
765.6390009328944
 21
169.691385694375
 31
0.0
  0
LINE
  5
15A5
330
266D
100
AcDbEntity
  8
0
100
AcDbLine
 10
693.8889877838028
 20
174.4544754961491
 30
0.0
 11
702.1390085622897
 21
169.69132369338
 31
0.0
  0
LINE
  5
15A6
330
266D
100
AcDbEntity
  8
0
100
AcDbLine
 10
780.8890085622897
 20
246.2044907549378
 30
0.0
 11
780.8890085622897
 21
174.4544754961491
 31
0.0
  0
LINE
  5
15A7
330
266D
100
AcDbEntity
  8
0
100
AcDbLine
 10
673.3890143886441
 20
246.2045057529574
 30
0.0
 11
673.3890143886441
 21
263.7045062744973
 31
0.0
  0
LINE
  5
15A8
330
266D
100
AcDbEntity
  8
0
100
AcDbLine
 10
628.8890161916839
 20
250.9544754961491
 30
0.0
 11
631.7389971725437
 21
250.9544754961491
 31
0.0
  0
LINE
  5
15A9
330
266D
100
AcDbEntity
  8
0
100
AcDbLine
 10
631.7389971725437
 20
250.9544754961491
 30
0.0
 11
634.2867833498944
 21
243.9544907549378
 31
0.0
  0
LINE
  5
15AA
330
266D
100
AcDbEntity
  8
0
100
AcDbLine
 10
634.2867833498944
 20
243.9544907549378
 30
0.0
 11
686.8890009328956
 21
243.9544907549378
 31
0.0
  0
LINE
  5
15AB
330
266D
100
AcDbEntity
  8
0
100
AcDbLine
 10
628.8890161916839
 20
173.4544907549378
 30
0.0
 11
631.7390024601778
 21
173.4544907549378
 31
0.0
  0
LINE
  5
15AC
330
266D
100
AcDbEntity
  8
0
100
AcDbLine
 10
631.7390024601778
 20
173.4544907549378
 30
0.0
 11
634.2867886375278
 21
180.4544754961491
 31
0.0
  0
LINE
  5
15AD
330
266D
100
AcDbEntity
  8
0
100
AcDbLine
 10
634.2867886375278
 20
180.4544754961491
 30
0.0
 11
686.8890009328956
 21
180.4544754961491
 31
0.0
  0
LINE
  5
15AE
330
266D
100
AcDbEntity
  8
0
100
AcDbLine
 10
686.8890009328956
 20
246.2045057529574
 30
0.0
 11
686.8890009328956
 21
174.4544754961491
 31
0.0
  0
LINE
  5
15AF
330
266D
100
AcDbEntity
  8
0
100
AcDbLine
 10
628.8890161916839
 20
173.4544907549378
 30
0.0
 11
628.8890161916839
 21
250.9544754961491
 31
0.0
  0
LINE
  5
15B0
330
266D
100
AcDbEntity
  8
0
  6
Continuous
100
AcDbLine
 10
634.2867886375278
 20
180.4544754961491
 30
0.0
 11
634.2867833498944
 21
243.9544907549378
 31
0.0
  0
LINE
  5
15B1
330
266D
100
AcDbEntity
  8
0
100
AcDbLine
 10
686.8890009328956
 20
174.4544754961491
 30
0.0
 11
780.8890085622897
 21
174.4544754961491
 31
0.0
  0
LINE
  5
15B2
330
266D
100
AcDbEntity
  8
0
100
AcDbLine
 10
772.6390085622897
 20
110.0544679884374
 30
0.0
 11
765.6390009328944
 21
112.6022624964049
 31
0.0
  0
LINE
  5
15B3
330
266D
100
AcDbEntity
  8
0
100
AcDbLine
 10
772.6390085622897
 20
107.2045060137278
 30
0.0
 11
772.6390085622897
 21
110.0544679884374
 31
0.0
  0
LINE
  5
15B4
330
266D
100
AcDbEntity
  8
0
100
AcDbLine
 10
695.1390009328957
 20
110.0544950801999
 30
0.0
 11
702.1390085622901
 21
112.6022895881678
 31
0.0
  0
LINE
  5
15B5
330
266D
100
AcDbEntity
  8
0
100
AcDbLine
 10
695.1390009328957
 20
107.2045060137278
 30
0.0
 11
695.1390009328957
 21
110.0544950801999
 31
0.0
  0
LINE
  5
15B6
330
266D
100
AcDbEntity
  8
0
  6
Continuous
100
AcDbLine
 10
702.1390085622901
 20
112.6022895881678
 30
0.0
 11
765.6390009328944
 21
112.6022624964049
 31
0.0
  0
LINE
  5
15B7
330
266D
100
AcDbEntity
  8
0
100
AcDbLine
 10
695.1390009328957
 20
107.2045060137278
 30
0.0
 11
772.6390085622897
 21
107.2045060137278
 31
0.0
  0
LINE
  5
15B8
330
266D
100
AcDbEntity
  8
0
100
AcDbLine
 10
765.6390009328944
 20
112.6022624964049
 30
0.0
 11
765.6390009328944
 21
169.691385694375
 31
0.0
  0
LINE
  5
15B9
330
266D
100
AcDbEntity
  8
0
100
AcDbLine
 10
702.1390085622901
 20
112.6022895881678
 30
0.0
 11
702.1390085622897
 21
169.69132369338
 31
0.0
  0
LINE
  5
15BC
330
266D
100
AcDbEntity
  8
0
100
AcDbLine
 10
794.3890179947246
 20
263.7045062744973
 30
0.0
 11
673.3890143886441
 21
263.7045062744973
 31
0.0
  0
LINE
  5
15BD
330
266D
100
AcDbEntity
  8
0
100
AcDbLine
 10
794.3890179947246
 20
246.2045057529574
 30
0.0
 11
673.3890143886441
 21
246.2045057529574
 31
0.0
  0
LINE
  5
2043
330
266D
100
AcDbEntity
  8
0
  6
Continuous
 62
     7
100
AcDbLine
 10
813.3890848562346
 20
582.7096763083366
 30
0.0
 11
766.8548899099464
 21
582.7096763083366
 31
0.0
  0
LINE
  5
2044
330
266D
100
AcDbEntity
  8
0
  6
Continuous
 62
     7
100
AcDbLine
 10
813.3890848562346
 20
599.7096915671257
 30
0.0
 11
766.8548899099464
 21
599.7096915671257
 31
0.0
  0
CIRCLE
  5
2045
330
266D
100
AcDbEntity
  8
0
  6
Continuous
 62
     7
100
AcDbCircle
 10
813.388947527134
 20
591.2097526022812
 30
0.0
 40
8.499999761581419
  0
CIRCLE
  5
2046
330
266D
100
AcDbEntity
  8
0
  6
Continuous
 62
     7
100
AcDbCircle
 10
733.8890161916838
 20
591.2097526022812
 30
0.0
 40
22.00000047683715
  0
CIRCLE
  5
2047
330
266D
100
AcDbEntity
  8
0
  6
Continuous
 62
     7
100
AcDbCircle
 10
733.8890161916838
 20
605.2096763083359
 30
0.0
 40
4.500000134110448
  0
ARC
  5
2048
330
266D
100
AcDbEntity
  8
0
  6
Continuous
 62
     7
100
AcDbCircle
 10
766.8548670217627
 20
624.7096763083359
 30
0.0
 40
25.0000019073486
100
AcDbArc
 50
225.4604149695246
 51
270.0
  0
ARC
  5
2049
330
266D
100
AcDbEntity
  8
0
  6
Continuous
 62
     7
100
AcDbCircle
 10
766.8548670217627
 20
557.7096915671249
 30
0.0
 40
25.0000019073486
100
AcDbArc
 50
89.99997768819374
 51
134.5395593035806
  0
CIRCLE
  5
204A
330
266D
100
AcDbEntity
  8
0
  6
Continuous
 62
     7
100
AcDbCircle
 10
733.8890161916838
 20
577.2096915671259
 30
0.0
 40
4.500000134110448
  0
CIRCLE
  5
204B
330
266D
100
AcDbEntity
  8
0
  6
Continuous
 62
     7
100
AcDbCircle
 10
733.8890161916838
 20
591.2097526022812
 30
0.0
 40
5.500000119209287
  0
LINE
  5
2051
330
266D
100
AcDbEntity
  8
0
  6
Continuous
 62
     7
100
AcDbLine
 10
713.597423746094
 20
582.7096763083366
 30
0.0
 11
700.8890161916847
 21
582.7096763083359
 31
0.0
  0
LINE
  5
2052
330
266D
100
AcDbEntity
  8
0
  6
Continuous
 62
     7
100
AcDbLine
 10
713.5973662199663
 20
599.7096915671265
 30
0.0
 11
700.8890161916847
 21
599.7096915671257
 31
0.0
  0
LINE
  5
2053
330
266D
100
AcDbEntity
  8
0
  6
Continuous
 62
     7
100
AcDbLine
 10
698.3889856741057
 20
595.2095542380236
 30
0.0
 11
698.3889856741057
 21
587.2095389792344
 31
0.0
  0
LINE
  5
2054
330
266D
100
AcDbEntity
  8
0
  6
Continuous
 62
     7
100
AcDbLine
 10
700.8890161916847
 20
599.7096915671257
 30
0.0
 11
700.8890161916847
 21
582.7096763083359
 31
0.0
  0
LINE
  5
2055
330
266D
100
AcDbEntity
  8
0
  6
Continuous
 62
     7
100
AcDbLine
 10
700.8890161916847
 20
587.2096763083366
 30
0.0
 11
698.3889856741057
 21
587.2096763083366
 31
0.0
  0
LINE
  5
2056
330
266D
100
AcDbEntity
  8
0
  6
Continuous
 62
     7
100
AcDbLine
 10
700.8890161916847
 20
595.2096915671257
 30
0.0
 11
698.3889856741057
 21
595.2096915671257
 31
0.0
  0
ARC
  5
206B
330
266D
100
AcDbEntity
  8
0
  6
Continuous
100
AcDbCircle
 10
733.8890161916838
 20
591.2097526022812
 30
0.0
 40
60.5000018030405
100
AcDbArc
 50
8.076482360849189
 51
351.9233862804067
  0
LINE
  5
2086
330
266D
100
AcDbEntity
  8
0
  6
Continuous
100
AcDbLine
 10
634.2867886375278
 20
559.4597449728869
 30
0.0
 11
634.2867833498944
 21
622.9597602316752
 31
0.0
  0
LINE
  5
2087
330
266D
100
AcDbEntity
  8
0
100
AcDbLine
 10
628.8890161916839
 20
552.4597602316758
 30
0.0
 11
628.8890161916839
 21
629.9597449728866
 31
0.0
  0
LINE
  5
2088
330
266D
100
AcDbEntity
  8
0
100
AcDbLine
 10
631.7390024601778
 20
552.4597602316758
 30
0.0
 11
634.2867886375278
 21
559.4597449728869
 31
0.0
  0
LINE
  5
2089
330
266D
100
AcDbEntity
  8
0
100
AcDbLine
 10
628.8890161916839
 20
552.4597602316758
 30
0.0
 11
631.7390024601778
 21
552.4597602316758
 31
0.0
  0
LINE
  5
208A
330
266D
100
AcDbEntity
  8
0
100
AcDbLine
 10
631.7389971725437
 20
629.9597449728866
 30
0.0
 11
634.2867833498944
 21
622.9597602316752
 31
0.0
  0
LINE
  5
208B
330
266D
100
AcDbEntity
  8
0
100
AcDbLine
 10
628.8890161916839
 20
629.9597449728866
 30
0.0
 11
631.7389971725437
 21
629.9597449728866
 31
0.0
  0
LINE
  5
208C
330
266D
100
AcDbEntity
  8
0
100
AcDbLine
 10
634.2867886375278
 20
559.4597449728869
 30
0.0
 11
682.3896255768309
 21
559.4597449728869
 31
0.0
  0
LINE
  5
208D
330
266D
100
AcDbEntity
  8
0
100
AcDbLine
 10
634.2867833498944
 20
622.9597602316752
 30
0.0
 11
682.3896255768309
 21
622.9597602316771
 31
0.0
  0
LINE
  5
2239
330
266D
100
AcDbEntity
  8
0
  6
Continuous
100
AcDbLine
 10
833.4912311355568
 20
180.4544604089207
 30
0.0
 11
833.4912460418435
 21
243.954475667708
 31
0.0
  0
LINE
  5
223A
330
266D
100
AcDbEntity
  8
0
100
AcDbLine
 10
838.8890025210795
 20
173.4544748500828
 30
0.0
 11
838.8890142603752
 21
250.9544595912929
 31
0.0
  0
LINE
  5
223B
330
266D
100
AcDbEntity
  8
0
100
AcDbLine
 10
833.4912311355568
 20
180.4544604089207
 30
0.0
 11
780.8890188401901
 21
180.4544683768309
 31
0.0
  0
LINE
  5
223C
330
266D
100
AcDbEntity
  8
0
100
AcDbLine
 10
836.0390162525868
 20
173.4544752817851
 30
0.0
 11
833.4912311355568
 21
180.4544604089207
 31
0.0
  0
LINE
  5
223D
330
266D
100
AcDbEntity
  8
0
100
AcDbLine
 10
838.8890025210795
 20
173.4544748500828
 30
0.0
 11
836.0390162525868
 21
173.4544752817851
 31
0.0
  0
LINE
  5
223E
330
266D
100
AcDbEntity
  8
0
100
AcDbLine
 10
833.4912460418435
 20
243.954475667708
 30
0.0
 11
780.889028458843
 21
243.95448363562
 31
0.0
  0
LINE
  5
223F
330
266D
100
AcDbEntity
  8
0
100
AcDbLine
 10
836.0390332795155
 20
250.9544600229939
 30
0.0
 11
833.4912460418435
 21
243.954475667708
 31
0.0
  0
LINE
  5
2240
330
266D
100
AcDbEntity
  8
0
100
AcDbLine
 10
838.8890142603752
 20
250.9544595912929
 30
0.0
 11
836.0390332795155
 21
250.9544600229939
 31
0.0
  0
LINE
  5
2241
330
266D
100
AcDbEntity
  8
0
  6
Continuous
100
AcDbLine
 10
833.4913043564855
 20
559.4597298856528
 30
0.0
 11
833.4913192627716
 21
622.9597451444415
 31
0.0
  0
LINE
  5
2242
330
266D
100
AcDbEntity
  8
0
100
AcDbLine
 10
838.8890757420075
 20
552.4597443268156
 30
0.0
 11
838.8890874813039
 21
629.9597290680249
 31
0.0
  0
LINE
  5
2243
330
266D
100
AcDbEntity
  8
0
100
AcDbLine
 10
833.4913043564855
 20
559.4597298856528
 30
0.0
 11
785.3884674171837
 21
559.4597371720218
 31
0.0
  0
LINE
  5
2244
330
266D
100
AcDbEntity
  8
0
100
AcDbLine
 10
836.0390894735159
 20
552.4597447585171
 30
0.0
 11
833.4913043564855
 21
559.4597298856528
 31
0.0
  0
LINE
  5
2245
330
266D
100
AcDbEntity
  8
0
100
AcDbLine
 10
838.8890757420075
 20
552.4597443268156
 30
0.0
 11
836.0390894735159
 21
552.4597447585171
 31
0.0
  0
LINE
  5
2246
330
266D
100
AcDbEntity
  8
0
100
AcDbLine
 10
836.0391065004442
 20
629.9597294997261
 30
0.0
 11
833.4913192627716
 21
622.9597451444415
 31
0.0
  0
LINE
  5
2247
330
266D
100
AcDbEntity
  8
0
100
AcDbLine
 10
833.4913192627716
 20
622.9597451444415
 30
0.0
 11
785.3884770358371
 21
622.9597524308087
 31
0.0
  0
LINE
  5
2248
330
266D
100
AcDbEntity
  8
0
100
AcDbLine
 10
838.8890874813039
 20
629.9597290680249
 30
0.0
 11
836.0391065004442
 21
629.9597294997261
 31
0.0
  0
TEXT
  5
263C
330
266D
100
AcDbEntity
  8
0
  6
Continuous
100
AcDbText
 10
449.5209111447661
 20
782.9195982712425
 30
0.0
 40
48.000002
  1
WTM__ 2.5S
 41
1.32095
100
AcDbText
  0
LINE
  5
26C5
330
266D
100
AcDbEntity
  8
0
  6
CENTER
100
AcDbLine
 10
615.6527053268491
 20
591.2097526022812
 30
0.0
 11
852.1253270565184
 21
591.2097526022812
 31
0.0
  0
LINE
  5
26C7
330
266D
100
AcDbEntity
  8
0
  6
CENTER
100
AcDbLine
 10
733.8890161916838
 20
513.6155757024131
 30
0.0
 11
733.8890161916838
 21
668.8039295021493
 31
0.0
  0
LINE
  5
26C8
330
266D
100
AcDbEntity
  8
0
  6
CENTER
100
AcDbLine
 10
733.8890161916842
 20
68.23547407685191
 30
0.0
 11
733.8890161916842
 21
385.1914453045738
 31
0.0
  0
LINE
  5
26C9
330
266D
100
AcDbEntity
  8
0
  6
CENTER
100
AcDbLine
 10
615.6527053268491
 20
212.2044831255434
 30
0.0
 11
852.1253270565184
 21
212.2044831255434
 31
0.0
  0
ENDSEC
  0
SECTION
  2
OBJECTS
  0
DICTIONARY
  5
265B
330
0
100
AcDbDictionary
281
     1
  3
ACAD_GROUP
350
265C
  3
ACAD_LAYOUT
350
2668
  3
ACAD_MLINESTYLE
350
2665
  3
ACAD_PLOTSETTINGS
350
2667
  3
ACAD_PLOTSTYLENAME
350
265D
  3
AcDbVariableDictionary
350
26B3
  0
DICTIONARY
  5
26BA
330
2651
100
AcDbDictionary
280
     1
281
     1
  3
ACAD_LAYERSTATES
360
26BB
  0
DICTIONARY
  5
267F
330
266D
100
AcDbDictionary
280
     1
281
     1
  3
ACAD_LAYOUTSELFREF
360
26AE
  0
DICTIONARY
  5
2681
330
2669
100
AcDbDictionary
280
     1
281
     1
  3
ACAD_LAYOUTSELFREF
360
26AD
  0
DICTIONARY
  5
265C
102
{ACAD_REACTORS
330
265B
102
}
330
265B
100
AcDbDictionary
281
     1
  0
DICTIONARY
  5
2668
102
{ACAD_REACTORS
330
265B
102
}
330
265B
100
AcDbDictionary
281
     1
  3
Model
350
2670
  3
ﾚｲｱｳﾄ1
350
266C
  0
DICTIONARY
  5
2665
102
{ACAD_REACTORS
330
265B
102
}
330
265B
100
AcDbDictionary
281
     1
  3
Standard
350
2666
  0
DICTIONARY
  5
2667
102
{ACAD_REACTORS
330
265B
102
}
330
265B
100
AcDbDictionary
281
     1
  0
ACDBDICTIONARYWDFLT
  5
265D
102
{ACAD_REACTORS
330
265B
102
}
330
265B
100
AcDbDictionary
281
     1
  3
Normal
350
265E
100
AcDbDictionaryWithDefault
340
265E
  0
DICTIONARY
  5
26B3
102
{ACAD_REACTORS
330
265B
102
}
330
265B
100
AcDbDictionary
281
     1
  3
DIMASSOC
350
26B4
  0
DICTIONARY
  5
26BB
102
{ACAD_REACTORS
330
26BA
102
}
330
26BA
100
AcDbDictionary
281
     1
  0
XRECORD
  5
26AE
102
{ACAD_REACTORS
330
267F
102
}
330
267F
100
AcDbXrecord
280
     1
340
266D
  0
XRECORD
  5
26AD
102
{ACAD_REACTORS
330
2681
102
}
330
2681
100
AcDbXrecord
280
     1
340
2669
  0
LAYOUT
  5
2670
102
{ACAD_REACTORS
330
2668
102
}
330
2668
100
AcDbPlotSettings
  1

  2
SII LP-2150 (D-SCAN C2)
  4

  6

 40
0.0
 41
0.0
 42
0.0
 43
0.0
 44
0.0
 45
0.0
 46
0.0
 47
0.0
 48
0.0
 49
0.0
140
0.0
141
0.0
142
1.0
143
1.0
 70
  1712
 72
     0
 73
     0
 74
     0
  7

 75
     0
147
1.0
148
0.0
149
0.0
100
AcDbLayout
  1
Model
 70
     1
 71
     0
 10
0.0
 20
0.0
 11
12.0
 21
9.0
 12
0.0
 22
0.0
 32
0.0
 14
0.0
 24
0.0
 34
0.0
 15
0.0
 25
0.0
 35
0.0
146
0.0
 13
0.0
 23
0.0
 33
0.0
 16
1.0
 26
0.0
 36
0.0
 17
0.0
 27
1.0
 37
0.0
 76
     0
330
266D
  0
LAYOUT
  5
266C
102
{ACAD_REACTORS
330
2668
102
}
330
2668
100
AcDbPlotSettings
  1

  2
SII LP-2150 (D-SCAN C2)
  4

  6

 40
0.0
 41
0.0
 42
0.0
 43
0.0
 44
0.0
 45
0.0
 46
0.0
 47
0.0
 48
0.0
 49
0.0
140
0.0
141
0.0
142
1.0
143
1.0
 70
   688
 72
     0
 73
     0
 74
     5
  7

 75
    16
147
1.0
148
0.0
149
0.0
100
AcDbLayout
  1
ﾚｲｱｳﾄ1
 70
     1
 71
     1
 10
-580.5701293945312
 20
0.0
 11
0.0
 21
407.8999938964844
 12
0.0
 22
0.0
 32
0.0
 14
-580.5701293945312
 24
0.0
 34
0.0
 15
0.0
 25
407.8999938964844
 35
0.0
146
0.0
 13
0.0
 23
0.0
 33
0.0
 16
1.0
 26
0.0
 36
0.0
 17
0.0
 27
1.0
 37
0.0
 76
     0
330
2669
  0
MLINESTYLE
  5
2666
102
{ACAD_REACTORS
330
2665
102
}
330
2665
100
AcDbMlineStyle
  2
STANDARD
 70
     0
  3

 62
   256
 51
90.0
 52
90.0
 71
     2
 49
0.5
 62
   256
  6
BYLAYER
 49
-0.5
 62
   256
  6
BYLAYER
  0
ACDBPLACEHOLDER
  5
265E
102
{ACAD_REACTORS
330
265D
102
}
330
265D
  0
DICTIONARYVAR
  5
26B4
102
{ACAD_REACTORS
330
26B3
102
}
330
26B3
100
DictionaryVariables
280
     0
  1
1
  0
ENDSEC
  0
EOF
