  0
SECTION
  2
HEADER
  9
$ACADVER
  1
AC1015
  9
$ACADMAINTVER
 70
    14
  9
$DWGCODEPAGE
  3
ANSI_932
  9
$INSBASE
 10
0.0
 20
0.0
 30
0.0
  9
$EXTMIN
 10
335.9523345211627
 20
74.29207449504383
 30
-0.0000000349181948
  9
$EXTMAX
 10
796.8617431942702
 20
748.7242610607349
 30
0.0000000814935746
  9
$LIMMIN
 10
-580.5701293945312
 20
0.0
  9
$LIMMAX
 10
0.0
 20
407.8999938964844
  9
$ORTHOMODE
 70
     0
  9
$REGENMODE
 70
     1
  9
$FILLMODE
 70
     1
  9
$QTEXTMODE
 70
     0
  9
$MIRRTEXT
 70
     1
  9
$LTSCALE
 40
1.0
  9
$ATTMODE
 70
     1
  9
$TEXTSIZE
 40
0.2
  9
$TRACEWID
 40
0.05
  9
$TEXTSTYLE
  7
STANDARD
  9
$CLAYER
  8
0
  9
$CELTYPE
  6
CONTINUOUS
  9
$CECOLOR
 62
   256
  9
$CELTSCALE
 40
1.0
  9
$DISPSILH
 70
     0
  9
$DIMSCALE
 40
1.0
  9
$DIMASZ
 40
1.0
  9
$DIMEXO
 40
2.54
  9
$DIMDLI
 40
0.38
  9
$DIMRND
 40
0.0
  9
$DIMDLE
 40
0.0
  9
$DIMEXE
 40
2.54
  9
$DIMTP
 40
0.0
  9
$DIMTM
 40
0.0
  9
$DIMTXT
 40
3.200000047683714
  9
$DIMCEN
 40
0.09
  9
$DIMTSZ
 40
0.0
  9
$DIMTOL
 70
     0
  9
$DIMLIM
 70
     0
  9
$DIMTIH
 70
     0
  9
$DIMTOH
 70
     0
  9
$DIMSE1
 70
     0
  9
$DIMSE2
 70
     0
  9
$DIMTAD
 70
     1
  9
$DIMZIN
 70
     0
  9
$DIMBLK
  1

  9
$DIMASO
 70
     1
  9
$DIMSHO
 70
     0
  9
$DIMPOST
  1

  9
$DIMAPOST
  1

  9
$DIMALT
 70
     0
  9
$DIMALTD
 70
     2
  9
$DIMALTF
 40
25.4
  9
$DIMLFAC
 40
1.0
  9
$DIMTOFL
 70
     0
  9
$DIMTVP
 40
1.0
  9
$DIMTIX
 70
     0
  9
$DIMSOXD
 70
     0
  9
$DIMSAH
 70
     1
  9
$DIMBLK1
  1

  9
$DIMBLK2
  1

  9
$DIMSTYLE
  2
STANDARD
  9
$DIMCLRD
 70
     0
  9
$DIMCLRE
 70
     0
  9
$DIMCLRT
 70
     0
  9
$DIMTFAC
 40
1.0
  9
$DIMGAP
 40
1.600000023841857
  9
$DIMJUST
 70
     0
  9
$DIMSD1
 70
     0
  9
$DIMSD2
 70
     0
  9
$DIMTOLJ
 70
     1
  9
$DIMTZIN
 70
     0
  9
$DIMALTZ
 70
     0
  9
$DIMALTTZ
 70
     0
  9
$DIMUPT
 70
     0
  9
$DIMDEC
 70
     4
  9
$DIMTDEC
 70
     4
  9
$DIMALTU
 70
     2
  9
$DIMALTTD
 70
     2
  9
$DIMTXSTY
  7
STANDARD
  9
$DIMAUNIT
 70
     0
  9
$DIMADEC
 70
     0
  9
$DIMALTRND
 40
0.0
  9
$DIMAZIN
 70
     0
  9
$DIMDSEP
 70
    46
  9
$DIMATFIT
 70
     3
  9
$DIMFRAC
 70
     0
  9
$DIMLDRBLK
  1

  9
$DIMLUNIT
 70
     2
  9
$DIMLWD
 70
    -2
  9
$DIMLWE
 70
    -2
  9
$DIMTMOVE
 70
     0
  9
$LUNITS
 70
     2
  9
$LUPREC
 70
     4
  9
$SKETCHINC
 40
0.1
  9
$FILLETRAD
 40
0.0
  9
$AUNITS
 70
     0
  9
$AUPREC
 70
     0
  9
$MENU
  1
.
  9
$ELEVATION
 40
0.0
  9
$PELEVATION
 40
0.0
  9
$THICKNESS
 40
0.0
  9
$LIMCHECK
 70
     0
  9
$CHAMFERA
 40
0.0
  9
$CHAMFERB
 40
0.0
  9
$CHAMFERC
 40
0.0
  9
$CHAMFERD
 40
0.0
  9
$SKPOLY
 70
     0
  9
$TDCREATE
 40
2452717.604314595
  9
$TDUCREATE
 40
2452717.229314595
  9
$TDUPDATE
 40
2456899.682012882
  9
$TDUUPDATE
 40
2456899.307012882
  9
$TDINDWG
 40
0.0943855787
  9
$TDUSRTIMER
 40
0.0943855787
  9
$USRTIMER
 70
     1
  9
$ANGBASE
 50
0.0
  9
$ANGDIR
 70
     0
  9
$PDMODE
 70
     0
  9
$PDSIZE
 40
0.0
  9
$PLINEWID
 40
0.0
  9
$SPLFRAME
 70
     0
  9
$SPLINETYPE
 70
     6
  9
$SPLINESEGS
 70
     8
  9
$HANDSEED
  5
26D0
  9
$SURFTAB1
 70
     6
  9
$SURFTAB2
 70
     6
  9
$SURFTYPE
 70
     6
  9
$SURFU
 70
     6
  9
$SURFV
 70
     6
  9
$UCSBASE
  2

  9
$UCSNAME
  2

  9
$UCSORG
 10
0.0
 20
0.0
 30
0.0
  9
$UCSXDIR
 10
1.0
 20
0.0
 30
0.0
  9
$UCSYDIR
 10
0.0
 20
1.0
 30
0.0
  9
$UCSORTHOREF
  2

  9
$UCSORTHOVIEW
 70
     0
  9
$UCSORGTOP
 10
0.0
 20
0.0
 30
0.0
  9
$UCSORGBOTTOM
 10
0.0
 20
0.0
 30
0.0
  9
$UCSORGLEFT
 10
0.0
 20
0.0
 30
0.0
  9
$UCSORGRIGHT
 10
0.0
 20
0.0
 30
0.0
  9
$UCSORGFRONT
 10
0.0
 20
0.0
 30
0.0
  9
$UCSORGBACK
 10
0.0
 20
0.0
 30
0.0
  9
$PUCSBASE
  2

  9
$PUCSNAME
  2

  9
$PUCSORG
 10
0.0
 20
0.0
 30
0.0
  9
$PUCSXDIR
 10
1.0
 20
0.0
 30
0.0
  9
$PUCSYDIR
 10
0.0
 20
1.0
 30
0.0
  9
$PUCSORTHOREF
  2

  9
$PUCSORTHOVIEW
 70
     0
  9
$PUCSORGTOP
 10
0.0
 20
0.0
 30
0.0
  9
$PUCSORGBOTTOM
 10
0.0
 20
0.0
 30
0.0
  9
$PUCSORGLEFT
 10
0.0
 20
0.0
 30
0.0
  9
$PUCSORGRIGHT
 10
0.0
 20
0.0
 30
0.0
  9
$PUCSORGFRONT
 10
0.0
 20
0.0
 30
0.0
  9
$PUCSORGBACK
 10
0.0
 20
0.0
 30
0.0
  9
$USERI1
 70
     0
  9
$USERI2
 70
     0
  9
$USERI3
 70
     0
  9
$USERI4
 70
     0
  9
$USERI5
 70
     0
  9
$USERR1
 40
0.0
  9
$USERR2
 40
0.0
  9
$USERR3
 40
0.0
  9
$USERR4
 40
0.0
  9
$USERR5
 40
0.0
  9
$WORLDVIEW
 70
     1
  9
$SHADEDGE
 70
     3
  9
$SHADEDIF
 70
    70
  9
$TILEMODE
 70
     1
  9
$MAXACTVP
 70
    48
  9
$PINSBASE
 10
0.0
 20
0.0
 30
0.0
  9
$PLIMCHECK
 70
     0
  9
$PEXTMIN
 10
-580.5701293945312
 20
0.0
 30
0.0
  9
$PEXTMAX
 10
0.0
 20
407.8999938964844
 30
0.0
  9
$PLIMMIN
 10
-580.5701293945312
 20
0.0
  9
$PLIMMAX
 10
0.0
 20
407.8999938964844
  9
$UNITMODE
 70
     0
  9
$VISRETAIN
 70
     1
  9
$PLINEGEN
 70
     0
  9
$PSLTSCALE
 70
     1
  9
$TREEDEPTH
 70
  3020
  9
$CMLSTYLE
  2
Standard
  9
$CMLJUST
 70
     0
  9
$CMLSCALE
 40
1.0
  9
$PROXYGRAPHICS
 70
     1
  9
$MEASUREMENT
 70
     0
  9
$CELWEIGHT
370
    -1
  9
$ENDCAPS
280
     0
  9
$JOINSTYLE
280
     0
  9
$LWDISPLAY
290
     0
  9
$INSUNITS
 70
     0
  9
$HYPERLINKBASE
  1

  9
$STYLESHEET
  1

  9
$XEDIT
290
     1
  9
$CEPSNTYPE
380
     0
  9
$PSTYLEMODE
290
     1
  9
$FINGERPRINTGUID
  2
{D527BC2E-E286-41FC-9BFC-80C8F270FE22}
  9
$VERSIONGUID
  2
{CDE27D7F-E564-46A2-BAA3-947A22FD5F96}
  9
$EXTNAMES
290
     1
  9
$PSVPSCALE
 40
0.0
  9
$OLESTARTUP
290
     0
  0
ENDSEC
  0
SECTION
  2
CLASSES
  0
CLASS
  1
ACDBDICTIONARYWDFLT
  2
AcDbDictionaryWithDefault
  3
AutoCAD 2000
 90
        0
280
     0
281
     0
  0
CLASS
  1
ACDBPLACEHOLDER
  2
AcDbPlaceHolder
  3
AutoCAD 2000
 90
        0
280
     0
281
     0
  0
CLASS
  1
LAYOUT
  2
AcDbLayout
  3
AutoCAD 2000
 90
        0
280
     0
281
     0
  0
CLASS
  1
DICTIONARYVAR
  2
AcDbDictionaryVar
  3
AutoCAD 2000
 90
        0
280
     0
281
     0
  0
CLASS
  1
LONG_TRANSACTION
  2
AcDbLongTransaction
  3
AutoCAD 2000
 90
    32768
280
     0
281
     0
  0
CLASS
  1
LWPOLYLINE
  2
AcDbPolyline
  3
AutoCAD 2000
 90
    32768
280
     0
281
     1
  0
CLASS
  1
HATCH
  2
AcDbHatch
  3
AutoCAD 2000
 90
    32768
280
     0
281
     1
  0
CLASS
  1
XRECORD
  2
AcDbXrecord
  3
AutoCAD 2000
 90
    32768
280
     0
281
     0
  0
ENDSEC
  0
SECTION
  2
TABLES
  0
TABLE
  2
VPORT
  5
2658
330
0
100
AcDbSymbolTable
 70
     2
  0
VPORT
  5
26CF
330
2658
100
AcDbSymbolTableRecord
100
AcDbViewportTableRecord
  2
*Active
 70
     0
 10
0.0
 20
0.0
 11
1.0
 21
1.0
 12
566.4070388577165
 22
411.5081677778893
 13
0.0
 23
0.0
 14
1.0
 24
1.0
 15
0.0
 25
0.0
 16
0.0
 26
0.0
 36
1.0
 17
0.0
 27
0.0
 37
0.0
 40
678.714295686743
 41
1.592161016949152
 42
50.0
 43
0.0
 44
0.0
 50
0.0
 51
0.0
 71
     0
 72
   100
 73
     1
 74
     3
 75
     0
 76
     0
 77
     0
 78
     0
281
     0
 65
     1
110
0.0
120
0.0
130
0.0
111
1.0
121
0.0
131
0.0
112
0.0
122
1.0
132
0.0
 79
     0
146
0.0
  0
ENDTAB
  0
TABLE
  2
LTYPE
  5
2655
330
0
100
AcDbSymbolTable
 70
     2
  0
LTYPE
  5
2663
330
2655
100
AcDbSymbolTableRecord
100
AcDbLinetypeTableRecord
  2
ByBlock
 70
     0
  3

 72
    65
 73
     0
 40
0.0
  0
LTYPE
  5
2664
330
2655
100
AcDbSymbolTableRecord
100
AcDbLinetypeTableRecord
  2
ByLayer
 70
     0
  3

 72
    65
 73
     0
 40
0.0
  0
LTYPE
  5
2665
330
2655
100
AcDbSymbolTableRecord
100
AcDbLinetypeTableRecord
  2
CONTINUOUS
 70
     0
  3
Solid line
 72
    65
 73
     0
 40
0.0
  0
LTYPE
  5
26BA
330
2655
100
AcDbSymbolTableRecord
100
AcDbLinetypeTableRecord
  2
CENTER
 70
     0
  3
__ . __
 72
    65
 73
     4
 40
7.0
 49
4.0
 74
     0
 49
-1.0
 74
     0
 49
1.0
 74
     0
 49
-1.0
 74
     0
  0
ENDTAB
  0
TABLE
  2
LAYER
  5
2652
102
{ACAD_XDICTIONARY
360
26BB
102
}
330
0
100
AcDbSymbolTable
 70
     2
  0
LAYER
  5
2660
330
2652
100
AcDbSymbolTableRecord
100
AcDbLayerTableRecord
  2
0
 70
     0
 62
     7
  6
CONTINUOUS
370
    -3
390
265F
  0
LAYER
  5
2673
330
2652
100
AcDbSymbolTableRecord
100
AcDbLayerTableRecord
  2
DEFPOINTS
 70
     0
 62
     7
  6
CONTINUOUS
290
     0
370
    -3
390
265F
  0
ENDTAB
  0
TABLE
  2
STYLE
  5
2653
330
0
100
AcDbSymbolTable
 70
     1
  0
STYLE
  5
2661
330
2653
100
AcDbSymbolTableRecord
100
AcDbTextStyleTableRecord
  2
STANDARD
 70
     0
 40
0.0
 41
1.0
 50
0.0
 71
     0
 42
0.2
  3
txt
  4
BIGFONT
  0
ENDTAB
  0
TABLE
  2
VIEW
  5
2656
330
0
100
AcDbSymbolTable
 70
     0
  0
ENDTAB
  0
TABLE
  2
UCS
  5
2657
330
0
100
AcDbSymbolTable
 70
     0
  0
ENDTAB
  0
TABLE
  2
APPID
  5
2659
330
0
100
AcDbSymbolTable
 70
     4
  0
APPID
  5
2662
330
2659
100
AcDbSymbolTableRecord
100
AcDbRegAppTableRecord
  2
ACAD
 70
     0
  0
APPID
  5
2674
330
2659
100
AcDbSymbolTableRecord
100
AcDbRegAppTableRecord
  2
MCAD_NO_VIS
 70
     0
  0
APPID
  5
2675
330
2659
100
AcDbSymbolTableRecord
100
AcDbRegAppTableRecord
  2
ACAD_TEMP_GRAPHIC
 70
     0
  0
APPID
  5
2676
330
2659
100
AcDbSymbolTableRecord
100
AcDbRegAppTableRecord
  2
ACATTRIBSERVICES
 70
     0
  0
ENDTAB
  0
TABLE
  2
DIMSTYLE
  5
265A
330
0
100
AcDbSymbolTable
 70
     1
100
AcDbDimStyleTable
 71
     0
  0
DIMSTYLE
105
2677
330
265A
100
AcDbSymbolTableRecord
100
AcDbDimStyleTableRecord
  2
STANDARD
 70
     0
279
     2
340
2661
  0
ENDTAB
  0
TABLE
  2
BLOCK_RECORD
  5
2651
330
0
100
AcDbSymbolTable
 70
     2
  0
BLOCK_RECORD
  5
266E
102
{ACAD_XDICTIONARY
360
2680
102
}
330
2651
100
AcDbSymbolTableRecord
100
AcDbBlockTableRecord
  2
*Model_Space
340
2671
  0
BLOCK_RECORD
  5
266A
102
{ACAD_XDICTIONARY
360
2682
102
}
330
2651
100
AcDbSymbolTableRecord
100
AcDbBlockTableRecord
  2
*Paper_Space
340
266D
  0
BLOCK_RECORD
  5
267A
330
2651
100
AcDbSymbolTableRecord
100
AcDbBlockTableRecord
  2
$MODEL_SPACE
340
0
  0
BLOCK_RECORD
  5
267C
330
2651
100
AcDbSymbolTableRecord
100
AcDbBlockTableRecord
  2
$PAPER_SPACE
340
0
  0
ENDTAB
  0
ENDSEC
  0
SECTION
  2
BLOCKS
  0
BLOCK
  5
266F
330
266E
100
AcDbEntity
  8
0
100
AcDbBlockBegin
  2
*Model_Space
 70
     0
 10
0.0
 20
0.0
 30
0.0
  3
*Model_Space
  1

  0
ENDBLK
  5
2670
330
266E
100
AcDbEntity
  8
0
100
AcDbBlockEnd
  0
BLOCK
  5
266B
330
266A
100
AcDbEntity
 67
     1
  8
0
100
AcDbBlockBegin
  2
*Paper_Space
 70
     0
 10
0.0
 20
0.0
 30
0.0
  3
*Paper_Space
  1

  0
ENDBLK
  5
266C
330
266A
100
AcDbEntity
 67
     1
  8
0
100
AcDbBlockEnd
  0
BLOCK
  5
267B
330
267A
100
AcDbEntity
  8
0
100
AcDbBlockBegin
  2
$MODEL_SPACE
 70
     0
 10
0.0
 20
0.0
 30
0.0
  3
$MODEL_SPACE
  1

  0
ENDBLK
  5
25C7
330
267A
100
AcDbEntity
  8
0
100
AcDbBlockEnd
  0
BLOCK
  5
267D
330
267C
100
AcDbEntity
  8
0
100
AcDbBlockBegin
  2
$PAPER_SPACE
 70
     0
 10
0.0
 20
0.0
 30
0.0
  3
$PAPER_SPACE
  1

  0
ENDBLK
  5
25C3
330
267C
100
AcDbEntity
  8
0
100
AcDbBlockEnd
  0
ENDSEC
  0
SECTION
  2
ENTITIES
  0
LINE
  5
C48
330
266E
100
AcDbEntity
  8
0
100
AcDbLine
 10
503.2369347905578
 20
175.1611976983174
 30
0.0
 11
524.3191484358085
 21
175.1611976983174
 31
0.0
  0
LINE
  5
C49
330
266E
100
AcDbEntity
  8
0
100
AcDbLine
 10
503.2369865350177
 20
149.7611732842544
 30
0.0
 11
524.3191484358085
 21
149.7611732842544
 31
0.0
  0
LINE
  5
C4A
330
266E
100
AcDbEntity
  8
0
100
AcDbLine
 10
588.8191179182304
 20
195.2111549737082
 30
0.0
 11
512.8191179182302
 21
195.2111549737072
 31
0.0
  0
LINE
  5
C4B
330
266E
100
AcDbEntity
  8
0
100
AcDbLine
 10
588.8191179182304
 20
209.7111854912864
 30
0.0
 11
512.8191179182302
 21
209.7111854912864
 31
0.0
  0
LINE
  5
C4C
330
266E
100
AcDbEntity
  8
0
100
AcDbLine
 10
524.3191484358085
 20
195.2111549737072
 30
0.0
 11
524.3191484358085
 21
145.9611854912856
 31
0.0
  0
LINE
  5
C4D
330
266E
100
AcDbEntity
  8
0
100
AcDbLine
 10
577.3191179182304
 20
195.2111549737072
 30
0.0
 11
577.3191179182304
 21
145.9611854912856
 31
0.0
  0
LINE
  5
C4E
330
266E
100
AcDbEntity
  8
0
  6
Continuous
100
AcDbLine
 10
538.1191209699882
 20
114.8789840058682
 30
0.0
 11
563.5191453840507
 21
114.8790127381104
 31
0.0
  0
LINE
  5
C4F
330
266E
100
AcDbEntity
  8
0
100
AcDbLine
 10
525.5691179182304
 20
107.4611549737072
 30
0.0
 11
576.0691484358085
 21
107.4611549737072
 31
0.0
  0
LINE
  5
C50
330
266E
100
AcDbEntity
  8
0
100
AcDbLine
 10
524.3191484358085
 20
145.9611854912856
 30
0.0
 11
577.3191179182304
 21
145.9611854912856
 31
0.0
  0
LINE
  5
C51
330
266E
100
AcDbEntity
  8
0
100
AcDbLine
 10
563.5191453840507
 20
116.2794227959732
 30
0.0
 11
563.5191453840507
 21
133.4111366631605
 31
0.0
  0
LINE
  5
C52
330
266E
100
AcDbEntity
  8
0
100
AcDbLine
 10
563.5191453840507
 20
114.8790127381104
 30
0.0
 11
563.5191453840507
 21
141.7465003570064
 31
0.0
  0
LINE
  5
C53
330
266E
100
AcDbEntity
  8
0
100
AcDbLine
 10
576.0691484358085
 20
110.3111850237544
 30
0.0
 11
563.5191453840507
 21
114.8790127381104
 31
0.0
  0
LINE
  5
C54
330
266E
100
AcDbEntity
  8
0
100
AcDbLine
 10
576.0691484358085
 20
107.4611549737072
 30
0.0
 11
576.0691484358085
 21
110.3111850237544
 31
0.0
  0
LINE
  5
C55
330
266E
100
AcDbEntity
  8
0
100
AcDbLine
 10
563.5191453840507
 20
141.7465003570064
 30
0.0
 11
570.1229991243527
 21
145.5592371600903
 31
0.0
  0
LINE
  5
C56
330
266E
100
AcDbEntity
  8
0
100
AcDbLine
 10
538.1191209699882
 20
114.8789840058682
 30
0.0
 11
538.1191209699882
 21
141.7465208120233
 31
0.0
  0
LINE
  5
C57
330
266E
100
AcDbEntity
  8
0
100
AcDbLine
 10
525.5691179182304
 20
110.3111562915126
 30
0.0
 11
538.1191209699882
 21
114.8789840058682
 31
0.0
  0
LINE
  5
C58
330
266E
100
AcDbEntity
  8
0
100
AcDbLine
 10
525.5691179182304
 20
107.4611549737072
 30
0.0
 11
525.5691179182304
 21
110.3111562915126
 31
0.0
  0
LINE
  5
C59
330
266E
100
AcDbEntity
  8
0
100
AcDbLine
 10
538.1191209699882
 20
141.7465208120233
 30
0.0
 11
531.5152863138871
 21
145.5592465968383
 31
0.0
  0
LINE
  5
C5A
330
266E
100
AcDbEntity
  8
0
100
AcDbLine
 10
588.8191179182304
 20
195.2111549737082
 30
0.0
 11
588.8191179182304
 21
209.7111854912864
 31
0.0
  0
LINE
  5
C5B
330
266E
100
AcDbEntity
  8
0
  6
Continuous
100
AcDbLine
 10
503.2369865350177
 20
149.7611732842544
 30
0.0
 11
503.2369347905578
 21
175.1611976983174
 31
0.0
  0
LINE
  5
C5C
330
266E
100
AcDbEntity
  8
0
100
AcDbLine
 10
495.8191484358084
 20
187.7111549737072
 30
0.0
 11
495.8191484358084
 21
137.2111244561293
 31
0.0
  0
LINE
  5
C5D
330
266E
100
AcDbEntity
  8
0
100
AcDbLine
 10
498.6691421594259
 20
137.2111244561293
 30
0.0
 11
503.2369865350177
 21
149.7611732842544
 31
0.0
  0
LINE
  5
C5E
330
266E
100
AcDbEntity
  8
0
100
AcDbLine
 10
495.8191484358084
 20
137.2111244561293
 30
0.0
 11
498.6691421594259
 21
137.2111244561293
 31
0.0
  0
LINE
  5
C5F
330
266E
100
AcDbEntity
  8
0
100
AcDbLine
 10
512.8191179182302
 20
195.2111549737072
 30
0.0
 11
512.8191179182302
 21
209.7111854912864
 31
0.0
  0
LINE
  5
C60
330
266E
100
AcDbEntity
  8
0
100
AcDbLine
 10
498.6691237374371
 20
187.7111549737072
 30
0.0
 11
503.2369347905578
 21
175.1611976983174
 31
0.0
  0
LINE
  5
C61
330
266E
100
AcDbEntity
  8
0
100
AcDbLine
 10
495.8191484358084
 20
187.7111549737072
 30
0.0
 11
498.6691237374371
 21
187.7111549737072
 31
0.0
  0
LINE
  5
C62
330
266E
100
AcDbEntity
  8
0
100
AcDbLine
 10
572.8191179182304
 20
218.8338966729263
 30
0.0
 11
572.8191179182304
 21
287.8390529607834
 31
0.0
  0
LINE
  5
C63
330
266E
100
AcDbEntity
  8
0
100
AcDbLine
 10
528.8191179182303
 20
218.8338966729263
 30
0.0
 11
528.8191179182303
 21
295.3338966729263
 31
0.0
  0
LINE
  5
C64
330
266E
100
AcDbEntity
  8
0
100
AcDbLine
 10
572.8191179182304
 20
218.8338966729263
 30
0.0
 11
528.8191179182303
 21
218.8338966729263
 31
0.0
  0
LINE
  5
C65
330
266E
100
AcDbEntity
  8
0
100
AcDbLine
 10
531.8191179182304
 20
209.7111854912864
 30
0.0
 11
531.8191179182304
 21
218.8338966729263
 31
0.0
  0
LINE
  5
C66
330
266E
100
AcDbEntity
  8
0
100
AcDbLine
 10
569.8191179182304
 20
209.7111854912864
 30
0.0
 11
569.8191179182304
 21
218.8338966729263
 31
0.0
  0
LINE
  5
C67
330
266E
100
AcDbEntity
  8
0
100
AcDbLine
 10
572.3191179182304
 20
297.8338966729263
 30
0.0
 11
529.3191179182302
 21
297.8338966729263
 31
0.0
  0
LINE
  5
C68
330
266E
100
AcDbEntity
  8
0
100
AcDbLine
 10
629.3191179182303
 20
295.3338966729263
 30
0.0
 11
528.8191179182303
 21
295.3338966729263
 31
0.0
  0
LINE
  5
C69
330
266E
100
AcDbEntity
  8
0
100
AcDbLine
 10
517.8191179182304
 20
274.3338966729263
 30
0.0
 11
517.8191179182304
 21
289.3338966729263
 31
0.0
  0
LINE
  5
C6A
330
266E
100
AcDbEntity
  8
0
100
AcDbLine
 10
513.3191179182301
 20
285.8338966729263
 30
0.0
 11
517.8191179182304
 21
285.8338966729263
 31
0.0
  0
LINE
  5
C6B
330
266E
100
AcDbEntity
  8
0
100
AcDbLine
 10
513.3191179182301
 20
277.8338966729263
 30
0.0
 11
517.8191179182304
 21
277.8338966729263
 31
0.0
  0
LINE
  5
C6C
330
266E
100
AcDbEntity
  8
0
100
AcDbLine
 10
513.3191179182301
 20
277.8338966729263
 30
0.0
 11
513.3191179182301
 21
285.8338966729263
 31
0.0
  0
LINE
  5
C6D
330
266E
100
AcDbEntity
  8
0
100
AcDbLine
 10
528.8191179182303
 20
274.3338966729263
 30
0.0
 11
517.8191179182304
 21
274.3338966729263
 31
0.0
  0
LINE
  5
C6E
330
266E
100
AcDbEntity
  8
0
100
AcDbLine
 10
528.8191179182303
 20
289.3338966729263
 30
0.0
 11
517.8191179182304
 21
289.3338966729263
 31
0.0
  0
LINE
  5
C6F
330
266E
100
AcDbEntity
  8
0
100
AcDbLine
 10
529.3191179182302
 20
295.3338966729263
 30
0.0
 11
529.3191179182302
 21
297.8338966729263
 31
0.0
  0
LINE
  5
C70
330
266E
100
AcDbEntity
  8
0
100
AcDbLine
 10
638.8191179182304
 20
288.3338966729263
 30
0.0
 11
638.8191179182304
 21
369.3339424492932
 31
0.0
  0
LINE
  5
C71
330
266E
100
AcDbEntity
  8
0
100
AcDbLine
 10
621.8191179182304
 20
295.3338966729263
 30
0.0
 11
621.8191179182304
 21
369.3339424492932
 31
0.0
  0
LINE
  5
C72
330
266E
100
AcDbEntity
  8
0
100
AcDbLine
 10
621.8191562927033
 20
288.3340028599483
 30
0.0
 11
572.8191179182304
 21
287.8390529607834
 31
0.0
  0
LINE
  5
C73
330
266E
100
AcDbEntity
  8
0
100
AcDbLine
 10
542.8191179182304
 20
302.8338966729263
 30
0.0
 11
558.8191179182302
 21
302.8338966729263
 31
0.0
  0
LINE
  5
C74
330
266E
100
AcDbEntity
  8
0
100
AcDbLine
 10
542.8191179182304
 20
297.8338966729263
 30
0.0
 11
542.8191179182304
 21
302.8338966729263
 31
0.0
  0
LINE
  5
C75
330
266E
100
AcDbEntity
  8
0
100
AcDbLine
 10
558.8191179182302
 20
297.8338966729263
 30
0.0
 11
558.8191179182302
 21
302.8338966729263
 31
0.0
  0
LINE
  5
C76
330
266E
100
AcDbEntity
  8
0
100
AcDbLine
 10
572.3191179182304
 20
295.3338966729263
 30
0.0
 11
572.3191179182304
 21
297.8338966729263
 31
0.0
  0
LINE
  5
C77
330
266E
100
AcDbEntity
  8
0
100
AcDbLine
 10
638.8191179182304
 20
296.3338966729263
 30
0.0
 11
621.8191179182304
 21
296.3338966729263
 31
0.0
  0
LINE
  5
C78
330
266E
100
AcDbEntity
  8
0
100
AcDbLine
 10
638.8191179182304
 20
288.3338966729263
 30
0.0
 11
621.8191179182304
 21
288.3338966729263
 31
0.0
  0
LINE
  5
C7B
330
266E
100
AcDbEntity
  8
0
100
AcDbLine
 10
638.8191179182304
 20
369.3339424492932
 30
0.0
 11
621.8191179182304
 21
369.3339424492932
 31
0.0
  0
TEXT
  5
1104
330
266E
100
AcDbEntity
  8
0
  6
Continuous
100
AcDbText
 10
336.0302896615617
 20
700.6785591640463
 30
0.0
 40
48.000002
  1
WTM__ 1S
 41
1.32095
100
AcDbText
  0
LINE
  5
2019
330
266E
100
AcDbEntity
  8
0
  6
Continuous
 62
     7
100
AcDbLine
 10
630.3192018415703
 20
505.0001605540312
 30
0.0
 11
583.785006895281
 21
505.0001605540312
 31
0.0
  0
LINE
  5
201A
330
266E
100
AcDbEntity
  8
0
  6
Continuous
 62
     7
100
AcDbLine
 10
630.3192018415703
 20
522.0001758128203
 30
0.0
 11
583.785006895281
 21
522.0001758128203
 31
0.0
  0
CIRCLE
  5
201B
330
266E
100
AcDbEntity
  8
0
  6
Continuous
 62
     7
100
AcDbCircle
 10
630.3190645124685
 20
513.5002368479763
 30
0.0
 40
8.499999761581419
  0
CIRCLE
  5
201C
330
266E
100
AcDbEntity
  8
0
  6
Continuous
 62
     7
100
AcDbCircle
 10
550.8191331770193
 20
513.5002368479763
 30
0.0
 40
22.00000047683715
  0
CIRCLE
  5
201D
330
266E
100
AcDbEntity
  8
0
  6
Continuous
 62
     7
100
AcDbCircle
 10
550.8191331770193
 20
527.5001605540312
 30
0.0
 40
4.500000134110448
  0
ARC
  5
201E
330
266E
100
AcDbEntity
  8
0
  6
Continuous
 62
     7
100
AcDbCircle
 10
583.7849840070974
 20
547.0001605540312
 30
0.0
 40
25.0000019073486
100
AcDbArc
 50
225.4604149695246
 51
270.0
  0
ARC
  5
201F
330
266E
100
AcDbEntity
  8
0
  6
Continuous
 62
     7
100
AcDbCircle
 10
583.7849840070974
 20
480.0001758128201
 30
0.0
 40
25.0000019073486
100
AcDbArc
 50
89.99997768819374
 51
134.5395593035806
  0
CIRCLE
  5
2020
330
266E
100
AcDbEntity
  8
0
  6
Continuous
 62
     7
100
AcDbCircle
 10
550.8191331770193
 20
499.5001758128188
 30
0.0
 40
4.500000134110448
  0
CIRCLE
  5
2021
330
266E
100
AcDbEntity
  8
0
  6
Continuous
 62
     7
100
AcDbCircle
 10
550.8191331770193
 20
513.5002368479763
 30
0.0
 40
5.500000119209287
  0
LINE
  5
2027
330
266E
100
AcDbEntity
  8
0
  6
Continuous
 62
     7
100
AcDbLine
 10
530.5275407314288
 20
505.0001605540312
 30
0.0
 11
517.8191331770193
 21
505.0001605540312
 31
0.0
  0
LINE
  5
2028
330
266E
100
AcDbEntity
  8
0
  6
Continuous
 62
     7
100
AcDbLine
 10
530.5274832053005
 20
522.0001758128212
 30
0.0
 11
517.8191331770204
 21
522.0001758128203
 31
0.0
  0
LINE
  5
2029
330
266E
100
AcDbEntity
  8
0
  6
Continuous
 62
     7
100
AcDbLine
 10
515.3191026594412
 20
517.5000384837183
 30
0.0
 11
515.3191026594412
 21
509.5000232249303
 31
0.0
  0
LINE
  5
202A
330
266E
100
AcDbEntity
  8
0
  6
Continuous
 62
     7
100
AcDbLine
 10
517.8191331770204
 20
522.0001758128203
 30
0.0
 11
517.8191331770193
 21
505.0001605540312
 31
0.0
  0
LINE
  5
202B
330
266E
100
AcDbEntity
  8
0
  6
Continuous
 62
     7
100
AcDbLine
 10
517.8191331770193
 20
509.5001605540312
 30
0.0
 11
515.3191026594412
 21
509.5001605540312
 31
0.0
  0
LINE
  5
202C
330
266E
100
AcDbEntity
  8
0
  6
Continuous
 62
     7
100
AcDbLine
 10
517.8191331770193
 20
517.5001758128201
 30
0.0
 11
515.3191026594412
 21
517.5001758128201
 31
0.0
  0
ARC
  5
206D
330
266E
100
AcDbEntity
  8
0
  6
Continuous
100
AcDbCircle
 10
550.8191331770193
 20
513.5002368479763
 30
0.0
 40
37.99998474121093
100
AcDbArc
 50
12.92542793325162
 51
347.0743596210559
  0
LINE
  5
2076
330
266E
100
AcDbEntity
  8
0
100
AcDbLine
 10
495.8191484358084
 20
538.750252106765
 30
0.0
 11
498.6691237374371
 21
538.750252106765
 31
0.0
  0
LINE
  5
2077
330
266E
100
AcDbEntity
  8
0
100
AcDbLine
 10
498.6691237374371
 20
538.750252106765
 30
0.0
 11
503.2369347905578
 21
526.2002948313741
 31
0.0
  0
LINE
  5
2078
330
266E
100
AcDbEntity
  8
0
100
AcDbLine
 10
495.8191484358084
 20
488.2502215891872
 30
0.0
 11
498.6691421594259
 21
488.2502215891872
 31
0.0
  0
LINE
  5
2079
330
266E
100
AcDbEntity
  8
0
100
AcDbLine
 10
498.6691421594259
 20
488.2502215891872
 30
0.0
 11
503.2369865350177
 21
500.8002704173121
 31
0.0
  0
LINE
  5
207A
330
266E
100
AcDbEntity
  8
0
100
AcDbLine
 10
495.8191484358084
 20
538.750252106765
 30
0.0
 11
495.8191484358084
 21
488.2502215891872
 31
0.0
  0
LINE
  5
207B
330
266E
100
AcDbEntity
  8
0
  6
Continuous
100
AcDbLine
 10
503.2369865350177
 20
500.8002704173121
 30
0.0
 11
503.2369347905578
 21
526.2002948313741
 31
0.0
  0
LINE
  5
207C
330
266E
100
AcDbEntity
  8
0
100
AcDbLine
 10
503.2369865350177
 20
500.8002704173121
 30
0.0
 11
515.004196446763
 21
500.8002704173121
 31
0.0
  0
LINE
  5
207D
330
266E
100
AcDbEntity
  8
0
100
AcDbLine
 10
503.2369347905578
 20
526.2002948313741
 30
0.0
 11
515.0042289114685
 21
526.2002948313741
 31
0.0
  0
LINE
  5
21D9
330
266E
100
AcDbEntity
  8
0
100
AcDbLine
 10
605.8188098481235
 20
538.7502861872254
 30
0.0
 11
605.818841140298
 21
488.2502556696572
 31
0.0
  0
LINE
  5
21DA
330
266E
100
AcDbEntity
  8
0
100
AcDbLine
 10
602.9688474166809
 20
488.2502539036678
 30
0.0
 11
598.4009952644944
 21
500.8002999013414
 31
0.0
  0
LINE
  5
21DB
330
266E
100
AcDbEntity
  8
0
100
AcDbLine
 10
605.818841140298
 20
488.2502556696572
 30
0.0
 11
602.9688474166809
 21
488.2502539036678
 31
0.0
  0
LINE
  5
21DC
330
266E
100
AcDbEntity
  8
0
  6
Continuous
100
AcDbLine
 10
598.4009952644944
 20
500.8002999013414
 30
0.0
 11
598.4010312699147
 21
526.2003243154309
 31
0.0
  0
LINE
  5
21DD
330
266E
100
AcDbEntity
  8
0
100
AcDbLine
 10
602.9688345464956
 20
538.7502844212481
 30
0.0
 11
598.4010312699147
 21
526.2003243154309
 31
0.0
  0
LINE
  5
21DE
330
266E
100
AcDbEntity
  8
0
100
AcDbLine
 10
605.8188098481235
 20
538.7502861872254
 30
0.0
 11
602.9688345464956
 21
538.7502844212481
 31
0.0
  0
LINE
  5
21DF
330
266E
100
AcDbEntity
  8
0
100
AcDbLine
 10
605.8190920479915
 20
187.7111890542551
 30
0.0
 11
605.8191233401656
 21
137.2111585366865
 31
0.0
  0
LINE
  5
21E0
330
266E
100
AcDbEntity
  8
0
  6
Continuous
100
AcDbLine
 10
598.4012774643622
 20
149.7612027683716
 30
0.0
 11
598.4013134697825
 21
175.1612271824602
 31
0.0
  0
LINE
  5
21E1
330
266E
100
AcDbEntity
  8
0
100
AcDbLine
 10
605.8191233401656
 20
137.2111585366865
 30
0.0
 11
602.9691296165488
 21
137.2111567706983
 31
0.0
  0
LINE
  5
21E2
330
266E
100
AcDbEntity
  8
0
100
AcDbLine
 10
602.9691296165488
 20
137.2111567706983
 30
0.0
 11
598.4012774643622
 21
149.7612027683716
 31
0.0
  0
LINE
  5
21E3
330
266E
100
AcDbEntity
  8
0
100
AcDbLine
 10
605.8190920479915
 20
187.7111890542551
 30
0.0
 11
602.9691167463635
 21
187.7111872882773
 31
0.0
  0
LINE
  5
21E4
330
266E
100
AcDbEntity
  8
0
100
AcDbLine
 10
602.9691167463635
 20
187.7111872882773
 30
0.0
 11
598.4013134697825
 21
175.1612271824602
 31
0.0
  0
LINE
  5
21E5
330
266E
100
AcDbEntity
  8
0
100
AcDbLine
 10
598.4012774643622
 20
149.7612027683716
 30
0.0
 11
577.3191155635755
 21
149.7611897048805
 31
0.0
  0
LINE
  5
21E6
330
266E
100
AcDbEntity
  8
0
100
AcDbLine
 10
598.4013134697825
 20
175.1612271824602
 30
0.0
 11
577.3190998245355
 21
175.1612141189371
 31
0.0
  0
LINE
  5
21E7
330
266E
100
AcDbEntity
  8
0
100
AcDbLine
 10
598.4010312699147
 20
526.2003243154309
 30
0.0
 11
586.6337371490061
 21
526.2003170238672
 31
0.0
  0
LINE
  5
21E8
330
266E
100
AcDbEntity
  8
0
100
AcDbLine
 10
598.4009952644944
 20
500.8002999013414
 30
0.0
 11
586.6337853527512
 21
500.8002926098291
 31
0.0
  0
LINE
  5
26C5
330
266E
100
AcDbEntity
  8
0
  6
CENTER
100
AcDbLine
 10
550.8191179182305
 20
74.33916919249577
 30
0.0
 11
550.8191179182305
 21
323.4068143550361
 31
0.0
  0
LINE
  5
26C6
330
266E
100
AcDbEntity
  8
0
  6
CENTER
100
AcDbLine
 10
471.6235919138492
 20
513.5002368479763
 30
0.0
 11
630.0146744401894
 21
513.5002368479763
 31
0.0
  0
LINE
  5
26C8
330
266E
100
AcDbEntity
  8
0
  6
CENTER
100
AcDbLine
 10
550.8191331770193
 20
456.7205929926742
 30
0.0
 11
550.8191331770193
 21
570.2798807032784
 31
0.0
  0
LINE
  5
26C9
330
266E
100
AcDbEntity
  8
0
  6
CENTER
100
AcDbLine
 10
471.6235919138492
 20
162.4611397149183
 30
0.0
 11
630.0146744401892
 21
162.4611397149183
 31
0.0
  0
ENDSEC
  0
SECTION
  2
OBJECTS
  0
DICTIONARY
  5
265C
330
0
100
AcDbDictionary
281
     1
  3
ACAD_GROUP
350
265D
  3
ACAD_LAYOUT
350
2669
  3
ACAD_MLINESTYLE
350
2666
  3
ACAD_PLOTSETTINGS
350
2668
  3
ACAD_PLOTSTYLENAME
350
265E
  3
AcDbVariableDictionary
350
26B4
  0
DICTIONARY
  5
26BB
330
2652
100
AcDbDictionary
280
     1
281
     1
  3
ACAD_LAYERSTATES
360
26BC
  0
DICTIONARY
  5
2680
330
266E
100
AcDbDictionary
280
     1
281
     1
  3
ACAD_LAYOUTSELFREF
360
26AF
  0
DICTIONARY
  5
2682
330
266A
100
AcDbDictionary
280
     1
281
     1
  3
ACAD_LAYOUTSELFREF
360
26AE
  0
DICTIONARY
  5
265D
102
{ACAD_REACTORS
330
265C
102
}
330
265C
100
AcDbDictionary
281
     1
  0
DICTIONARY
  5
2669
102
{ACAD_REACTORS
330
265C
102
}
330
265C
100
AcDbDictionary
281
     1
  3
Model
350
2671
  3
ﾚｲｱｳﾄ1
350
266D
  0
DICTIONARY
  5
2666
102
{ACAD_REACTORS
330
265C
102
}
330
265C
100
AcDbDictionary
281
     1
  3
Standard
350
2667
  0
DICTIONARY
  5
2668
102
{ACAD_REACTORS
330
265C
102
}
330
265C
100
AcDbDictionary
281
     1
  0
ACDBDICTIONARYWDFLT
  5
265E
102
{ACAD_REACTORS
330
265C
102
}
330
265C
100
AcDbDictionary
281
     1
  3
Normal
350
265F
100
AcDbDictionaryWithDefault
340
265F
  0
DICTIONARY
  5
26B4
102
{ACAD_REACTORS
330
265C
102
}
330
265C
100
AcDbDictionary
281
     1
  3
DIMASSOC
350
26B5
  0
DICTIONARY
  5
26BC
102
{ACAD_REACTORS
330
26BB
102
}
330
26BB
100
AcDbDictionary
281
     1
  0
XRECORD
  5
26AF
102
{ACAD_REACTORS
330
2680
102
}
330
2680
100
AcDbXrecord
280
     1
340
266E
  0
XRECORD
  5
26AE
102
{ACAD_REACTORS
330
2682
102
}
330
2682
100
AcDbXrecord
280
     1
340
266A
  0
LAYOUT
  5
2671
102
{ACAD_REACTORS
330
2669
102
}
330
2669
100
AcDbPlotSettings
  1

  2
SII LP-2150 (D-SCAN C2)
  4

  6

 40
0.0
 41
0.0
 42
0.0
 43
0.0
 44
0.0
 45
0.0
 46
0.0
 47
0.0
 48
0.0
 49
0.0
140
0.0
141
0.0
142
1.0
143
1.0
 70
  1712
 72
     0
 73
     0
 74
     0
  7

 75
     0
147
1.0
148
0.0
149
0.0
100
AcDbLayout
  1
Model
 70
     1
 71
     0
 10
0.0
 20
0.0
 11
12.0
 21
9.0
 12
0.0
 22
0.0
 32
0.0
 14
0.0
 24
0.0
 34
0.0
 15
0.0
 25
0.0
 35
0.0
146
0.0
 13
0.0
 23
0.0
 33
0.0
 16
1.0
 26
0.0
 36
0.0
 17
0.0
 27
1.0
 37
0.0
 76
     0
330
266E
  0
LAYOUT
  5
266D
102
{ACAD_REACTORS
330
2669
102
}
330
2669
100
AcDbPlotSettings
  1

  2
SII LP-2150 (D-SCAN C2)
  4

  6

 40
0.0
 41
0.0
 42
0.0
 43
0.0
 44
0.0
 45
0.0
 46
0.0
 47
0.0
 48
0.0
 49
0.0
140
0.0
141
0.0
142
1.0
143
1.0
 70
   688
 72
     0
 73
     0
 74
     5
  7

 75
    16
147
1.0
148
0.0
149
0.0
100
AcDbLayout
  1
ﾚｲｱｳﾄ1
 70
     1
 71
     1
 10
-580.5701293945312
 20
0.0
 11
0.0
 21
407.8999938964844
 12
0.0
 22
0.0
 32
0.0
 14
-580.5701293945312
 24
0.0
 34
0.0
 15
0.0
 25
407.8999938964844
 35
0.0
146
0.0
 13
0.0
 23
0.0
 33
0.0
 16
1.0
 26
0.0
 36
0.0
 17
0.0
 27
1.0
 37
0.0
 76
     0
330
266A
  0
MLINESTYLE
  5
2667
102
{ACAD_REACTORS
330
2666
102
}
330
2666
100
AcDbMlineStyle
  2
STANDARD
 70
     0
  3

 62
   256
 51
90.0
 52
90.0
 71
     2
 49
0.5
 62
   256
  6
BYLAYER
 49
-0.5
 62
   256
  6
BYLAYER
  0
ACDBPLACEHOLDER
  5
265F
102
{ACAD_REACTORS
330
265E
102
}
330
265E
  0
DICTIONARYVAR
  5
26B5
102
{ACAD_REACTORS
330
26B4
102
}
330
26B4
100
DictionaryVariables
280
     0
  1
1
  0
ENDSEC
  0
EOF
