  0
SECTION
  2
HEADER
  9
$ACADVER
  1
AC1015
  9
$ACADMAINTVER
 70
    14
  9
$DWGCODEPAGE
  3
ANSI_932
  9
$INSBASE
 10
0.0
 20
0.0
 30
0.0
  9
$EXTMIN
 10
32.79457514528258
 20
239.8115828849381
 30
-0.0000000349181948
  9
$EXTMAX
 10
895.2612762788776
 20
1374.083871982926
 30
0.0000000814935746
  9
$LIMMIN
 10
-580.5701293945312
 20
0.0
  9
$LIMMAX
 10
0.0
 20
407.8999938964844
  9
$ORTHOMODE
 70
     0
  9
$REGENMODE
 70
     1
  9
$FILLMODE
 70
     1
  9
$QTEXTMODE
 70
     0
  9
$MIRRTEXT
 70
     1
  9
$LTSCALE
 40
1.0
  9
$ATTMODE
 70
     1
  9
$TEXTSIZE
 40
0.2
  9
$TRACEWID
 40
0.05
  9
$TEXTSTYLE
  7
STANDARD
  9
$CLAYER
  8
0
  9
$CELTYPE
  6
CONTINUOUS
  9
$CECOLOR
 62
   256
  9
$CELTSCALE
 40
1.0
  9
$DISPSILH
 70
     0
  9
$DIMSCALE
 40
1.0
  9
$DIMASZ
 40
1.0
  9
$DIMEXO
 40
2.54
  9
$DIMDLI
 40
0.38
  9
$DIMRND
 40
0.0
  9
$DIMDLE
 40
0.0
  9
$DIMEXE
 40
2.54
  9
$DIMTP
 40
0.0
  9
$DIMTM
 40
0.0
  9
$DIMTXT
 40
3.200000047683714
  9
$DIMCEN
 40
0.09
  9
$DIMTSZ
 40
0.0
  9
$DIMTOL
 70
     0
  9
$DIMLIM
 70
     0
  9
$DIMTIH
 70
     0
  9
$DIMTOH
 70
     0
  9
$DIMSE1
 70
     0
  9
$DIMSE2
 70
     0
  9
$DIMTAD
 70
     1
  9
$DIMZIN
 70
     0
  9
$DIMBLK
  1

  9
$DIMASO
 70
     1
  9
$DIMSHO
 70
     0
  9
$DIMPOST
  1

  9
$DIMAPOST
  1

  9
$DIMALT
 70
     0
  9
$DIMALTD
 70
     2
  9
$DIMALTF
 40
25.4
  9
$DIMLFAC
 40
1.0
  9
$DIMTOFL
 70
     0
  9
$DIMTVP
 40
1.0
  9
$DIMTIX
 70
     0
  9
$DIMSOXD
 70
     0
  9
$DIMSAH
 70
     1
  9
$DIMBLK1
  1

  9
$DIMBLK2
  1

  9
$DIMSTYLE
  2
STANDARD
  9
$DIMCLRD
 70
     0
  9
$DIMCLRE
 70
     0
  9
$DIMCLRT
 70
     0
  9
$DIMTFAC
 40
1.0
  9
$DIMGAP
 40
1.600000023841857
  9
$DIMJUST
 70
     0
  9
$DIMSD1
 70
     0
  9
$DIMSD2
 70
     0
  9
$DIMTOLJ
 70
     1
  9
$DIMTZIN
 70
     0
  9
$DIMALTZ
 70
     0
  9
$DIMALTTZ
 70
     0
  9
$DIMUPT
 70
     0
  9
$DIMDEC
 70
     4
  9
$DIMTDEC
 70
     4
  9
$DIMALTU
 70
     2
  9
$DIMALTTD
 70
     2
  9
$DIMTXSTY
  7
STANDARD
  9
$DIMAUNIT
 70
     0
  9
$DIMADEC
 70
     0
  9
$DIMALTRND
 40
0.0
  9
$DIMAZIN
 70
     0
  9
$DIMDSEP
 70
    46
  9
$DIMATFIT
 70
     3
  9
$DIMFRAC
 70
     0
  9
$DIMLDRBLK
  1

  9
$DIMLUNIT
 70
     2
  9
$DIMLWD
 70
    -2
  9
$DIMLWE
 70
    -2
  9
$DIMTMOVE
 70
     0
  9
$LUNITS
 70
     2
  9
$LUPREC
 70
     4
  9
$SKETCHINC
 40
0.1
  9
$FILLETRAD
 40
0.0
  9
$AUNITS
 70
     0
  9
$AUPREC
 70
     0
  9
$MENU
  1
.
  9
$ELEVATION
 40
0.0
  9
$PELEVATION
 40
0.0
  9
$THICKNESS
 40
0.0
  9
$LIMCHECK
 70
     0
  9
$CHAMFERA
 40
0.0
  9
$CHAMFERB
 40
0.0
  9
$CHAMFERC
 40
0.0
  9
$CHAMFERD
 40
0.0
  9
$SKPOLY
 70
     0
  9
$TDCREATE
 40
2452717.604314595
  9
$TDUCREATE
 40
2452717.229314595
  9
$TDUPDATE
 40
2456899.681885671
  9
$TDUUPDATE
 40
2456899.306885671
  9
$TDINDWG
 40
0.0987883333
  9
$TDUSRTIMER
 40
0.0987881597
  9
$USRTIMER
 70
     1
  9
$ANGBASE
 50
0.0
  9
$ANGDIR
 70
     0
  9
$PDMODE
 70
     0
  9
$PDSIZE
 40
0.0
  9
$PLINEWID
 40
0.0
  9
$SPLFRAME
 70
     0
  9
$SPLINETYPE
 70
     6
  9
$SPLINESEGS
 70
     8
  9
$HANDSEED
  5
26C8
  9
$SURFTAB1
 70
     6
  9
$SURFTAB2
 70
     6
  9
$SURFTYPE
 70
     6
  9
$SURFU
 70
     6
  9
$SURFV
 70
     6
  9
$UCSBASE
  2

  9
$UCSNAME
  2

  9
$UCSORG
 10
0.0
 20
0.0
 30
0.0
  9
$UCSXDIR
 10
1.0
 20
0.0
 30
0.0
  9
$UCSYDIR
 10
0.0
 20
1.0
 30
0.0
  9
$UCSORTHOREF
  2

  9
$UCSORTHOVIEW
 70
     0
  9
$UCSORGTOP
 10
0.0
 20
0.0
 30
0.0
  9
$UCSORGBOTTOM
 10
0.0
 20
0.0
 30
0.0
  9
$UCSORGLEFT
 10
0.0
 20
0.0
 30
0.0
  9
$UCSORGRIGHT
 10
0.0
 20
0.0
 30
0.0
  9
$UCSORGFRONT
 10
0.0
 20
0.0
 30
0.0
  9
$UCSORGBACK
 10
0.0
 20
0.0
 30
0.0
  9
$PUCSBASE
  2

  9
$PUCSNAME
  2

  9
$PUCSORG
 10
0.0
 20
0.0
 30
0.0
  9
$PUCSXDIR
 10
1.0
 20
0.0
 30
0.0
  9
$PUCSYDIR
 10
0.0
 20
1.0
 30
0.0
  9
$PUCSORTHOREF
  2

  9
$PUCSORTHOVIEW
 70
     0
  9
$PUCSORGTOP
 10
0.0
 20
0.0
 30
0.0
  9
$PUCSORGBOTTOM
 10
0.0
 20
0.0
 30
0.0
  9
$PUCSORGLEFT
 10
0.0
 20
0.0
 30
0.0
  9
$PUCSORGRIGHT
 10
0.0
 20
0.0
 30
0.0
  9
$PUCSORGFRONT
 10
0.0
 20
0.0
 30
0.0
  9
$PUCSORGBACK
 10
0.0
 20
0.0
 30
0.0
  9
$USERI1
 70
     0
  9
$USERI2
 70
     0
  9
$USERI3
 70
     0
  9
$USERI4
 70
     0
  9
$USERI5
 70
     0
  9
$USERR1
 40
0.0
  9
$USERR2
 40
0.0
  9
$USERR3
 40
0.0
  9
$USERR4
 40
0.0
  9
$USERR5
 40
0.0
  9
$WORLDVIEW
 70
     1
  9
$SHADEDGE
 70
     3
  9
$SHADEDIF
 70
    70
  9
$TILEMODE
 70
     1
  9
$MAXACTVP
 70
    48
  9
$PINSBASE
 10
0.0
 20
0.0
 30
0.0
  9
$PLIMCHECK
 70
     0
  9
$PEXTMIN
 10
-580.5701293945312
 20
0.0
 30
0.0
  9
$PEXTMAX
 10
0.0
 20
407.8999938964844
 30
0.0
  9
$PLIMMIN
 10
-580.5701293945312
 20
0.0
  9
$PLIMMAX
 10
0.0
 20
407.8999938964844
  9
$UNITMODE
 70
     0
  9
$VISRETAIN
 70
     1
  9
$PLINEGEN
 70
     0
  9
$PSLTSCALE
 70
     1
  9
$TREEDEPTH
 70
  3020
  9
$CMLSTYLE
  2
Standard
  9
$CMLJUST
 70
     0
  9
$CMLSCALE
 40
1.0
  9
$PROXYGRAPHICS
 70
     1
  9
$MEASUREMENT
 70
     0
  9
$CELWEIGHT
370
    -1
  9
$ENDCAPS
280
     0
  9
$JOINSTYLE
280
     0
  9
$LWDISPLAY
290
     0
  9
$INSUNITS
 70
     0
  9
$HYPERLINKBASE
  1

  9
$STYLESHEET
  1

  9
$XEDIT
290
     1
  9
$CEPSNTYPE
380
     0
  9
$PSTYLEMODE
290
     1
  9
$FINGERPRINTGUID
  2
{31BFCEB1-D8C2-4FDF-8F8F-0717D1BB5B4B}
  9
$VERSIONGUID
  2
{A6E0E148-597A-450A-BE33-3DD4E1FE1C67}
  9
$EXTNAMES
290
     1
  9
$PSVPSCALE
 40
0.0
  9
$OLESTARTUP
290
     0
  0
ENDSEC
  0
SECTION
  2
CLASSES
  0
CLASS
  1
ACDBDICTIONARYWDFLT
  2
AcDbDictionaryWithDefault
  3
AutoCAD 2000
 90
        0
280
     0
281
     0
  0
CLASS
  1
ACDBPLACEHOLDER
  2
AcDbPlaceHolder
  3
AutoCAD 2000
 90
        0
280
     0
281
     0
  0
CLASS
  1
LAYOUT
  2
AcDbLayout
  3
AutoCAD 2000
 90
        0
280
     0
281
     0
  0
CLASS
  1
DICTIONARYVAR
  2
AcDbDictionaryVar
  3
AutoCAD 2000
 90
        0
280
     0
281
     0
  0
CLASS
  1
LONG_TRANSACTION
  2
AcDbLongTransaction
  3
AutoCAD 2000
 90
    32768
280
     0
281
     0
  0
CLASS
  1
LWPOLYLINE
  2
AcDbPolyline
  3
AutoCAD 2000
 90
    32768
280
     0
281
     1
  0
CLASS
  1
HATCH
  2
AcDbHatch
  3
AutoCAD 2000
 90
    32768
280
     0
281
     1
  0
CLASS
  1
XRECORD
  2
AcDbXrecord
  3
AutoCAD 2000
 90
    32768
280
     0
281
     0
  0
ENDSEC
  0
SECTION
  2
TABLES
  0
TABLE
  2
VPORT
  5
2652
330
0
100
AcDbSymbolTable
 70
     2
  0
VPORT
  5
26C7
330
2652
100
AcDbSymbolTableRecord
100
AcDbViewportTableRecord
  2
*Active
 70
     0
 10
0.0
 20
0.0
 11
1.0
 21
1.0
 12
464.02792571208
 22
806.9477274339321
 13
0.0
 23
0.0
 14
1.0
 24
1.0
 15
0.0
 25
0.0
 16
0.0
 26
0.0
 36
1.0
 17
0.0
 27
0.0
 37
0.0
 40
1141.474017917657
 41
1.592161016949152
 42
50.0
 43
0.0
 44
0.0
 50
0.0
 51
0.0
 71
     0
 72
   100
 73
     1
 74
     3
 75
     0
 76
     0
 77
     0
 78
     0
281
     0
 65
     1
110
0.0
120
0.0
130
0.0
111
1.0
121
0.0
131
0.0
112
0.0
122
1.0
132
0.0
 79
     0
146
0.0
  0
ENDTAB
  0
TABLE
  2
LTYPE
  5
264F
330
0
100
AcDbSymbolTable
 70
     2
  0
LTYPE
  5
265D
330
264F
100
AcDbSymbolTableRecord
100
AcDbLinetypeTableRecord
  2
ByBlock
 70
     0
  3

 72
    65
 73
     0
 40
0.0
  0
LTYPE
  5
265E
330
264F
100
AcDbSymbolTableRecord
100
AcDbLinetypeTableRecord
  2
ByLayer
 70
     0
  3

 72
    65
 73
     0
 40
0.0
  0
LTYPE
  5
265F
330
264F
100
AcDbSymbolTableRecord
100
AcDbLinetypeTableRecord
  2
CONTINUOUS
 70
     0
  3
Solid line
 72
    65
 73
     0
 40
0.0
  0
LTYPE
  5
26B4
330
264F
100
AcDbSymbolTableRecord
100
AcDbLinetypeTableRecord
  2
CENTER
 70
     0
  3
__ . __
 72
    65
 73
     4
 40
7.0
 49
4.0
 74
     0
 49
-1.0
 74
     0
 49
1.0
 74
     0
 49
-1.0
 74
     0
  0
ENDTAB
  0
TABLE
  2
LAYER
  5
264C
102
{ACAD_XDICTIONARY
360
26B5
102
}
330
0
100
AcDbSymbolTable
 70
     2
  0
LAYER
  5
265A
330
264C
100
AcDbSymbolTableRecord
100
AcDbLayerTableRecord
  2
0
 70
     0
 62
     7
  6
CONTINUOUS
370
    -3
390
2659
  0
LAYER
  5
266D
330
264C
100
AcDbSymbolTableRecord
100
AcDbLayerTableRecord
  2
DEFPOINTS
 70
     0
 62
     7
  6
CONTINUOUS
290
     0
370
    -3
390
2659
  0
ENDTAB
  0
TABLE
  2
STYLE
  5
264D
330
0
100
AcDbSymbolTable
 70
     1
  0
STYLE
  5
265B
330
264D
100
AcDbSymbolTableRecord
100
AcDbTextStyleTableRecord
  2
STANDARD
 70
     0
 40
0.0
 41
1.0
 50
0.0
 71
     0
 42
0.2
  3
txt
  4
BIGFONT
  0
ENDTAB
  0
TABLE
  2
VIEW
  5
2650
330
0
100
AcDbSymbolTable
 70
     0
  0
ENDTAB
  0
TABLE
  2
UCS
  5
2651
330
0
100
AcDbSymbolTable
 70
     0
  0
ENDTAB
  0
TABLE
  2
APPID
  5
2653
330
0
100
AcDbSymbolTable
 70
     4
  0
APPID
  5
265C
330
2653
100
AcDbSymbolTableRecord
100
AcDbRegAppTableRecord
  2
ACAD
 70
     0
  0
APPID
  5
266E
330
2653
100
AcDbSymbolTableRecord
100
AcDbRegAppTableRecord
  2
MCAD_NO_VIS
 70
     0
  0
APPID
  5
266F
330
2653
100
AcDbSymbolTableRecord
100
AcDbRegAppTableRecord
  2
ACAD_TEMP_GRAPHIC
 70
     0
  0
APPID
  5
2670
330
2653
100
AcDbSymbolTableRecord
100
AcDbRegAppTableRecord
  2
ACATTRIBSERVICES
 70
     0
  0
ENDTAB
  0
TABLE
  2
DIMSTYLE
  5
2654
330
0
100
AcDbSymbolTable
 70
     1
100
AcDbDimStyleTable
 71
     0
  0
DIMSTYLE
105
2671
330
2654
100
AcDbSymbolTableRecord
100
AcDbDimStyleTableRecord
  2
STANDARD
 70
     0
279
     2
340
265B
  0
ENDTAB
  0
TABLE
  2
BLOCK_RECORD
  5
264B
330
0
100
AcDbSymbolTable
 70
     2
  0
BLOCK_RECORD
  5
2668
102
{ACAD_XDICTIONARY
360
267A
102
}
330
264B
100
AcDbSymbolTableRecord
100
AcDbBlockTableRecord
  2
*Model_Space
340
266B
  0
BLOCK_RECORD
  5
2664
102
{ACAD_XDICTIONARY
360
267C
102
}
330
264B
100
AcDbSymbolTableRecord
100
AcDbBlockTableRecord
  2
*Paper_Space
340
2667
  0
BLOCK_RECORD
  5
2674
330
264B
100
AcDbSymbolTableRecord
100
AcDbBlockTableRecord
  2
$MODEL_SPACE
340
0
  0
BLOCK_RECORD
  5
2676
330
264B
100
AcDbSymbolTableRecord
100
AcDbBlockTableRecord
  2
$PAPER_SPACE
340
0
  0
ENDTAB
  0
ENDSEC
  0
SECTION
  2
BLOCKS
  0
BLOCK
  5
2669
330
2668
100
AcDbEntity
  8
0
100
AcDbBlockBegin
  2
*Model_Space
 70
     0
 10
0.0
 20
0.0
 30
0.0
  3
*Model_Space
  1

  0
ENDBLK
  5
266A
330
2668
100
AcDbEntity
  8
0
100
AcDbBlockEnd
  0
BLOCK
  5
2665
330
2664
100
AcDbEntity
 67
     1
  8
0
100
AcDbBlockBegin
  2
*Paper_Space
 70
     0
 10
0.0
 20
0.0
 30
0.0
  3
*Paper_Space
  1

  0
ENDBLK
  5
2666
330
2664
100
AcDbEntity
 67
     1
  8
0
100
AcDbBlockEnd
  0
BLOCK
  5
2675
330
2674
100
AcDbEntity
  8
0
100
AcDbBlockBegin
  2
$MODEL_SPACE
 70
     0
 10
0.0
 20
0.0
 30
0.0
  3
$MODEL_SPACE
  1

  0
ENDBLK
  5
25C7
330
2674
100
AcDbEntity
  8
0
100
AcDbBlockEnd
  0
BLOCK
  5
2677
330
2676
100
AcDbEntity
  8
0
100
AcDbBlockBegin
  2
$PAPER_SPACE
 70
     0
 10
0.0
 20
0.0
 30
0.0
  3
$PAPER_SPACE
  1

  0
ENDBLK
  5
25C3
330
2676
100
AcDbEntity
  8
0
100
AcDbBlockEnd
  0
ENDSEC
  0
SECTION
  2
ENTITIES
  0
LINE
  5
20BA
330
2668
100
AcDbEntity
  8
0
100
AcDbLine
 10
498.2707797994279
 20
444.1542249395824
 30
0.0
 11
498.2707797994276
 21
361.104206629036
 31
0.0
  0
LINE
  5
20BB
330
2668
100
AcDbEntity
  8
0
  6
Continuous
100
AcDbLine
 10
341.2959783264643
 20
366.1042066290356
 30
0.0
 11
341.2959472031333
 21
442.4042249395816
 31
0.0
  0
LINE
  5
20BC
330
2668
100
AcDbEntity
  8
0
100
AcDbLine
 10
393.270810317006
 20
444.1542249395824
 30
0.0
 11
393.2708103170056
 21
361.1042066290347
 31
0.0
  0
LINE
  5
20BD
330
2668
100
AcDbEntity
  8
0
100
AcDbLine
 10
335.770810317006
 20
358.7542005255198
 30
0.0
 11
335.770810317006
 21
449.7542005255199
 31
0.0
  0
LINE
  5
20BE
330
2668
100
AcDbEntity
  8
0
100
AcDbLine
 10
498.2707797994276
 20
361.104206629036
 30
0.0
 11
393.2708103170056
 21
361.1042066290347
 31
0.0
  0
LINE
  5
20BF
330
2668
100
AcDbEntity
  8
0
100
AcDbLine
 10
341.2959783264643
 20
366.1042066290356
 30
0.0
 11
393.270810317006
 21
366.1042066290356
 31
0.0
  0
LINE
  5
20C0
330
2668
100
AcDbEntity
  8
0
100
AcDbLine
 10
335.770810317006
 20
358.7542005255198
 30
0.0
 11
338.6207947873153
 21
358.7542005255198
 31
0.0
  0
LINE
  5
20C1
330
2668
100
AcDbEntity
  8
0
100
AcDbLine
 10
338.6207947873153
 20
358.7542005255198
 30
0.0
 11
341.2959783264643
 21
366.1042066290356
 31
0.0
  0
LINE
  5
20C2
330
2668
100
AcDbEntity
  8
0
  6
Continuous
100
AcDbLine
 10
407.6208164205212
 20
299.7793857269153
 30
0.0
 11
483.9208042134909
 21
299.7793882163954
 31
0.0
  0
LINE
  5
20C3
330
2668
100
AcDbEntity
  8
0
100
AcDbLine
 10
400.2708103170061
 20
294.2542005255198
 30
0.0
 11
491.2707797994279
 21
294.2542005255198
 31
0.0
  0
LINE
  5
20C4
330
2668
100
AcDbEntity
  8
0
100
AcDbLine
 10
407.6208164205212
 20
299.7793857269153
 30
0.0
 11
407.6208164205216
 21
357.1493540141272
 31
0.0
  0
LINE
  5
20C5
330
2668
100
AcDbEntity
  8
0
100
AcDbLine
 10
400.2708103170065
 20
297.1042021877669
 30
0.0
 11
407.6208164205212
 21
299.7793857269153
 31
0.0
  0
LINE
  5
20C6
330
2668
100
AcDbEntity
  8
0
100
AcDbLine
 10
400.2708103170061
 20
294.2542005255198
 30
0.0
 11
400.2708103170065
 21
297.1042021877669
 31
0.0
  0
LINE
  5
20C7
330
2668
100
AcDbEntity
  8
0
100
AcDbLine
 10
400.7708108780001
 20
361.1042066290351
 30
0.0
 11
407.6208164205216
 21
357.1493540141272
 31
0.0
  0
LINE
  5
20C8
330
2668
100
AcDbEntity
  8
0
100
AcDbLine
 10
483.9208042134909
 20
299.7793882163954
 30
0.0
 11
483.9208042134905
 21
357.1493517179172
 31
0.0
  0
LINE
  5
20C9
330
2668
100
AcDbEntity
  8
0
100
AcDbLine
 10
491.2707797994279
 20
294.2542005255198
 30
0.0
 11
491.2707797994279
 21
297.1042157847377
 31
0.0
  0
LINE
  5
20CA
330
2668
100
AcDbEntity
  8
0
100
AcDbLine
 10
491.2707797994279
 20
297.1042157847377
 30
0.0
 11
483.9208042134909
 21
299.7793882163954
 31
0.0
  0
LINE
  5
20CB
330
2668
100
AcDbEntity
  8
0
100
AcDbLine
 10
490.7708137331618
 20
361.104206629036
 30
0.0
 11
483.9208042134905
 21
357.1493517179172
 31
0.0
  0
LINE
  5
20CC
330
2668
100
AcDbEntity
  8
0
100
AcDbLine
 10
513.270779799428
 20
444.1542249395828
 30
0.0
 11
378.270779799428
 21
444.1542249395824
 31
0.0
  0
LINE
  5
20CD
330
2668
100
AcDbEntity
  8
0
100
AcDbLine
 10
513.270779799428
 20
462.6542249395828
 30
0.0
 11
378.270779799428
 21
462.6542249395822
 31
0.0
  0
LINE
  5
20CE
330
2668
100
AcDbEntity
  8
0
100
AcDbLine
 10
378.270779799428
 20
462.6542249395822
 30
0.0
 11
378.270779799428
 21
444.1542249395824
 31
0.0
  0
LINE
  5
20CF
330
2668
100
AcDbEntity
  8
0
100
AcDbLine
 10
341.2959472031333
 20
442.4042249395816
 30
0.0
 11
393.270810317006
 21
442.4042249395824
 31
0.0
  0
LINE
  5
20D0
330
2668
100
AcDbEntity
  8
0
100
AcDbLine
 10
335.770810317006
 20
449.7542005255199
 30
0.0
 11
338.6207747714755
 21
449.7542005255199
 31
0.0
  0
LINE
  5
20D1
330
2668
100
AcDbEntity
  8
0
100
AcDbLine
 10
338.6207747714755
 20
449.7542005255199
 30
0.0
 11
341.2959472031333
 21
442.4042249395816
 31
0.0
  0
LINE
  5
20D4
330
2668
100
AcDbEntity
  8
0
100
AcDbLine
 10
513.270779799428
 20
462.6542249395828
 30
0.0
 11
513.270779799428
 21
444.1542249395828
 31
0.0
  0
LINE
  5
20D5
330
2668
100
AcDbEntity
  8
0
100
AcDbLine
 10
485.7707645406389
 20
555.904209166704
 30
0.0
 11
485.7707645406389
 21
462.6542249395826
 31
0.0
  0
LINE
  5
20D6
330
2668
100
AcDbEntity
  8
0
100
AcDbLine
 10
405.7707721700334
 20
462.6542249395826
 30
0.0
 11
405.7707721700334
 21
555.904209166704
 31
0.0
  0
CIRCLE
  5
20D7
330
2668
100
AcDbEntity
  8
0
  6
Continuous
100
AcDbCircle
 10
445.770768355336
 20
1146.343263296007
 30
0.0
 40
67.74999618530364
  0
LINE
  5
20D8
330
2668
100
AcDbEntity
  8
0
100
AcDbLine
 10
378.0207721700334
 20
577.9042551963904
 30
0.0
 11
513.5207645406389
 21
577.9042551963904
 31
0.0
  0
LINE
  5
20D9
330
2668
100
AcDbEntity
  8
0
100
AcDbLine
 10
378.0207721700334
 20
779.9042399376014
 30
0.0
 11
513.5207645406397
 21
779.9042399376014
 31
0.0
  0
LINE
  5
20DA
330
2668
100
AcDbEntity
  8
0
100
AcDbLine
 10
378.0207721700334
 20
578.2042735069373
 30
0.0
 11
378.0207721700334
 21
779.9042399376014
 31
0.0
  0
LINE
  5
20DB
330
2668
100
AcDbEntity
  8
0
100
AcDbLine
 10
393.270778234806
 20
555.904209166704
 30
0.0
 11
498.27078136405
 21
555.904209166704
 31
0.0
  0
LINE
  5
20DC
330
2668
100
AcDbEntity
  8
0
100
AcDbLine
 10
393.270778234806
 20
572.9042096733429
 30
0.0
 11
498.27078136405
 21
572.9042096733429
 31
0.0
  0
LINE
  5
20DD
330
2668
100
AcDbEntity
  8
0
100
AcDbLine
 10
405.7707721700334
 20
572.9042096733429
 30
0.0
 11
405.7707721700334
 21
578.2042735069373
 31
0.0
  0
LINE
  5
20DE
330
2668
100
AcDbEntity
  8
0
100
AcDbLine
 10
393.270778234806
 20
555.904209166704
 30
0.0
 11
393.270778234806
 21
572.9042096733429
 31
0.0
  0
LINE
  5
20DF
330
2668
100
AcDbEntity
  8
0
100
AcDbLine
 10
498.27078136405
 20
555.904209166704
 30
0.0
 11
498.27078136405
 21
572.9042096733429
 31
0.0
  0
LINE
  5
20E0
330
2668
100
AcDbEntity
  8
0
100
AcDbLine
 10
485.7707645406389
 20
577.9042551963904
 30
0.0
 11
485.7707645406389
 21
572.9042096733429
 31
0.0
  0
LINE
  5
20E8
330
2668
100
AcDbEntity
  8
0
100
AcDbLine
 10
513.5207645406389
 20
577.9042551963904
 30
0.0
 11
513.5207645406397
 21
779.9042399376014
 31
0.0
  0
LINE
  5
212C
330
2668
100
AcDbEntity
  8
0
100
AcDbLine
 10
335.7707988729143
 20
1100.843263296008
 30
0.0
 11
335.7707988729143
 21
1191.843263296008
 31
0.0
  0
LINE
  5
212D
330
2668
100
AcDbEntity
  8
0
  6
Continuous
100
AcDbLine
 10
341.2959668823726
 20
1108.193269399523
 30
0.0
 11
341.2959357590416
 21
1184.493287710069
 31
0.0
  0
LINE
  5
212E
330
2668
100
AcDbEntity
  8
0
100
AcDbLine
 10
341.2959668823726
 20
1108.193269399523
 30
0.0
 11
389.782912986454
 21
1108.193269399523
 31
0.0
  0
LINE
  5
212F
330
2668
100
AcDbEntity
  8
0
100
AcDbLine
 10
338.6207833432234
 20
1100.843263296008
 30
0.0
 11
341.2959668823726
 21
1108.193269399523
 31
0.0
  0
LINE
  5
2130
330
2668
100
AcDbEntity
  8
0
100
AcDbLine
 10
335.7707988729143
 20
1100.843263296008
 30
0.0
 11
338.6207833432234
 21
1100.843263296008
 31
0.0
  0
LINE
  5
2132
330
2668
100
AcDbEntity
  8
0
100
AcDbLine
 10
341.2959357590416
 20
1184.493287710069
 30
0.0
 11
389.7829337810727
 21
1184.49328771007
 31
0.0
  0
LINE
  5
2133
330
2668
100
AcDbEntity
  8
0
100
AcDbLine
 10
338.6207633273838
 20
1191.843263296008
 30
0.0
 11
341.2959357590416
 21
1184.493287710069
 31
0.0
  0
LINE
  5
2134
330
2668
100
AcDbEntity
  8
0
100
AcDbLine
 10
335.7707988729143
 20
1191.843263296008
 30
0.0
 11
338.6207633273838
 21
1191.843263296008
 31
0.0
  0
LINE
  5
2249
330
2668
100
AcDbEntity
  8
0
  6
Continuous
100
AcDbLine
 10
550.2456006660363
 20
366.104217304206
 30
0.0
 11
550.2456239930792
 21
442.4042356147554
 31
0.0
  0
LINE
  5
224A
330
2668
100
AcDbEntity
  8
0
100
AcDbLine
 10
555.7707694265136
 20
358.7542117652485
 30
0.0
 11
555.7707601281905
 21
449.754211765248
 31
0.0
  0
LINE
  5
224B
330
2668
100
AcDbEntity
  8
0
100
AcDbLine
 10
550.2456006660363
 20
366.104217304206
 30
0.0
 11
498.2707686754948
 21
366.1042119934504
 31
0.0
  0
LINE
  5
224C
330
2668
100
AcDbEntity
  8
0
100
AcDbLine
 10
555.7707694265136
 20
358.7542117652485
 30
0.0
 11
552.9207849562046
 21
358.7542114740388
 31
0.0
  0
LINE
  5
224D
330
2668
100
AcDbEntity
  8
0
100
AcDbLine
 10
552.9207849562046
 20
358.7542114740388
 30
0.0
 11
550.2456006660363
 21
366.104217304206
 31
0.0
  0
LINE
  5
224E
330
2668
100
AcDbEntity
  8
0
100
AcDbLine
 10
550.2456239930792
 20
442.4042356147554
 30
0.0
 11
498.2707608792068
 21
442.4042303039969
 31
0.0
  0
LINE
  5
224F
330
2668
100
AcDbEntity
  8
0
100
AcDbLine
 10
555.7707601281905
 20
449.754211765248
 30
0.0
 11
552.920795673721
 21
449.7542114740403
 31
0.0
  0
LINE
  5
2250
330
2668
100
AcDbEntity
  8
0
100
AcDbLine
 10
552.920795673721
 20
449.7542114740403
 30
0.0
 11
550.2456239930792
 21
442.4042356147554
 31
0.0
  0
LINE
  5
2251
330
2668
100
AcDbEntity
  8
0
  6
Continuous
100
AcDbLine
 10
550.2455591481817
 20
1108.193280074692
 30
0.0
 11
550.2455824752249
 21
1184.493298385242
 31
0.0
  0
LINE
  5
2252
330
2668
100
AcDbEntity
  8
0
100
AcDbLine
 10
555.7707279086591
 20
1100.843274535735
 30
0.0
 11
555.7707186103364
 21
1191.843274535735
 31
0.0
  0
LINE
  5
2253
330
2668
100
AcDbEntity
  8
0
100
AcDbLine
 10
550.2455591481817
 20
1108.193280074692
 30
0.0
 11
501.7586130441007
 21
1108.193275120326
 31
0.0
  0
LINE
  5
2254
330
2668
100
AcDbEntity
  8
0
100
AcDbLine
 10
555.7707279086591
 20
1100.843274535735
 30
0.0
 11
552.92074343835
 21
1100.843274244524
 31
0.0
  0
LINE
  5
2255
330
2668
100
AcDbEntity
  8
0
100
AcDbLine
 10
552.92074343835
 20
1100.843274244524
 30
0.0
 11
550.2455591481817
 21
1108.193280074692
 31
0.0
  0
LINE
  5
2256
330
2668
100
AcDbEntity
  8
0
100
AcDbLine
 10
550.2455824752249
 20
1184.493298385242
 30
0.0
 11
501.7585844531942
 21
1184.49329343087
 31
0.0
  0
LINE
  5
2257
330
2668
100
AcDbEntity
  8
0
100
AcDbLine
 10
555.7707186103364
 20
1191.843274535735
 30
0.0
 11
552.9207541558668
 21
1191.843274244527
 31
0.0
  0
LINE
  5
2258
330
2668
100
AcDbEntity
  8
0
100
AcDbLine
 10
552.9207541558668
 20
1191.843274244527
 30
0.0
 11
550.2455824752249
 21
1184.493298385242
 31
0.0
  0
LINE
  5
2616
330
2668
100
AcDbEntity
  8
0
100
AcDbLine
 10
396.3556553553361
 20
898.4711599376012
 30
0.0
 11
391.7707703553363
 21
832.9042409376011
 31
0.0
  0
LINE
  5
2617
330
2668
100
AcDbEntity
  8
0
100
AcDbLine
 10
495.1858853553361
 20
898.4711599376012
 30
0.0
 11
499.7707703553365
 21
832.9042409376011
 31
0.0
  0
LINE
  5
2618
330
2668
100
AcDbEntity
  8
0
100
AcDbLine
 10
488.2707663553365
 20
779.9042399376014
 30
0.0
 11
403.2707703553368
 21
779.9042399376014
 31
0.0
  0
LINE
  5
2619
330
2668
100
AcDbEntity
  8
0
100
AcDbLine
 10
391.7707703553363
 20
832.9042399376014
 30
0.0
 11
391.7707703553363
 21
799.8228399376005
 31
0.0
  0
LINE
  5
261A
330
2668
100
AcDbEntity
  8
0
100
AcDbLine
 10
391.7707693553365
 20
799.8228409376012
 30
0.0
 11
403.2707763553361
 21
779.9042433201649
 31
0.0
  0
LINE
  5
261B
330
2668
100
AcDbEntity
  8
0
100
AcDbLine
 10
499.7707713553364
 20
799.8228409376012
 30
0.0
 11
488.2707653553366
 21
779.9042449719769
 31
0.0
  0
LINE
  5
261C
330
2668
100
AcDbEntity
  8
0
100
AcDbLine
 10
499.7707703553365
 20
832.9042399376014
 30
0.0
 11
499.7707703553365
 21
799.8228399376005
 31
0.0
  0
CIRCLE
  5
261D
330
2668
100
AcDbEntity
  8
0
100
AcDbCircle
 10
445.770768355336
 20
1146.343263296007
 30
0.0
 40
54.0
  0
CIRCLE
  5
261E
330
2668
100
AcDbEntity
  8
0
100
AcDbCircle
 10
445.770768355336
 20
1146.343263296007
 30
0.0
 40
54.0
  0
LINE
  5
261F
330
2668
100
AcDbEntity
  8
0
100
AcDbLine
 10
435.7707713553363
 20
940.9042399376014
 30
0.0
 11
455.7707723553371
 21
940.9042399376014
 31
0.0
  0
LINE
  5
2620
330
2668
100
AcDbEntity
  8
0
100
AcDbLine
 10
459.2707703553363
 20
907.9042399376014
 30
0.0
 11
432.2707703553368
 21
907.9042399376014
 31
0.0
  0
LINE
  5
2621
330
2668
100
AcDbEntity
  8
0
100
AcDbLine
 10
459.2707703553363
 20
901.613319937601
 30
0.0
 11
432.2707703553368
 21
901.613319937601
 31
0.0
  0
LINE
  5
2622
330
2668
100
AcDbEntity
  8
0
100
AcDbLine
 10
432.2707703553368
 20
901.613319937601
 30
0.0
 11
396.3556563553365
 21
898.4711499376013
 31
0.0
  0
LINE
  5
2623
330
2668
100
AcDbEntity
  8
0
100
AcDbLine
 10
435.7707713553363
 20
907.9042399376014
 30
0.0
 11
435.7707713553363
 21
940.9042399376014
 31
0.0
  0
LINE
  5
2624
330
2668
100
AcDbEntity
  8
0
100
AcDbLine
 10
432.2707703553368
 20
907.9042399376014
 30
0.0
 11
432.2707703553368
 21
901.613319937601
 31
0.0
  0
LINE
  5
2625
330
2668
100
AcDbEntity
  8
0
100
AcDbLine
 10
432.2707703553368
 20
906.9042299376013
 30
0.0
 11
432.2707703553368
 21
906.0418499376012
 31
0.0
  0
LINE
  5
2626
330
2668
100
AcDbEntity
  8
0
100
AcDbLine
 10
459.2707703553363
 20
901.613319937601
 30
0.0
 11
495.1858843553363
 21
898.4711499376013
 31
0.0
  0
LINE
  5
2627
330
2668
100
AcDbEntity
  8
0
100
AcDbLine
 10
455.7707723553371
 20
907.9042399376014
 30
0.0
 11
455.7707723553371
 21
940.9042399376014
 31
0.0
  0
LINE
  5
2628
330
2668
100
AcDbEntity
  8
0
100
AcDbLine
 10
459.2707703553363
 20
907.9042399376014
 30
0.0
 11
459.2707703553363
 21
901.613319937601
 31
0.0
  0
LINE
  5
2629
330
2668
100
AcDbEntity
  8
0
100
AcDbLine
 10
459.2707703553363
 20
906.9042399376014
 30
0.0
 11
459.2707703553363
 21
906.0418599376014
 31
0.0
  0
CIRCLE
  5
262A
330
2668
100
AcDbEntity
  8
0
100
AcDbCircle
 10
445.770768355336
 20
1146.343263296007
 30
0.0
 40
13.5
  0
CIRCLE
  5
262B
330
2668
100
AcDbEntity
  8
0
100
AcDbCircle
 10
445.770768355336
 20
1146.343263296007
 30
0.0
 40
9.999999
  0
CIRCLE
  5
262C
330
2668
100
AcDbEntity
  8
0
100
AcDbCircle
 10
445.770768355336
 20
1146.343263296007
 30
0.0
 40
13.5
  0
CIRCLE
  5
262D
330
2668
100
AcDbEntity
  8
0
100
AcDbCircle
 10
445.770768355336
 20
1146.343263296007
 30
0.0
 40
9.999999
  0
TEXT
  5
2636
330
2668
100
AcDbEntity
  8
0
  6
Continuous
100
AcDbText
 10
32.85500000000001
 20
1326.0
 30
0.0
 40
48.000002
  1
WTC__13MA100 3S
 41
1.32095
100
AcDbText
  0
LINE
  5
26BE
330
2668
100
AcDbEntity
  8
0
  6
CENTER
100
AcDbLine
 10
294.7446200089478
 20
1146.343263296007
 30
0.0
 11
596.7969167017242
 21
1146.343263296007
 31
0.0
  0
LINE
  5
26BF
330
2668
100
AcDbEntity
  8
0
  6
CENTER
100
AcDbLine
 10
445.770768355336
 20
1064.994600451361
 30
0.0
 11
445.770768355336
 21
1227.691926140655
 31
0.0
  0
LINE
  5
26C0
330
2668
100
AcDbEntity
  8
0
  6
CENTER
100
AcDbLine
 10
445.770779799428
 20
239.8970627292665
 30
0.0
 11
445.770779799428
 21
963.722323369569
 31
0.0
  0
LINE
  5
26C1
330
2668
100
AcDbEntity
  8
0
  6
CENTER
100
AcDbLine
 10
294.7446314530395
 20
404.2542005255199
 30
0.0
 11
596.7969281458159
 21
404.2542005255199
 31
0.0
  0
ENDSEC
  0
SECTION
  2
OBJECTS
  0
DICTIONARY
  5
2656
330
0
100
AcDbDictionary
281
     1
  3
ACAD_GROUP
350
2657
  3
ACAD_LAYOUT
350
2663
  3
ACAD_MLINESTYLE
350
2660
  3
ACAD_PLOTSETTINGS
350
2662
  3
ACAD_PLOTSTYLENAME
350
2658
  3
AcDbVariableDictionary
350
26AE
  0
DICTIONARY
  5
26B5
330
264C
100
AcDbDictionary
280
     1
281
     1
  3
ACAD_LAYERSTATES
360
26B6
  0
DICTIONARY
  5
267A
330
2668
100
AcDbDictionary
280
     1
281
     1
  3
ACAD_LAYOUTSELFREF
360
26A9
  0
DICTIONARY
  5
267C
330
2664
100
AcDbDictionary
280
     1
281
     1
  3
ACAD_LAYOUTSELFREF
360
26A8
  0
DICTIONARY
  5
2657
102
{ACAD_REACTORS
330
2656
102
}
330
2656
100
AcDbDictionary
281
     1
  0
DICTIONARY
  5
2663
102
{ACAD_REACTORS
330
2656
102
}
330
2656
100
AcDbDictionary
281
     1
  3
Model
350
266B
  3
ﾚｲｱｳﾄ1
350
2667
  0
DICTIONARY
  5
2660
102
{ACAD_REACTORS
330
2656
102
}
330
2656
100
AcDbDictionary
281
     1
  3
Standard
350
2661
  0
DICTIONARY
  5
2662
102
{ACAD_REACTORS
330
2656
102
}
330
2656
100
AcDbDictionary
281
     1
  0
ACDBDICTIONARYWDFLT
  5
2658
102
{ACAD_REACTORS
330
2656
102
}
330
2656
100
AcDbDictionary
281
     1
  3
Normal
350
2659
100
AcDbDictionaryWithDefault
340
2659
  0
DICTIONARY
  5
26AE
102
{ACAD_REACTORS
330
2656
102
}
330
2656
100
AcDbDictionary
281
     1
  3
DIMASSOC
350
26AF
  0
DICTIONARY
  5
26B6
102
{ACAD_REACTORS
330
26B5
102
}
330
26B5
100
AcDbDictionary
281
     1
  0
XRECORD
  5
26A9
102
{ACAD_REACTORS
330
267A
102
}
330
267A
100
AcDbXrecord
280
     1
340
2668
  0
XRECORD
  5
26A8
102
{ACAD_REACTORS
330
267C
102
}
330
267C
100
AcDbXrecord
280
     1
340
2664
  0
LAYOUT
  5
266B
102
{ACAD_REACTORS
330
2663
102
}
330
2663
100
AcDbPlotSettings
  1

  2
SII LP-2150 (D-SCAN C2)
  4

  6

 40
0.0
 41
0.0
 42
0.0
 43
0.0
 44
0.0
 45
0.0
 46
0.0
 47
0.0
 48
0.0
 49
0.0
140
0.0
141
0.0
142
1.0
143
1.0
 70
  1712
 72
     0
 73
     0
 74
     0
  7

 75
     0
147
1.0
148
0.0
149
0.0
100
AcDbLayout
  1
Model
 70
     1
 71
     0
 10
0.0
 20
0.0
 11
12.0
 21
9.0
 12
0.0
 22
0.0
 32
0.0
 14
0.0
 24
0.0
 34
0.0
 15
0.0
 25
0.0
 35
0.0
146
0.0
 13
0.0
 23
0.0
 33
0.0
 16
1.0
 26
0.0
 36
0.0
 17
0.0
 27
1.0
 37
0.0
 76
     0
330
2668
  0
LAYOUT
  5
2667
102
{ACAD_REACTORS
330
2663
102
}
330
2663
100
AcDbPlotSettings
  1

  2
SII LP-2150 (D-SCAN C2)
  4

  6

 40
0.0
 41
0.0
 42
0.0
 43
0.0
 44
0.0
 45
0.0
 46
0.0
 47
0.0
 48
0.0
 49
0.0
140
0.0
141
0.0
142
1.0
143
1.0
 70
   688
 72
     0
 73
     0
 74
     5
  7

 75
    16
147
1.0
148
0.0
149
0.0
100
AcDbLayout
  1
ﾚｲｱｳﾄ1
 70
     1
 71
     1
 10
-580.5701293945312
 20
0.0
 11
0.0
 21
407.8999938964844
 12
0.0
 22
0.0
 32
0.0
 14
-580.5701293945312
 24
0.0
 34
0.0
 15
0.0
 25
407.8999938964844
 35
0.0
146
0.0
 13
0.0
 23
0.0
 33
0.0
 16
1.0
 26
0.0
 36
0.0
 17
0.0
 27
1.0
 37
0.0
 76
     0
330
2664
  0
MLINESTYLE
  5
2661
102
{ACAD_REACTORS
330
2660
102
}
330
2660
100
AcDbMlineStyle
  2
STANDARD
 70
     0
  3

 62
   256
 51
90.0
 52
90.0
 71
     2
 49
0.5
 62
   256
  6
BYLAYER
 49
-0.5
 62
   256
  6
BYLAYER
  0
ACDBPLACEHOLDER
  5
2659
102
{ACAD_REACTORS
330
2658
102
}
330
2658
  0
DICTIONARYVAR
  5
26AF
102
{ACAD_REACTORS
330
26AE
102
}
330
26AE
100
DictionaryVariables
280
     0
  1
1
  0
ENDSEC
  0
EOF
