  0
SECTION
  2
HEADER
  9
$ACADVER
  1
AC1015
  9
$ACADMAINTVER
 70
    14
  9
$DWGCODEPAGE
  3
ANSI_932
  9
$INSBASE
 10
0.0
 20
0.0
 30
0.0
  9
$EXTMIN
 10
285.7393777032338
 20
104.5562003319127
 30
-0.0000000349181948
  9
$EXTMAX
 10
1137.681611672656
 20
1024.581954095559
 30
0.0000000814935746
  9
$LIMMIN
 10
-580.5701293945312
 20
0.0
  9
$LIMMAX
 10
0.0
 20
407.8999938964844
  9
$ORTHOMODE
 70
     0
  9
$REGENMODE
 70
     1
  9
$FILLMODE
 70
     1
  9
$QTEXTMODE
 70
     0
  9
$MIRRTEXT
 70
     1
  9
$LTSCALE
 40
1.0
  9
$ATTMODE
 70
     1
  9
$TEXTSIZE
 40
0.2
  9
$TRACEWID
 40
0.05
  9
$TEXTSTYLE
  7
STANDARD
  9
$CLAYER
  8
0
  9
$CELTYPE
  6
CONTINUOUS
  9
$CECOLOR
 62
   256
  9
$CELTSCALE
 40
1.0
  9
$DISPSILH
 70
     0
  9
$DIMSCALE
 40
1.0
  9
$DIMASZ
 40
1.0
  9
$DIMEXO
 40
2.54
  9
$DIMDLI
 40
0.38
  9
$DIMRND
 40
0.0
  9
$DIMDLE
 40
0.0
  9
$DIMEXE
 40
2.54
  9
$DIMTP
 40
0.0
  9
$DIMTM
 40
0.0
  9
$DIMTXT
 40
3.200000047683714
  9
$DIMCEN
 40
0.09
  9
$DIMTSZ
 40
0.0
  9
$DIMTOL
 70
     0
  9
$DIMLIM
 70
     0
  9
$DIMTIH
 70
     0
  9
$DIMTOH
 70
     0
  9
$DIMSE1
 70
     0
  9
$DIMSE2
 70
     0
  9
$DIMTAD
 70
     1
  9
$DIMZIN
 70
     0
  9
$DIMBLK
  1

  9
$DIMASO
 70
     1
  9
$DIMSHO
 70
     0
  9
$DIMPOST
  1

  9
$DIMAPOST
  1

  9
$DIMALT
 70
     0
  9
$DIMALTD
 70
     2
  9
$DIMALTF
 40
25.4
  9
$DIMLFAC
 40
1.0
  9
$DIMTOFL
 70
     0
  9
$DIMTVP
 40
1.0
  9
$DIMTIX
 70
     0
  9
$DIMSOXD
 70
     0
  9
$DIMSAH
 70
     1
  9
$DIMBLK1
  1

  9
$DIMBLK2
  1

  9
$DIMSTYLE
  2
STANDARD
  9
$DIMCLRD
 70
     0
  9
$DIMCLRE
 70
     0
  9
$DIMCLRT
 70
     0
  9
$DIMTFAC
 40
1.0
  9
$DIMGAP
 40
1.600000023841857
  9
$DIMJUST
 70
     0
  9
$DIMSD1
 70
     0
  9
$DIMSD2
 70
     0
  9
$DIMTOLJ
 70
     1
  9
$DIMTZIN
 70
     0
  9
$DIMALTZ
 70
     0
  9
$DIMALTTZ
 70
     0
  9
$DIMUPT
 70
     0
  9
$DIMDEC
 70
     4
  9
$DIMTDEC
 70
     4
  9
$DIMALTU
 70
     2
  9
$DIMALTTD
 70
     2
  9
$DIMTXSTY
  7
STANDARD
  9
$DIMAUNIT
 70
     0
  9
$DIMADEC
 70
     0
  9
$DIMALTRND
 40
0.0
  9
$DIMAZIN
 70
     0
  9
$DIMDSEP
 70
    46
  9
$DIMATFIT
 70
     3
  9
$DIMFRAC
 70
     0
  9
$DIMLDRBLK
  1

  9
$DIMLUNIT
 70
     2
  9
$DIMLWD
 70
    -2
  9
$DIMLWE
 70
    -2
  9
$DIMTMOVE
 70
     0
  9
$LUNITS
 70
     2
  9
$LUPREC
 70
     4
  9
$SKETCHINC
 40
0.1
  9
$FILLETRAD
 40
0.0
  9
$AUNITS
 70
     0
  9
$AUPREC
 70
     0
  9
$MENU
  1
.
  9
$ELEVATION
 40
0.0
  9
$PELEVATION
 40
0.0
  9
$THICKNESS
 40
0.0
  9
$LIMCHECK
 70
     0
  9
$CHAMFERA
 40
0.0
  9
$CHAMFERB
 40
0.0
  9
$CHAMFERC
 40
0.0
  9
$CHAMFERD
 40
0.0
  9
$SKPOLY
 70
     0
  9
$TDCREATE
 40
2452717.604314595
  9
$TDUCREATE
 40
2452717.229314595
  9
$TDUPDATE
 40
2456899.681860613
  9
$TDUUPDATE
 40
2456899.306860613
  9
$TDINDWG
 40
0.0986541898
  9
$TDUSRTIMER
 40
0.0986540046
  9
$USRTIMER
 70
     1
  9
$ANGBASE
 50
0.0
  9
$ANGDIR
 70
     0
  9
$PDMODE
 70
     0
  9
$PDSIZE
 40
0.0
  9
$PLINEWID
 40
0.0
  9
$SPLFRAME
 70
     0
  9
$SPLINETYPE
 70
     6
  9
$SPLINESEGS
 70
     8
  9
$HANDSEED
  5
26C7
  9
$SURFTAB1
 70
     6
  9
$SURFTAB2
 70
     6
  9
$SURFTYPE
 70
     6
  9
$SURFU
 70
     6
  9
$SURFV
 70
     6
  9
$UCSBASE
  2

  9
$UCSNAME
  2

  9
$UCSORG
 10
0.0
 20
0.0
 30
0.0
  9
$UCSXDIR
 10
1.0
 20
0.0
 30
0.0
  9
$UCSYDIR
 10
0.0
 20
1.0
 30
0.0
  9
$UCSORTHOREF
  2

  9
$UCSORTHOVIEW
 70
     0
  9
$UCSORGTOP
 10
0.0
 20
0.0
 30
0.0
  9
$UCSORGBOTTOM
 10
0.0
 20
0.0
 30
0.0
  9
$UCSORGLEFT
 10
0.0
 20
0.0
 30
0.0
  9
$UCSORGRIGHT
 10
0.0
 20
0.0
 30
0.0
  9
$UCSORGFRONT
 10
0.0
 20
0.0
 30
0.0
  9
$UCSORGBACK
 10
0.0
 20
0.0
 30
0.0
  9
$PUCSBASE
  2

  9
$PUCSNAME
  2

  9
$PUCSORG
 10
0.0
 20
0.0
 30
0.0
  9
$PUCSXDIR
 10
1.0
 20
0.0
 30
0.0
  9
$PUCSYDIR
 10
0.0
 20
1.0
 30
0.0
  9
$PUCSORTHOREF
  2

  9
$PUCSORTHOVIEW
 70
     0
  9
$PUCSORGTOP
 10
0.0
 20
0.0
 30
0.0
  9
$PUCSORGBOTTOM
 10
0.0
 20
0.0
 30
0.0
  9
$PUCSORGLEFT
 10
0.0
 20
0.0
 30
0.0
  9
$PUCSORGRIGHT
 10
0.0
 20
0.0
 30
0.0
  9
$PUCSORGFRONT
 10
0.0
 20
0.0
 30
0.0
  9
$PUCSORGBACK
 10
0.0
 20
0.0
 30
0.0
  9
$USERI1
 70
     0
  9
$USERI2
 70
     0
  9
$USERI3
 70
     0
  9
$USERI4
 70
     0
  9
$USERI5
 70
     0
  9
$USERR1
 40
0.0
  9
$USERR2
 40
0.0
  9
$USERR3
 40
0.0
  9
$USERR4
 40
0.0
  9
$USERR5
 40
0.0
  9
$WORLDVIEW
 70
     1
  9
$SHADEDGE
 70
     3
  9
$SHADEDIF
 70
    70
  9
$TILEMODE
 70
     1
  9
$MAXACTVP
 70
    48
  9
$PINSBASE
 10
0.0
 20
0.0
 30
0.0
  9
$PLIMCHECK
 70
     0
  9
$PEXTMIN
 10
-580.5701293945312
 20
0.0
 30
0.0
  9
$PEXTMAX
 10
0.0
 20
407.8999938964844
 30
0.0
  9
$PLIMMIN
 10
-580.5701293945312
 20
0.0
  9
$PLIMMAX
 10
0.0
 20
407.8999938964844
  9
$UNITMODE
 70
     0
  9
$VISRETAIN
 70
     1
  9
$PLINEGEN
 70
     0
  9
$PSLTSCALE
 70
     1
  9
$TREEDEPTH
 70
  3020
  9
$CMLSTYLE
  2
Standard
  9
$CMLJUST
 70
     0
  9
$CMLSCALE
 40
1.0
  9
$PROXYGRAPHICS
 70
     1
  9
$MEASUREMENT
 70
     0
  9
$CELWEIGHT
370
    -1
  9
$ENDCAPS
280
     0
  9
$JOINSTYLE
280
     0
  9
$LWDISPLAY
290
     0
  9
$INSUNITS
 70
     0
  9
$HYPERLINKBASE
  1

  9
$STYLESHEET
  1

  9
$XEDIT
290
     1
  9
$CEPSNTYPE
380
     0
  9
$PSTYLEMODE
290
     1
  9
$FINGERPRINTGUID
  2
{6E692E8B-6C36-46B4-82A8-299395594095}
  9
$VERSIONGUID
  2
{C50FDA66-739E-431F-A0C3-50C6E05A7E86}
  9
$EXTNAMES
290
     1
  9
$PSVPSCALE
 40
0.0
  9
$OLESTARTUP
290
     0
  0
ENDSEC
  0
SECTION
  2
CLASSES
  0
CLASS
  1
ACDBDICTIONARYWDFLT
  2
AcDbDictionaryWithDefault
  3
AutoCAD 2000
 90
        0
280
     0
281
     0
  0
CLASS
  1
ACDBPLACEHOLDER
  2
AcDbPlaceHolder
  3
AutoCAD 2000
 90
        0
280
     0
281
     0
  0
CLASS
  1
LAYOUT
  2
AcDbLayout
  3
AutoCAD 2000
 90
        0
280
     0
281
     0
  0
CLASS
  1
DICTIONARYVAR
  2
AcDbDictionaryVar
  3
AutoCAD 2000
 90
        0
280
     0
281
     0
  0
CLASS
  1
LONG_TRANSACTION
  2
AcDbLongTransaction
  3
AutoCAD 2000
 90
    32768
280
     0
281
     0
  0
CLASS
  1
LWPOLYLINE
  2
AcDbPolyline
  3
AutoCAD 2000
 90
    32768
280
     0
281
     1
  0
CLASS
  1
HATCH
  2
AcDbHatch
  3
AutoCAD 2000
 90
    32768
280
     0
281
     1
  0
CLASS
  1
XRECORD
  2
AcDbXrecord
  3
AutoCAD 2000
 90
    32768
280
     0
281
     0
  0
ENDSEC
  0
SECTION
  2
TABLES
  0
TABLE
  2
VPORT
  5
2650
330
0
100
AcDbSymbolTable
 70
     2
  0
VPORT
  5
26C6
330
2650
100
AcDbSymbolTableRecord
100
AcDbViewportTableRecord
  2
*Active
 70
     0
 10
0.0
 20
0.0
 11
1.0
 21
1.0
 12
711.7104946879451
 22
564.5690772137359
 13
0.0
 23
0.0
 14
1.0
 24
1.0
 15
0.0
 25
0.0
 16
0.0
 26
0.0
 36
1.0
 17
0.0
 27
0.0
 37
0.0
 40
925.8671871208758
 41
1.592161016949152
 42
50.0
 43
0.0
 44
0.0
 50
0.0
 51
0.0
 71
     0
 72
   100
 73
     1
 74
     3
 75
     0
 76
     0
 77
     0
 78
     0
281
     0
 65
     1
110
0.0
120
0.0
130
0.0
111
1.0
121
0.0
131
0.0
112
0.0
122
1.0
132
0.0
 79
     0
146
0.0
  0
ENDTAB
  0
TABLE
  2
LTYPE
  5
264D
330
0
100
AcDbSymbolTable
 70
     2
  0
LTYPE
  5
265B
330
264D
100
AcDbSymbolTableRecord
100
AcDbLinetypeTableRecord
  2
ByBlock
 70
     0
  3

 72
    65
 73
     0
 40
0.0
  0
LTYPE
  5
265C
330
264D
100
AcDbSymbolTableRecord
100
AcDbLinetypeTableRecord
  2
ByLayer
 70
     0
  3

 72
    65
 73
     0
 40
0.0
  0
LTYPE
  5
265D
330
264D
100
AcDbSymbolTableRecord
100
AcDbLinetypeTableRecord
  2
CONTINUOUS
 70
     0
  3
Solid line
 72
    65
 73
     0
 40
0.0
  0
LTYPE
  5
26B2
330
264D
100
AcDbSymbolTableRecord
100
AcDbLinetypeTableRecord
  2
CENTER
 70
     0
  3
__ . __
 72
    65
 73
     4
 40
7.0
 49
4.0
 74
     0
 49
-1.0
 74
     0
 49
1.0
 74
     0
 49
-1.0
 74
     0
  0
ENDTAB
  0
TABLE
  2
LAYER
  5
264A
102
{ACAD_XDICTIONARY
360
26B3
102
}
330
0
100
AcDbSymbolTable
 70
     2
  0
LAYER
  5
2658
330
264A
100
AcDbSymbolTableRecord
100
AcDbLayerTableRecord
  2
0
 70
     0
 62
     7
  6
CONTINUOUS
370
    -3
390
2657
  0
LAYER
  5
266B
330
264A
100
AcDbSymbolTableRecord
100
AcDbLayerTableRecord
  2
DEFPOINTS
 70
     0
 62
     7
  6
CONTINUOUS
290
     0
370
    -3
390
2657
  0
ENDTAB
  0
TABLE
  2
STYLE
  5
264B
330
0
100
AcDbSymbolTable
 70
     1
  0
STYLE
  5
2659
330
264B
100
AcDbSymbolTableRecord
100
AcDbTextStyleTableRecord
  2
STANDARD
 70
     0
 40
0.0
 41
1.0
 50
0.0
 71
     0
 42
0.2
  3
txt
  4
BIGFONT
  0
ENDTAB
  0
TABLE
  2
VIEW
  5
264E
330
0
100
AcDbSymbolTable
 70
     0
  0
ENDTAB
  0
TABLE
  2
UCS
  5
264F
330
0
100
AcDbSymbolTable
 70
     0
  0
ENDTAB
  0
TABLE
  2
APPID
  5
2651
330
0
100
AcDbSymbolTable
 70
     4
  0
APPID
  5
265A
330
2651
100
AcDbSymbolTableRecord
100
AcDbRegAppTableRecord
  2
ACAD
 70
     0
  0
APPID
  5
266C
330
2651
100
AcDbSymbolTableRecord
100
AcDbRegAppTableRecord
  2
MCAD_NO_VIS
 70
     0
  0
APPID
  5
266D
330
2651
100
AcDbSymbolTableRecord
100
AcDbRegAppTableRecord
  2
ACAD_TEMP_GRAPHIC
 70
     0
  0
APPID
  5
266E
330
2651
100
AcDbSymbolTableRecord
100
AcDbRegAppTableRecord
  2
ACATTRIBSERVICES
 70
     0
  0
ENDTAB
  0
TABLE
  2
DIMSTYLE
  5
2652
330
0
100
AcDbSymbolTable
 70
     1
100
AcDbDimStyleTable
 71
     0
  0
DIMSTYLE
105
266F
330
2652
100
AcDbSymbolTableRecord
100
AcDbDimStyleTableRecord
  2
STANDARD
 70
     0
279
     2
340
2659
  0
ENDTAB
  0
TABLE
  2
BLOCK_RECORD
  5
2649
330
0
100
AcDbSymbolTable
 70
     2
  0
BLOCK_RECORD
  5
2666
102
{ACAD_XDICTIONARY
360
2678
102
}
330
2649
100
AcDbSymbolTableRecord
100
AcDbBlockTableRecord
  2
*Model_Space
340
2669
  0
BLOCK_RECORD
  5
2662
102
{ACAD_XDICTIONARY
360
267A
102
}
330
2649
100
AcDbSymbolTableRecord
100
AcDbBlockTableRecord
  2
*Paper_Space
340
2665
  0
BLOCK_RECORD
  5
2672
330
2649
100
AcDbSymbolTableRecord
100
AcDbBlockTableRecord
  2
$MODEL_SPACE
340
0
  0
BLOCK_RECORD
  5
2674
330
2649
100
AcDbSymbolTableRecord
100
AcDbBlockTableRecord
  2
$PAPER_SPACE
340
0
  0
ENDTAB
  0
ENDSEC
  0
SECTION
  2
BLOCKS
  0
BLOCK
  5
2667
330
2666
100
AcDbEntity
  8
0
100
AcDbBlockBegin
  2
*Model_Space
 70
     0
 10
0.0
 20
0.0
 30
0.0
  3
*Model_Space
  1

  0
ENDBLK
  5
2668
330
2666
100
AcDbEntity
  8
0
100
AcDbBlockEnd
  0
BLOCK
  5
2663
330
2662
100
AcDbEntity
 67
     1
  8
0
100
AcDbBlockBegin
  2
*Paper_Space
 70
     0
 10
0.0
 20
0.0
 30
0.0
  3
*Paper_Space
  1

  0
ENDBLK
  5
2664
330
2662
100
AcDbEntity
 67
     1
  8
0
100
AcDbBlockEnd
  0
BLOCK
  5
2673
330
2672
100
AcDbEntity
  8
0
100
AcDbBlockBegin
  2
$MODEL_SPACE
 70
     0
 10
0.0
 20
0.0
 30
0.0
  3
$MODEL_SPACE
  1

  0
ENDBLK
  5
25C7
330
2672
100
AcDbEntity
  8
0
100
AcDbBlockEnd
  0
BLOCK
  5
2675
330
2674
100
AcDbEntity
  8
0
100
AcDbBlockBegin
  2
$PAPER_SPACE
 70
     0
 10
0.0
 20
0.0
 30
0.0
  3
$PAPER_SPACE
  1

  0
ENDBLK
  5
25C3
330
2674
100
AcDbEntity
  8
0
100
AcDbBlockEnd
  0
ENDSEC
  0
SECTION
  2
ENTITIES
  0
LINE
  5
17D8
330
2666
100
AcDbEntity
  8
0
100
AcDbLine
 10
623.0296693060638
 20
188.4969895877906
 30
0.0
 11
623.0296693060638
 21
252.4970201053685
 31
0.0
  0
LINE
  5
17E1
330
2666
100
AcDbEntity
  8
0
100
AcDbLine
 10
743.1796784613377
 20
248.8969834842758
 30
0.0
 11
743.1796784613367
 21
190.3969834842756
 31
0.0
  0
LINE
  5
17E8
330
2666
100
AcDbEntity
  8
0
100
AcDbLine
 10
673.0296616766699
 20
138.4970201053695
 30
0.0
 11
737.0297150824316
 21
138.4970201053695
 31
0.0
  0
LINE
  5
17EB
330
2666
100
AcDbEntity
  8
0
100
AcDbLine
 10
743.1796784613367
 20
190.3969834842756
 30
0.0
 11
666.8796982977629
 21
190.3969834842756
 31
0.0
  0
LINE
  5
17ED
330
2666
100
AcDbEntity
  8
0
100
AcDbLine
 10
730.4296784613377
 20
143.7492377742296
 30
0.0
 11
730.4296784613377
 21
187.1638351083038
 31
0.0
  0
LINE
  5
17EF
330
2666
100
AcDbEntity
  8
0
100
AcDbLine
 10
737.0297150824316
 20
141.3470208130656
 30
0.0
 11
730.4296784613377
 21
143.7492377742296
 31
0.0
  0
LINE
  5
17F0
330
2666
100
AcDbEntity
  8
0
100
AcDbLine
 10
737.0297150824316
 20
138.4970201053695
 30
0.0
 11
737.0297150824316
 21
141.3470208130656
 31
0.0
  0
LINE
  5
17F4
330
2666
100
AcDbEntity
  8
0
100
AcDbLine
 10
736.0296556164183
 20
190.3969834842756
 30
0.0
 11
730.4296784613377
 21
187.1638351083038
 31
0.0
  0
LINE
  5
17F8
330
2666
100
AcDbEntity
  8
0
100
AcDbLine
 10
679.6296982977638
 20
143.7492093002647
 30
0.0
 11
679.6296982977638
 21
187.1637726176477
 31
0.0
  0
LINE
  5
17FD
330
2666
100
AcDbEntity
  8
0
100
AcDbLine
 10
673.0296616766699
 20
138.4970201053695
 30
0.0
 11
673.029661676669
 21
141.3469923391003
 31
0.0
  0
LINE
  5
1803
330
2666
100
AcDbEntity
  8
0
100
AcDbLine
 10
673.029661676669
 20
141.3469923391003
 30
0.0
 11
679.6296982977638
 21
143.7492093002647
 31
0.0
  0
LINE
  5
1805
330
2666
100
AcDbEntity
  8
0
100
AcDbLine
 10
628.2819085972869
 20
245.8969834842756
 30
0.0
 11
666.8796982977629
 21
245.8969834842756
 31
0.0
  0
LINE
  5
1806
330
2666
100
AcDbEntity
  8
0
100
AcDbLine
 10
628.2818665023588
 20
195.0970262088843
 30
0.0
 11
666.8796982977629
 21
195.0970262088843
 31
0.0
  0
LINE
  5
182B
330
2666
100
AcDbEntity
  8
0
100
AcDbLine
 10
674.0296129056919
 20
190.3969834842756
 30
0.0
 11
679.6296982977638
 21
187.1637726176477
 31
0.0
  0
LINE
  5
182C
330
2666
100
AcDbEntity
  8
0
100
AcDbLine
 10
673.2258591864351
 20
190.3969834842756
 30
0.0
 11
669.8796982977629
 21
190.3969834842756
 31
0.0
  0
LINE
  5
1863
330
2666
100
AcDbEntity
  8
0
100
AcDbLine
 10
625.8796495411939
 20
188.4969895877906
 30
0.0
 11
628.2818665023588
 21
195.0970262088843
 31
0.0
  0
LINE
  5
1864
330
2666
100
AcDbEntity
  8
0
100
AcDbLine
 10
623.0296693060638
 20
188.4969895877906
 30
0.0
 11
625.8796495411939
 21
188.4969895877906
 31
0.0
  0
LINE
  5
1870
330
2666
100
AcDbEntity
  8
0
100
AcDbLine
 10
649.6296296332133
 20
511.3970063724585
 30
0.0
 11
760.4296441290615
 21
511.3970063724585
 31
0.0
  0
LINE
  5
187C
330
2666
100
AcDbEntity
  8
0
100
AcDbLine
 10
649.6296296332133
 20
346.8969987430636
 30
0.0
 11
760.4296441290615
 21
346.8969987430646
 31
0.0
  0
LINE
  5
1887
330
2666
100
AcDbEntity
  8
0
100
AcDbLine
 10
743.0296551797629
 20
326.1469985269983
 30
0.0
 11
743.0296551797629
 21
340.6469989591316
 31
0.0
  0
LINE
  5
188E
330
2666
100
AcDbEntity
  8
0
100
AcDbLine
 10
757.5296556118969
 20
248.8970137485357
 30
0.0
 11
757.5296556118969
 21
265.8970142551735
 31
0.0
  0
LINE
  5
189E
330
2666
100
AcDbEntity
  8
0
100
AcDbLine
 10
732.0296540472743
 20
265.8970142551735
 30
0.0
 11
732.0296540472743
 21
326.1469834842757
 31
0.0
  0
LINE
  5
18A0
330
2666
100
AcDbEntity
  8
0
100
AcDbLine
 10
760.4296441290615
 20
346.8969987430646
 30
0.0
 11
760.4296441290615
 21
511.3970063724585
 31
0.0
  0
LINE
  5
18A7
330
2666
100
AcDbEntity
  8
0
100
AcDbLine
 10
732.529646417881
 20
340.6470140018536
 30
0.0
 11
732.529646417881
 21
346.8969987430646
 31
0.0
  0
LINE
  5
18B3
330
2666
100
AcDbEntity
  8
0
100
AcDbLine
 10
667.0296529147868
 20
326.1469985269974
 30
0.0
 11
667.0296529147868
 21
340.6469989591316
 31
0.0
  0
LINE
  5
18C7
330
2666
100
AcDbEntity
  8
0
100
AcDbLine
 10
678.0296311590919
 20
265.8970142551729
 30
0.0
 11
678.0296311590919
 21
326.1469985269974
 31
0.0
  0
LINE
  5
1903
330
2666
100
AcDbEntity
  8
0
100
AcDbLine
 10
666.8796982977629
 20
248.8970137485333
 30
0.0
 11
666.8796982977629
 21
190.3969834842756
 31
0.0
  0
LINE
  5
1953
330
2666
100
AcDbEntity
  8
0
100
AcDbLine
 10
743.0296551797629
 20
326.1469985269983
 30
0.0
 11
667.0296529147868
 21
326.1469985269974
 31
0.0
  0
LINE
  5
195B
330
2666
100
AcDbEntity
  8
0
100
AcDbLine
 10
652.5296524826527
 20
248.8970137485333
 30
0.0
 11
652.5296524826527
 21
265.8970142551729
 31
0.0
  0
LINE
  5
195E
330
2666
100
AcDbEntity
  8
0
100
AcDbLine
 10
652.5296524826527
 20
248.8970137485333
 30
0.0
 11
757.5296556118969
 21
248.8970137485357
 31
0.0
  0
LINE
  5
1967
330
2666
100
AcDbEntity
  8
0
100
AcDbLine
 10
652.5296524826527
 20
265.8970142551729
 30
0.0
 11
757.5296556118969
 21
265.8970142551735
 31
0.0
  0
LINE
  5
1969
330
2666
100
AcDbEntity
  8
0
100
AcDbLine
 10
625.8796916361217
 20
252.4970201053685
 30
0.0
 11
628.2819085972869
 21
245.8969834842756
 31
0.0
  0
LINE
  5
196F
330
2666
100
AcDbEntity
  8
0
100
AcDbLine
 10
623.0296693060638
 20
252.4970201053685
 30
0.0
 11
625.8796916361217
 21
252.4970201053685
 31
0.0
  0
LINE
  5
1981
330
2666
100
AcDbEntity
  8
0
100
AcDbLine
 10
677.5296387884861
 20
340.6469989591316
 30
0.0
 11
677.5296387884861
 21
346.8969987430636
 31
0.0
  0
LINE
  5
1983
330
2666
100
AcDbEntity
  8
0
100
AcDbLine
 10
743.0296551797629
 20
340.6469989591316
 30
0.0
 11
667.0296529147868
 21
340.6469989591316
 31
0.0
  0
LINE
  5
1989
330
2666
100
AcDbEntity
  8
0
100
AcDbLine
 10
649.6296296332133
 20
346.8969987430636
 30
0.0
 11
649.6296296332133
 21
511.3970063724585
 31
0.0
  0
LINE
  5
19ED
330
2666
100
AcDbEntity
  8
0
  6
Continuous
100
AcDbLine
 10
628.2818665023588
 20
195.0970262088843
 30
0.0
 11
628.2819085972869
 21
245.8969834842756
 31
0.0
  0
LINE
  5
19EE
330
2666
100
AcDbEntity
  8
0
  6
Continuous
100
AcDbLine
 10
679.6296982977638
 20
143.7492093002647
 30
0.0
 11
730.4296784613377
 21
143.7492377742296
 31
0.0
  0
CIRCLE
  5
209E
330
2666
100
AcDbEntity
  8
0
  6
Continuous
100
AcDbCircle
 10
705.029688379551
 20
784.0499956468695
 30
0.0
 40
55.40000724792481
  0
LINE
  5
20A9
330
2666
100
AcDbEntity
  8
0
  6
Continuous
100
AcDbLine
 10
628.2819008346341
 20
758.6500170091743
 30
0.0
 11
628.2819429295617
 21
809.4499742845654
 31
0.0
  0
LINE
  5
20AA
330
2666
100
AcDbEntity
  8
0
100
AcDbLine
 10
625.8797259683979
 20
816.0500109056583
 30
0.0
 11
628.2819429295617
 21
809.4499742845654
 31
0.0
  0
LINE
  5
20AB
330
2666
100
AcDbEntity
  8
0
100
AcDbLine
 10
623.0297036383397
 20
816.0500109056583
 30
0.0
 11
625.8797259683979
 21
816.0500109056583
 31
0.0
  0
LINE
  5
20AC
330
2666
100
AcDbEntity
  8
0
100
AcDbLine
 10
623.0297036383397
 20
752.0499803880804
 30
0.0
 11
625.8796838734707
 21
752.0499803880804
 31
0.0
  0
LINE
  5
20AD
330
2666
100
AcDbEntity
  8
0
100
AcDbLine
 10
625.8796838734707
 20
752.0499803880804
 30
0.0
 11
628.2819008346341
 21
758.6500170091743
 31
0.0
  0
LINE
  5
20AE
330
2666
100
AcDbEntity
  8
0
100
AcDbLine
 10
623.0297036383397
 20
752.0499803880804
 30
0.0
 11
623.0297036383397
 21
816.0500109056583
 31
0.0
  0
LINE
  5
20AF
330
2666
100
AcDbEntity
  8
0
100
AcDbLine
 10
628.2819008346341
 20
758.6500170091743
 30
0.0
 11
655.79553470271
 21
758.6500170091743
 31
0.0
  0
LINE
  5
20B0
330
2666
100
AcDbEntity
  8
0
100
AcDbLine
 10
628.2819429295617
 20
809.4499742845654
 30
0.0
 11
655.79553470271
 21
809.449974284564
 31
0.0
  0
LINE
  5
2209
330
2666
100
AcDbEntity
  8
0
100
AcDbLine
 10
784.1796840639499
 20
188.4970042566166
 30
0.0
 11
781.7774658796053
 21
195.0970404325095
 31
0.0
  0
LINE
  5
220A
330
2666
100
AcDbEntity
  8
0
100
AcDbLine
 10
787.0296642990796
 20
188.4970047848025
 30
0.0
 11
787.0296524379918
 21
252.4970353023797
 31
0.0
  0
LINE
  5
220B
330
2666
100
AcDbEntity
  8
0
100
AcDbLine
 10
787.0296642990796
 20
188.4970047848025
 30
0.0
 11
784.1796840639499
 21
188.4970042566166
 31
0.0
  0
LINE
  5
220C
330
2666
100
AcDbEntity
  8
0
100
AcDbLine
 10
781.7774143699507
 20
245.8969977078918
 30
0.0
 11
743.1796246694739
 21
245.8969905545854
 31
0.0
  0
LINE
  5
220D
330
2666
100
AcDbEntity
  8
0
100
AcDbLine
 10
781.7774658796053
 20
195.0970404325095
 30
0.0
 11
743.179634084201
 21
195.0970332791955
 31
0.0
  0
LINE
  5
220E
330
2666
100
AcDbEntity
  8
0
  6
Continuous
100
AcDbLine
 10
781.7774658796053
 20
195.0970404325095
 30
0.0
 11
781.7774143699507
 21
245.8969977078918
 31
0.0
  0
LINE
  5
220F
330
2666
100
AcDbEntity
  8
0
100
AcDbLine
 10
784.1796301079337
 20
252.4970347741866
 30
0.0
 11
781.7774143699507
 21
245.8969977078918
 31
0.0
  0
LINE
  5
2210
330
2666
100
AcDbEntity
  8
0
100
AcDbLine
 10
787.0296524379918
 20
252.4970353023797
 30
0.0
 11
784.1796301079337
 21
252.4970347741866
 31
0.0
  0
LINE
  5
2211
330
2666
100
AcDbEntity
  8
0
100
AcDbLine
 10
787.0295505678584
 20
752.0499955850775
 30
0.0
 11
787.0295387067709
 21
816.0500261026554
 31
0.0
  0
LINE
  5
2212
330
2666
100
AcDbEntity
  8
0
  6
Continuous
100
AcDbLine
 10
781.7773521483841
 20
758.6500312327851
 30
0.0
 11
781.7773006387292
 21
809.4499885081676
 31
0.0
  0
LINE
  5
2213
330
2666
100
AcDbEntity
  8
0
100
AcDbLine
 10
781.7773521483841
 20
758.6500312327851
 30
0.0
 11
754.2637182803081
 21
758.6500261336992
 31
0.0
  0
LINE
  5
2214
330
2666
100
AcDbEntity
  8
0
100
AcDbLine
 10
784.1795703327287
 20
752.0499950568919
 30
0.0
 11
781.7773521483841
 21
758.6500312327851
 31
0.0
  0
LINE
  5
2215
330
2666
100
AcDbEntity
  8
0
100
AcDbLine
 10
787.0295505678584
 20
752.0499955850775
 30
0.0
 11
784.1795703327287
 21
752.0499950568919
 31
0.0
  0
LINE
  5
2216
330
2666
100
AcDbEntity
  8
0
100
AcDbLine
 10
781.7773006387292
 20
809.4499885081676
 30
0.0
 11
754.2637088655818
 21
809.4499834090893
 31
0.0
  0
LINE
  5
2217
330
2666
100
AcDbEntity
  8
0
100
AcDbLine
 10
787.0295387067709
 20
816.0500261026554
 30
0.0
 11
784.1795163767129
 21
816.0500255744624
 31
0.0
  0
LINE
  5
2218
330
2666
100
AcDbEntity
  8
0
100
AcDbLine
 10
784.1795163767129
 20
816.0500255744624
 30
0.0
 11
781.7773006387292
 21
809.4499885081676
 31
0.0
  0
LINE
  5
2616
330
2666
100
AcDbEntity
  8
0
100
AcDbLine
 10
655.6145238811368
 20
629.9639263724587
 30
0.0
 11
651.029638881137
 21
564.3970073724585
 31
0.0
  0
LINE
  5
2617
330
2666
100
AcDbEntity
  8
0
100
AcDbLine
 10
754.4447538811366
 20
629.9639263724587
 30
0.0
 11
759.0296388811371
 21
564.3970073724585
 31
0.0
  0
LINE
  5
2618
330
2666
100
AcDbEntity
  8
0
100
AcDbLine
 10
747.5296348811371
 20
511.3970063724585
 30
0.0
 11
662.5296388811376
 21
511.3970063724585
 31
0.0
  0
LINE
  5
2619
330
2666
100
AcDbEntity
  8
0
100
AcDbLine
 10
651.029638881137
 20
564.3970063724585
 30
0.0
 11
651.029638881137
 21
531.3156063724583
 31
0.0
  0
LINE
  5
261A
330
2666
100
AcDbEntity
  8
0
100
AcDbLine
 10
651.029637881137
 20
531.3156073724585
 30
0.0
 11
662.5296448811369
 21
511.3970097550223
 31
0.0
  0
LINE
  5
261B
330
2666
100
AcDbEntity
  8
0
100
AcDbLine
 10
759.029639881137
 20
531.3156073724585
 30
0.0
 11
747.5296338811372
 21
511.3970114068345
 31
0.0
  0
LINE
  5
261C
330
2666
100
AcDbEntity
  8
0
100
AcDbLine
 10
759.0296388811371
 20
564.3970063724585
 30
0.0
 11
759.0296388811371
 21
531.3156063724583
 31
0.0
  0
CIRCLE
  5
261D
330
2666
100
AcDbEntity
  8
0
100
AcDbCircle
 10
705.029688379551
 20
784.0499956468695
 30
0.0
 40
54.0
  0
CIRCLE
  5
261E
330
2666
100
AcDbEntity
  8
0
100
AcDbCircle
 10
705.029688379551
 20
784.0499956468695
 30
0.0
 40
54.0
  0
LINE
  5
261F
330
2666
100
AcDbEntity
  8
0
100
AcDbLine
 10
695.0296398811369
 20
672.3970063724585
 30
0.0
 11
715.0296408811376
 21
672.3970063724585
 31
0.0
  0
LINE
  5
2620
330
2666
100
AcDbEntity
  8
0
100
AcDbLine
 10
718.5296388811369
 20
639.3970063724585
 30
0.0
 11
691.5296388811376
 21
639.3970063724585
 31
0.0
  0
LINE
  5
2621
330
2666
100
AcDbEntity
  8
0
100
AcDbLine
 10
718.5296388811369
 20
633.1060863724585
 30
0.0
 11
691.5296388811376
 21
633.1060863724585
 31
0.0
  0
LINE
  5
2622
330
2666
100
AcDbEntity
  8
0
100
AcDbLine
 10
691.5296388811376
 20
633.1060863724585
 30
0.0
 11
655.6145248811372
 21
629.9639163724584
 31
0.0
  0
LINE
  5
2623
330
2666
100
AcDbEntity
  8
0
100
AcDbLine
 10
695.0296398811369
 20
639.3970063724585
 30
0.0
 11
695.0296398811369
 21
672.3970063724585
 31
0.0
  0
LINE
  5
2624
330
2666
100
AcDbEntity
  8
0
100
AcDbLine
 10
691.5296388811376
 20
639.3970063724585
 30
0.0
 11
691.5296388811376
 21
633.1060863724585
 31
0.0
  0
LINE
  5
2625
330
2666
100
AcDbEntity
  8
0
100
AcDbLine
 10
691.5296388811376
 20
638.3969963724587
 30
0.0
 11
691.5296388811376
 21
637.5346163724587
 31
0.0
  0
LINE
  5
2626
330
2666
100
AcDbEntity
  8
0
100
AcDbLine
 10
718.5296388811369
 20
633.1060863724585
 30
0.0
 11
754.4447528811368
 21
629.9639163724584
 31
0.0
  0
LINE
  5
2627
330
2666
100
AcDbEntity
  8
0
100
AcDbLine
 10
715.0296408811376
 20
639.3970063724585
 30
0.0
 11
715.0296408811376
 21
672.3970063724585
 31
0.0
  0
LINE
  5
2628
330
2666
100
AcDbEntity
  8
0
100
AcDbLine
 10
718.5296388811369
 20
639.3970063724585
 30
0.0
 11
718.5296388811369
 21
633.1060863724585
 31
0.0
  0
LINE
  5
2629
330
2666
100
AcDbEntity
  8
0
100
AcDbLine
 10
718.5296388811369
 20
638.3970063724587
 30
0.0
 11
718.5296388811369
 21
637.5346263724585
 31
0.0
  0
CIRCLE
  5
262A
330
2666
100
AcDbEntity
  8
0
100
AcDbCircle
 10
705.029688379551
 20
784.0499956468695
 30
0.0
 40
13.5
  0
CIRCLE
  5
262B
330
2666
100
AcDbEntity
  8
0
100
AcDbCircle
 10
705.029688379551
 20
784.0499956468695
 30
0.0
 40
9.999999
  0
CIRCLE
  5
262C
330
2666
100
AcDbEntity
  8
0
100
AcDbCircle
 10
705.029688379551
 20
784.0499956468695
 30
0.0
 40
13.5
  0
CIRCLE
  5
262D
330
2666
100
AcDbEntity
  8
0
100
AcDbCircle
 10
705.029688379551
 20
784.0499956468695
 30
0.0
 40
9.999999
  0
TEXT
  5
2634
330
2666
100
AcDbEntity
  8
0
  6
Continuous
100
AcDbText
 10
285.8281392195607
 20
976.5194146677149
 30
0.0
 40
48.000002
  1
WTC__10MA100 2S
 41
1.32095
100
AcDbText
  0
LINE
  5
26BD
330
2666
100
AcDbEntity
  8
0
  6
CENTER
100
AcDbLine
 10
591.2007966314655
 20
784.0499956468695
 30
0.0
 11
818.8585801276364
 21
784.0499956468695
 31
0.0
  0
LINE
  5
26BE
330
2666
100
AcDbEntity
  8
0
  6
CENTER
100
AcDbLine
 10
705.029688379551
 20
713.8245179382195
 30
0.0
 11
705.029688379551
 21
854.2754733555195
 31
0.0
  0
LINE
  5
26BF
330
2666
100
AcDbEntity
  8
0
  6
CENTER
100
AcDbLine
 10
705.0296368811374
 20
104.6192979405686
 30
0.0
 11
705.0296368811374
 21
690.2776294992004
 31
0.0
  0
LINE
  5
26C0
330
2666
100
AcDbEntity
  8
0
  6
CENTER
100
AcDbLine
 10
583.6650695971935
 20
220.4970200435911
 30
0.0
 11
826.3942041650812
 21
220.497020043591
 31
0.0
  0
ENDSEC
  0
SECTION
  2
OBJECTS
  0
DICTIONARY
  5
2654
330
0
100
AcDbDictionary
281
     1
  3
ACAD_GROUP
350
2655
  3
ACAD_LAYOUT
350
2661
  3
ACAD_MLINESTYLE
350
265E
  3
ACAD_PLOTSETTINGS
350
2660
  3
ACAD_PLOTSTYLENAME
350
2656
  3
AcDbVariableDictionary
350
26AC
  0
DICTIONARY
  5
26B3
330
264A
100
AcDbDictionary
280
     1
281
     1
  3
ACAD_LAYERSTATES
360
26B4
  0
DICTIONARY
  5
2678
330
2666
100
AcDbDictionary
280
     1
281
     1
  3
ACAD_LAYOUTSELFREF
360
26A7
  0
DICTIONARY
  5
267A
330
2662
100
AcDbDictionary
280
     1
281
     1
  3
ACAD_LAYOUTSELFREF
360
26A6
  0
DICTIONARY
  5
2655
102
{ACAD_REACTORS
330
2654
102
}
330
2654
100
AcDbDictionary
281
     1
  0
DICTIONARY
  5
2661
102
{ACAD_REACTORS
330
2654
102
}
330
2654
100
AcDbDictionary
281
     1
  3
Model
350
2669
  3
ﾚｲｱｳﾄ1
350
2665
  0
DICTIONARY
  5
265E
102
{ACAD_REACTORS
330
2654
102
}
330
2654
100
AcDbDictionary
281
     1
  3
Standard
350
265F
  0
DICTIONARY
  5
2660
102
{ACAD_REACTORS
330
2654
102
}
330
2654
100
AcDbDictionary
281
     1
  0
ACDBDICTIONARYWDFLT
  5
2656
102
{ACAD_REACTORS
330
2654
102
}
330
2654
100
AcDbDictionary
281
     1
  3
Normal
350
2657
100
AcDbDictionaryWithDefault
340
2657
  0
DICTIONARY
  5
26AC
102
{ACAD_REACTORS
330
2654
102
}
330
2654
100
AcDbDictionary
281
     1
  3
DIMASSOC
350
26AD
  0
DICTIONARY
  5
26B4
102
{ACAD_REACTORS
330
26B3
102
}
330
26B3
100
AcDbDictionary
281
     1
  0
XRECORD
  5
26A7
102
{ACAD_REACTORS
330
2678
102
}
330
2678
100
AcDbXrecord
280
     1
340
2666
  0
XRECORD
  5
26A6
102
{ACAD_REACTORS
330
267A
102
}
330
267A
100
AcDbXrecord
280
     1
340
2662
  0
LAYOUT
  5
2669
102
{ACAD_REACTORS
330
2661
102
}
330
2661
100
AcDbPlotSettings
  1

  2
SII LP-2150 (D-SCAN C2)
  4

  6

 40
0.0
 41
0.0
 42
0.0
 43
0.0
 44
0.0
 45
0.0
 46
0.0
 47
0.0
 48
0.0
 49
0.0
140
0.0
141
0.0
142
1.0
143
1.0
 70
  1712
 72
     0
 73
     0
 74
     0
  7

 75
     0
147
1.0
148
0.0
149
0.0
100
AcDbLayout
  1
Model
 70
     1
 71
     0
 10
0.0
 20
0.0
 11
12.0
 21
9.0
 12
0.0
 22
0.0
 32
0.0
 14
0.0
 24
0.0
 34
0.0
 15
0.0
 25
0.0
 35
0.0
146
0.0
 13
0.0
 23
0.0
 33
0.0
 16
1.0
 26
0.0
 36
0.0
 17
0.0
 27
1.0
 37
0.0
 76
     0
330
2666
  0
LAYOUT
  5
2665
102
{ACAD_REACTORS
330
2661
102
}
330
2661
100
AcDbPlotSettings
  1

  2
SII LP-2150 (D-SCAN C2)
  4

  6

 40
0.0
 41
0.0
 42
0.0
 43
0.0
 44
0.0
 45
0.0
 46
0.0
 47
0.0
 48
0.0
 49
0.0
140
0.0
141
0.0
142
1.0
143
1.0
 70
   688
 72
     0
 73
     0
 74
     5
  7

 75
    16
147
1.0
148
0.0
149
0.0
100
AcDbLayout
  1
ﾚｲｱｳﾄ1
 70
     1
 71
     1
 10
-580.5701293945312
 20
0.0
 11
0.0
 21
407.8999938964844
 12
0.0
 22
0.0
 32
0.0
 14
-580.5701293945312
 24
0.0
 34
0.0
 15
0.0
 25
407.8999938964844
 35
0.0
146
0.0
 13
0.0
 23
0.0
 33
0.0
 16
1.0
 26
0.0
 36
0.0
 17
0.0
 27
1.0
 37
0.0
 76
     0
330
2662
  0
MLINESTYLE
  5
265F
102
{ACAD_REACTORS
330
265E
102
}
330
265E
100
AcDbMlineStyle
  2
STANDARD
 70
     0
  3

 62
   256
 51
90.0
 52
90.0
 71
     2
 49
0.5
 62
   256
  6
BYLAYER
 49
-0.5
 62
   256
  6
BYLAYER
  0
ACDBPLACEHOLDER
  5
2657
102
{ACAD_REACTORS
330
2656
102
}
330
2656
  0
DICTIONARYVAR
  5
26AD
102
{ACAD_REACTORS
330
26AC
102
}
330
26AC
100
DictionaryVariables
280
     0
  1
1
  0
ENDSEC
  0
EOF
