  0
SECTION
  2
HEADER
  9
$ACADVER
  1
AC1015
  9
$ACADMAINTVER
 70
    14
  9
$DWGCODEPAGE
  3
ANSI_932
  9
$INSBASE
 10
0.0
 20
0.0
 30
0.0
  9
$EXTMIN
 10
379.8167859390336
 20
112.5094926420033
 30
-0.0000000349181948
  9
$EXTMAX
 10
861.7928916035834
 20
861.6086709376435
 30
0.0000000814935746
  9
$LIMMIN
 10
-580.5701293945312
 20
0.0
  9
$LIMMAX
 10
0.0
 20
407.8999938964844
  9
$ORTHOMODE
 70
     0
  9
$REGENMODE
 70
     1
  9
$FILLMODE
 70
     1
  9
$QTEXTMODE
 70
     0
  9
$MIRRTEXT
 70
     1
  9
$LTSCALE
 40
1.0
  9
$ATTMODE
 70
     1
  9
$TEXTSIZE
 40
0.2
  9
$TRACEWID
 40
0.05
  9
$TEXTSTYLE
  7
STANDARD
  9
$CLAYER
  8
0
  9
$CELTYPE
  6
CONTINUOUS
  9
$CECOLOR
 62
   256
  9
$CELTSCALE
 40
1.0
  9
$DISPSILH
 70
     0
  9
$DIMSCALE
 40
1.0
  9
$DIMASZ
 40
1.0
  9
$DIMEXO
 40
2.54
  9
$DIMDLI
 40
0.38
  9
$DIMRND
 40
0.0
  9
$DIMDLE
 40
0.0
  9
$DIMEXE
 40
2.54
  9
$DIMTP
 40
0.0
  9
$DIMTM
 40
0.0
  9
$DIMTXT
 40
3.200000047683714
  9
$DIMCEN
 40
0.09
  9
$DIMTSZ
 40
0.0
  9
$DIMTOL
 70
     0
  9
$DIMLIM
 70
     0
  9
$DIMTIH
 70
     0
  9
$DIMTOH
 70
     0
  9
$DIMSE1
 70
     0
  9
$DIMSE2
 70
     0
  9
$DIMTAD
 70
     1
  9
$DIMZIN
 70
     0
  9
$DIMBLK
  1

  9
$DIMASO
 70
     1
  9
$DIMSHO
 70
     0
  9
$DIMPOST
  1

  9
$DIMAPOST
  1

  9
$DIMALT
 70
     0
  9
$DIMALTD
 70
     2
  9
$DIMALTF
 40
25.4
  9
$DIMLFAC
 40
1.0
  9
$DIMTOFL
 70
     0
  9
$DIMTVP
 40
1.0
  9
$DIMTIX
 70
     0
  9
$DIMSOXD
 70
     0
  9
$DIMSAH
 70
     1
  9
$DIMBLK1
  1

  9
$DIMBLK2
  1

  9
$DIMSTYLE
  2
STANDARD
  9
$DIMCLRD
 70
     0
  9
$DIMCLRE
 70
     0
  9
$DIMCLRT
 70
     0
  9
$DIMTFAC
 40
1.0
  9
$DIMGAP
 40
1.600000023841857
  9
$DIMJUST
 70
     0
  9
$DIMSD1
 70
     0
  9
$DIMSD2
 70
     0
  9
$DIMTOLJ
 70
     1
  9
$DIMTZIN
 70
     0
  9
$DIMALTZ
 70
     0
  9
$DIMALTTZ
 70
     0
  9
$DIMUPT
 70
     0
  9
$DIMDEC
 70
     4
  9
$DIMTDEC
 70
     4
  9
$DIMALTU
 70
     2
  9
$DIMALTTD
 70
     2
  9
$DIMTXSTY
  7
STANDARD
  9
$DIMAUNIT
 70
     0
  9
$DIMADEC
 70
     0
  9
$DIMALTRND
 40
0.0
  9
$DIMAZIN
 70
     0
  9
$DIMDSEP
 70
    46
  9
$DIMATFIT
 70
     3
  9
$DIMFRAC
 70
     0
  9
$DIMLDRBLK
  1

  9
$DIMLUNIT
 70
     2
  9
$DIMLWD
 70
    -2
  9
$DIMLWE
 70
    -2
  9
$DIMTMOVE
 70
     0
  9
$LUNITS
 70
     2
  9
$LUPREC
 70
     4
  9
$SKETCHINC
 40
0.1
  9
$FILLETRAD
 40
0.0
  9
$AUNITS
 70
     0
  9
$AUPREC
 70
     0
  9
$MENU
  1
.
  9
$ELEVATION
 40
0.0
  9
$PELEVATION
 40
0.0
  9
$THICKNESS
 40
0.0
  9
$LIMCHECK
 70
     0
  9
$CHAMFERA
 40
0.0
  9
$CHAMFERB
 40
0.0
  9
$CHAMFERC
 40
0.0
  9
$CHAMFERD
 40
0.0
  9
$SKPOLY
 70
     0
  9
$TDCREATE
 40
2452717.604314595
  9
$TDUCREATE
 40
2452717.229314595
  9
$TDUPDATE
 40
2456899.681638322
  9
$TDUUPDATE
 40
2456899.306638322
  9
$TDINDWG
 40
0.0954205671
  9
$TDUSRTIMER
 40
0.0954203819
  9
$USRTIMER
 70
     1
  9
$ANGBASE
 50
0.0
  9
$ANGDIR
 70
     0
  9
$PDMODE
 70
     0
  9
$PDSIZE
 40
0.0
  9
$PLINEWID
 40
0.0
  9
$SPLFRAME
 70
     0
  9
$SPLINETYPE
 70
     6
  9
$SPLINESEGS
 70
     8
  9
$HANDSEED
  5
2709
  9
$SURFTAB1
 70
     6
  9
$SURFTAB2
 70
     6
  9
$SURFTYPE
 70
     6
  9
$SURFU
 70
     6
  9
$SURFV
 70
     6
  9
$UCSBASE
  2

  9
$UCSNAME
  2

  9
$UCSORG
 10
0.0
 20
0.0
 30
0.0
  9
$UCSXDIR
 10
1.0
 20
0.0
 30
0.0
  9
$UCSYDIR
 10
0.0
 20
1.0
 30
0.0
  9
$UCSORTHOREF
  2

  9
$UCSORTHOVIEW
 70
     0
  9
$UCSORGTOP
 10
0.0
 20
0.0
 30
0.0
  9
$UCSORGBOTTOM
 10
0.0
 20
0.0
 30
0.0
  9
$UCSORGLEFT
 10
0.0
 20
0.0
 30
0.0
  9
$UCSORGRIGHT
 10
0.0
 20
0.0
 30
0.0
  9
$UCSORGFRONT
 10
0.0
 20
0.0
 30
0.0
  9
$UCSORGBACK
 10
0.0
 20
0.0
 30
0.0
  9
$PUCSBASE
  2

  9
$PUCSNAME
  2

  9
$PUCSORG
 10
0.0
 20
0.0
 30
0.0
  9
$PUCSXDIR
 10
1.0
 20
0.0
 30
0.0
  9
$PUCSYDIR
 10
0.0
 20
1.0
 30
0.0
  9
$PUCSORTHOREF
  2

  9
$PUCSORTHOVIEW
 70
     0
  9
$PUCSORGTOP
 10
0.0
 20
0.0
 30
0.0
  9
$PUCSORGBOTTOM
 10
0.0
 20
0.0
 30
0.0
  9
$PUCSORGLEFT
 10
0.0
 20
0.0
 30
0.0
  9
$PUCSORGRIGHT
 10
0.0
 20
0.0
 30
0.0
  9
$PUCSORGFRONT
 10
0.0
 20
0.0
 30
0.0
  9
$PUCSORGBACK
 10
0.0
 20
0.0
 30
0.0
  9
$USERI1
 70
     0
  9
$USERI2
 70
     0
  9
$USERI3
 70
     0
  9
$USERI4
 70
     0
  9
$USERI5
 70
     0
  9
$USERR1
 40
0.0
  9
$USERR2
 40
0.0
  9
$USERR3
 40
0.0
  9
$USERR4
 40
0.0
  9
$USERR5
 40
0.0
  9
$WORLDVIEW
 70
     1
  9
$SHADEDGE
 70
     3
  9
$SHADEDIF
 70
    70
  9
$TILEMODE
 70
     1
  9
$MAXACTVP
 70
    48
  9
$PINSBASE
 10
0.0
 20
0.0
 30
0.0
  9
$PLIMCHECK
 70
     0
  9
$PEXTMIN
 10
-580.5701293945312
 20
0.0
 30
0.0
  9
$PEXTMAX
 10
0.0
 20
407.8999938964844
 30
0.0
  9
$PLIMMIN
 10
-580.5701293945312
 20
0.0
  9
$PLIMMAX
 10
0.0
 20
407.8999938964844
  9
$UNITMODE
 70
     0
  9
$VISRETAIN
 70
     1
  9
$PLINEGEN
 70
     0
  9
$PSLTSCALE
 70
     1
  9
$TREEDEPTH
 70
  3020
  9
$CMLSTYLE
  2
Standard
  9
$CMLJUST
 70
     0
  9
$CMLSCALE
 40
1.0
  9
$PROXYGRAPHICS
 70
     1
  9
$MEASUREMENT
 70
     0
  9
$CELWEIGHT
370
    -1
  9
$ENDCAPS
280
     0
  9
$JOINSTYLE
280
     0
  9
$LWDISPLAY
290
     0
  9
$INSUNITS
 70
     0
  9
$HYPERLINKBASE
  1

  9
$STYLESHEET
  1

  9
$XEDIT
290
     1
  9
$CEPSNTYPE
380
     0
  9
$PSTYLEMODE
290
     1
  9
$FINGERPRINTGUID
  2
{2880355A-F792-42BC-B845-2FC5EFE8A47B}
  9
$VERSIONGUID
  2
{9D142324-11F7-4D06-AA5B-A773FC3B171B}
  9
$EXTNAMES
290
     1
  9
$PSVPSCALE
 40
0.0
  9
$OLESTARTUP
290
     0
  0
ENDSEC
  0
SECTION
  2
CLASSES
  0
CLASS
  1
ACDBDICTIONARYWDFLT
  2
AcDbDictionaryWithDefault
  3
AutoCAD 2000
 90
        0
280
     0
281
     0
  0
CLASS
  1
ACDBPLACEHOLDER
  2
AcDbPlaceHolder
  3
AutoCAD 2000
 90
        0
280
     0
281
     0
  0
CLASS
  1
LAYOUT
  2
AcDbLayout
  3
AutoCAD 2000
 90
        0
280
     0
281
     0
  0
CLASS
  1
DICTIONARYVAR
  2
AcDbDictionaryVar
  3
AutoCAD 2000
 90
        0
280
     0
281
     0
  0
CLASS
  1
LONG_TRANSACTION
  2
AcDbLongTransaction
  3
AutoCAD 2000
 90
    32768
280
     0
281
     0
  0
CLASS
  1
LWPOLYLINE
  2
AcDbPolyline
  3
AutoCAD 2000
 90
    32768
280
     0
281
     1
  0
CLASS
  1
HATCH
  2
AcDbHatch
  3
AutoCAD 2000
 90
    32768
280
     0
281
     1
  0
CLASS
  1
XRECORD
  2
AcDbXrecord
  3
AutoCAD 2000
 90
    32768
280
     0
281
     0
  0
ENDSEC
  0
SECTION
  2
TABLES
  0
TABLE
  2
VPORT
  5
2692
330
0
100
AcDbSymbolTable
 70
     2
  0
VPORT
  5
2708
330
2692
100
AcDbSymbolTableRecord
100
AcDbViewportTableRecord
  2
*Active
 70
     0
 10
0.0
 20
0.0
 11
1.0
 21
1.0
 12
620.8048387713086
 22
487.0590817898235
 13
0.0
 23
0.0
 14
1.0
 24
1.0
 15
0.0
 25
0.0
 16
0.0
 26
0.0
 36
1.0
 17
0.0
 27
0.0
 37
0.0
 40
753.8553635546602
 41
1.592161016949152
 42
50.0
 43
0.0
 44
0.0
 50
0.0
 51
0.0
 71
     0
 72
   100
 73
     1
 74
     3
 75
     0
 76
     0
 77
     0
 78
     0
281
     0
 65
     1
110
0.0
120
0.0
130
0.0
111
1.0
121
0.0
131
0.0
112
0.0
122
1.0
132
0.0
 79
     0
146
0.0
  0
ENDTAB
  0
TABLE
  2
LTYPE
  5
268F
330
0
100
AcDbSymbolTable
 70
     2
  0
LTYPE
  5
269D
330
268F
100
AcDbSymbolTableRecord
100
AcDbLinetypeTableRecord
  2
ByBlock
 70
     0
  3

 72
    65
 73
     0
 40
0.0
  0
LTYPE
  5
269E
330
268F
100
AcDbSymbolTableRecord
100
AcDbLinetypeTableRecord
  2
ByLayer
 70
     0
  3

 72
    65
 73
     0
 40
0.0
  0
LTYPE
  5
269F
330
268F
100
AcDbSymbolTableRecord
100
AcDbLinetypeTableRecord
  2
CONTINUOUS
 70
     0
  3
Solid line
 72
    65
 73
     0
 40
0.0
  0
LTYPE
  5
26F4
330
268F
100
AcDbSymbolTableRecord
100
AcDbLinetypeTableRecord
  2
CENTER
 70
     0
  3
__ . __
 72
    65
 73
     4
 40
7.0
 49
4.0
 74
     0
 49
-1.0
 74
     0
 49
1.0
 74
     0
 49
-1.0
 74
     0
  0
ENDTAB
  0
TABLE
  2
LAYER
  5
268C
102
{ACAD_XDICTIONARY
360
26F5
102
}
330
0
100
AcDbSymbolTable
 70
     2
  0
LAYER
  5
269A
330
268C
100
AcDbSymbolTableRecord
100
AcDbLayerTableRecord
  2
0
 70
     0
 62
     7
  6
CONTINUOUS
370
    -3
390
2699
  0
LAYER
  5
26AD
330
268C
100
AcDbSymbolTableRecord
100
AcDbLayerTableRecord
  2
DEFPOINTS
 70
     0
 62
     7
  6
CONTINUOUS
290
     0
370
    -3
390
2699
  0
ENDTAB
  0
TABLE
  2
STYLE
  5
268D
330
0
100
AcDbSymbolTable
 70
     1
  0
STYLE
  5
269B
330
268D
100
AcDbSymbolTableRecord
100
AcDbTextStyleTableRecord
  2
STANDARD
 70
     0
 40
0.0
 41
1.0
 50
0.0
 71
     0
 42
0.2
  3
txt
  4
BIGFONT
  0
ENDTAB
  0
TABLE
  2
VIEW
  5
2690
330
0
100
AcDbSymbolTable
 70
     0
  0
ENDTAB
  0
TABLE
  2
UCS
  5
2691
330
0
100
AcDbSymbolTable
 70
     0
  0
ENDTAB
  0
TABLE
  2
APPID
  5
2693
330
0
100
AcDbSymbolTable
 70
     4
  0
APPID
  5
269C
330
2693
100
AcDbSymbolTableRecord
100
AcDbRegAppTableRecord
  2
ACAD
 70
     0
  0
APPID
  5
26AE
330
2693
100
AcDbSymbolTableRecord
100
AcDbRegAppTableRecord
  2
MCAD_NO_VIS
 70
     0
  0
APPID
  5
26AF
330
2693
100
AcDbSymbolTableRecord
100
AcDbRegAppTableRecord
  2
ACAD_TEMP_GRAPHIC
 70
     0
  0
APPID
  5
26B0
330
2693
100
AcDbSymbolTableRecord
100
AcDbRegAppTableRecord
  2
ACATTRIBSERVICES
 70
     0
  0
ENDTAB
  0
TABLE
  2
DIMSTYLE
  5
2694
330
0
100
AcDbSymbolTable
 70
     1
100
AcDbDimStyleTable
 71
     0
  0
DIMSTYLE
105
26B1
330
2694
100
AcDbSymbolTableRecord
100
AcDbDimStyleTableRecord
  2
STANDARD
 70
     0
279
     2
340
269B
  0
ENDTAB
  0
TABLE
  2
BLOCK_RECORD
  5
268B
330
0
100
AcDbSymbolTable
 70
     2
  0
BLOCK_RECORD
  5
26A8
102
{ACAD_XDICTIONARY
360
26BA
102
}
330
268B
100
AcDbSymbolTableRecord
100
AcDbBlockTableRecord
  2
*Model_Space
340
26AB
  0
BLOCK_RECORD
  5
26A4
102
{ACAD_XDICTIONARY
360
26BC
102
}
330
268B
100
AcDbSymbolTableRecord
100
AcDbBlockTableRecord
  2
*Paper_Space
340
26A7
  0
BLOCK_RECORD
  5
26B4
330
268B
100
AcDbSymbolTableRecord
100
AcDbBlockTableRecord
  2
$MODEL_SPACE
340
0
  0
BLOCK_RECORD
  5
26B6
330
268B
100
AcDbSymbolTableRecord
100
AcDbBlockTableRecord
  2
$PAPER_SPACE
340
0
  0
ENDTAB
  0
ENDSEC
  0
SECTION
  2
BLOCKS
  0
BLOCK
  5
26A9
330
26A8
100
AcDbEntity
  8
0
100
AcDbBlockBegin
  2
*Model_Space
 70
     0
 10
0.0
 20
0.0
 30
0.0
  3
*Model_Space
  1

  0
ENDBLK
  5
26AA
330
26A8
100
AcDbEntity
  8
0
100
AcDbBlockEnd
  0
BLOCK
  5
26A5
330
26A4
100
AcDbEntity
 67
     1
  8
0
100
AcDbBlockBegin
  2
*Paper_Space
 70
     0
 10
0.0
 20
0.0
 30
0.0
  3
*Paper_Space
  1

  0
ENDBLK
  5
26A6
330
26A4
100
AcDbEntity
 67
     1
  8
0
100
AcDbBlockEnd
  0
BLOCK
  5
26B5
330
26B4
100
AcDbEntity
  8
0
100
AcDbBlockBegin
  2
$MODEL_SPACE
 70
     0
 10
0.0
 20
0.0
 30
0.0
  3
$MODEL_SPACE
  1

  0
ENDBLK
  5
2675
330
26B4
100
AcDbEntity
  8
0
100
AcDbBlockEnd
  0
BLOCK
  5
26B7
330
26B6
100
AcDbEntity
  8
0
100
AcDbBlockBegin
  2
$PAPER_SPACE
 70
     0
 10
0.0
 20
0.0
 30
0.0
  3
$PAPER_SPACE
  1

  0
ENDBLK
  5
2671
330
26B6
100
AcDbEntity
  8
0
100
AcDbBlockEnd
  0
ENDSEC
  0
SECTION
  2
ENTITIES
  0
LINE
  5
1DA5
330
26A8
100
AcDbEntity
  8
0
100
AcDbLine
 10
499.2637877311167
 20
310.2532790294225
 30
0.0
 11
501.9389601627745
 21
302.9033034434842
 31
0.0
  0
LINE
  5
1DA6
330
26A8
100
AcDbEntity
  8
0
100
AcDbLine
 10
496.4138232766472
 20
219.2532790294224
 30
0.0
 11
496.4138232766472
 21
310.2532790294225
 31
0.0
  0
LINE
  5
1DA8
330
26A8
100
AcDbEntity
  8
0
100
AcDbLine
 10
673.9137927590689
 20
304.6533034434852
 30
0.0
 11
538.9137927590691
 21
304.653303443485
 31
0.0
  0
LINE
  5
1DAA
330
26A8
100
AcDbEntity
  8
0
100
AcDbLine
 10
501.9389601627745
 20
302.9033034434842
 30
0.0
 11
553.9138232766472
 21
302.903303443485
 31
0.0
  0
LINE
  5
1DAC
330
26A8
100
AcDbEntity
  8
0
100
AcDbLine
 10
501.9389912861056
 20
226.6032851329382
 30
0.0
 11
553.9138232766472
 21
226.6032851329382
 31
0.0
  0
LINE
  5
1DB3
330
26A8
100
AcDbEntity
  8
0
100
AcDbLine
 10
560.9138232766472
 20
154.7532790294224
 30
0.0
 11
651.9137927590691
 21
154.7532790294224
 31
0.0
  0
LINE
  5
1DB4
330
26A8
100
AcDbEntity
  8
0
100
AcDbLine
 10
644.563817173132
 20
160.278466720298
 30
0.0
 11
644.5638171731316
 21
217.6484302218198
 31
0.0
  0
LINE
  5
1DB8
330
26A8
100
AcDbEntity
  8
0
100
AcDbLine
 10
651.9137927590691
 20
157.6032942886403
 30
0.0
 11
644.563817173132
 21
160.278466720298
 31
0.0
  0
LINE
  5
1DB9
330
26A8
100
AcDbEntity
  8
0
100
AcDbLine
 10
651.9137927590691
 20
154.7532790294224
 30
0.0
 11
651.9137927590691
 21
157.6032942886403
 31
0.0
  0
LINE
  5
1DBA
330
26A8
100
AcDbEntity
  8
0
100
AcDbLine
 10
568.2638293801623
 20
160.2784642308178
 30
0.0
 11
568.2638293801629
 21
217.6484325180298
 31
0.0
  0
LINE
  5
1DBC
330
26A8
100
AcDbEntity
  8
0
100
AcDbLine
 10
560.9138232766476
 20
157.6032806916695
 30
0.0
 11
568.2638293801623
 21
160.2784642308178
 31
0.0
  0
LINE
  5
1DC5
330
26A8
100
AcDbEntity
  8
0
100
AcDbLine
 10
560.9138232766472
 20
154.7532790294224
 30
0.0
 11
560.9138232766476
 21
157.6032806916695
 31
0.0
  0
LINE
  5
1DCB
330
26A8
100
AcDbEntity
  8
0
100
AcDbLine
 10
658.9137927590687
 20
221.6032851329387
 30
0.0
 11
553.9138232766465
 21
221.6032851329372
 31
0.0
  0
LINE
  5
1DCC
330
26A8
100
AcDbEntity
  8
0
100
AcDbLine
 10
658.9137927590691
 20
304.653303443485
 30
0.0
 11
658.9137927590687
 21
221.6032851329387
 31
0.0
  0
LINE
  5
1DCF
330
26A8
100
AcDbEntity
  8
0
100
AcDbLine
 10
651.4138266928028
 20
221.6032851329387
 30
0.0
 11
644.5638171731316
 21
217.6484302218198
 31
0.0
  0
LINE
  5
1DFB
330
26A8
100
AcDbEntity
  8
0
100
AcDbLine
 10
561.4138238376413
 20
221.6032851329375
 30
0.0
 11
568.2638293801629
 21
217.6484325180298
 31
0.0
  0
LINE
  5
1E3B
330
26A8
100
AcDbEntity
  8
0
100
AcDbLine
 10
553.9138232766472
 20
304.653303443485
 30
0.0
 11
553.9138232766465
 21
221.6032851329372
 31
0.0
  0
LINE
  5
1E3F
330
26A8
100
AcDbEntity
  8
0
100
AcDbLine
 10
499.2638077469562
 20
219.2532790294224
 30
0.0
 11
501.9389912861056
 21
226.6032851329382
 31
0.0
  0
LINE
  5
1E43
330
26A8
100
AcDbEntity
  8
0
100
AcDbLine
 10
496.4138232766472
 20
219.2532790294224
 30
0.0
 11
499.2638077469562
 21
219.2532790294224
 31
0.0
  0
LINE
  5
1E4E
330
26A8
100
AcDbEntity
  8
0
100
AcDbLine
 10
673.9137927590689
 20
323.1533034434852
 30
0.0
 11
538.9137927590691
 21
323.153303443485
 31
0.0
  0
LINE
  5
1E4F
330
26A8
100
AcDbEntity
  8
0
100
AcDbLine
 10
677.4137981974829
 20
405.7244888603494
 30
0.0
 11
628.4138036545305
 21
405.229503796456
 31
0.0
  0
LINE
  5
1E50
330
26A8
100
AcDbEntity
  8
0
100
AcDbLine
 10
684.9137982086155
 20
412.7244969569036
 30
0.0
 11
627.9137982086305
 21
412.7244555401902
 31
0.0
  0
LINE
  5
1E58
330
26A8
100
AcDbEntity
  8
0
100
AcDbLine
 10
573.413802568299
 20
406.7244159400005
 30
0.0
 11
573.4138134674341
 21
391.7244159400047
 31
0.0
  0
LINE
  5
1E5A
330
26A8
100
AcDbEntity
  8
0
100
AcDbLine
 10
568.9138109243038
 20
395.2244126702632
 30
0.0
 11
568.9138051114317
 21
403.2244126702608
 31
0.0
  0
LINE
  5
1E5C
330
26A8
100
AcDbEntity
  8
0
100
AcDbLine
 10
628.4138537942196
 20
336.2244559035149
 30
0.0
 11
628.4137978453263
 21
413.2244559034949
 31
0.0
  0
LINE
  5
1E63
330
26A8
100
AcDbEntity
  8
0
100
AcDbLine
 10
628.4138537942196
 20
336.2244559035149
 30
0.0
 11
584.4138537942312
 21
336.2244239327182
 31
0.0
  0
LINE
  5
1E68
330
26A8
100
AcDbEntity
  8
0
100
AcDbLine
 10
584.4138537942312
 20
336.2244239327182
 30
0.0
 11
584.4137978453375
 21
413.2244239326977
 31
0.0
  0
LINE
  5
1E70
330
26A8
100
AcDbEntity
  8
0
100
AcDbLine
 10
587.4138632918358
 20
323.1532896379393
 30
0.0
 11
587.4138537942303
 21
336.2244261125455
 31
0.0
  0
LINE
  5
1E8C
330
26A8
100
AcDbEntity
  8
0
100
AcDbLine
 10
568.9138109243038
 20
395.2244126702632
 30
0.0
 11
573.4138109243026
 21
395.2244159400036
 31
0.0
  0
LINE
  5
1E8F
330
26A8
100
AcDbEntity
  8
0
100
AcDbLine
 10
584.413813467431
 20
391.7244239327036
 30
0.0
 11
573.4138134674341
 21
391.7244159400047
 31
0.0
  0
LINE
  5
1EBC
330
26A8
100
AcDbEntity
  8
0
100
AcDbLine
 10
625.4138632918256
 20
323.1533172490816
 30
0.0
 11
625.4138537942201
 21
336.2244537236882
 31
0.0
  0
LINE
  5
1ED6
330
26A8
100
AcDbEntity
  8
0
100
AcDbLine
 10
628.4137978453263
 20
413.2244559034949
 30
0.0
 11
584.4137978453375
 21
413.2244239326977
 31
0.0
  0
LINE
  5
1ED7
330
26A8
100
AcDbEntity
  8
0
100
AcDbLine
 10
627.913796392108
 20
415.2244555401895
 30
0.0
 11
584.9137963921192
 21
415.2244242960016
 31
0.0
  0
LINE
  5
1EDE
330
26A8
100
AcDbEntity
  8
0
100
AcDbLine
 10
568.9138051114317
 20
403.2244126702608
 30
0.0
 11
573.4138051114305
 21
403.2244159400015
 31
0.0
  0
LINE
  5
1EE2
330
26A8
100
AcDbEntity
  8
0
100
AcDbLine
 10
584.4138025682958
 20
406.7244239326996
 30
0.0
 11
573.413802568299
 21
406.7244159400005
 31
0.0
  0
LINE
  5
1EE4
330
26A8
100
AcDbEntity
  8
0
100
AcDbLine
 10
584.9137978453374
 20
413.2244242960025
 30
0.0
 11
584.9137963921192
 21
415.2244242960016
 31
0.0
  0
LINE
  5
1EE7
330
26A8
100
AcDbEntity
  8
0
100
AcDbLine
 10
598.4137927590705
 20
420.224434105222
 30
0.0
 11
598.4137963921158
 21
415.2244341052251
 31
0.0
  0
LINE
  5
1EEB
330
26A8
100
AcDbEntity
  8
0
100
AcDbLine
 10
614.4137927590669
 20
420.2244457309665
 30
0.0
 11
598.4137927590705
 21
420.224434105222
 31
0.0
  0
LINE
  5
1EEE
330
26A8
100
AcDbEntity
  8
0
100
AcDbLine
 10
614.4137927590669
 20
420.2244457309665
 30
0.0
 11
614.4137963921116
 21
415.2244457309691
 31
0.0
  0
LINE
  5
1EF9
330
26A8
100
AcDbEntity
  8
0
100
AcDbLine
 10
627.913797845326
 20
413.2244555401896
 30
0.0
 11
627.913796392108
 21
415.2244555401895
 31
0.0
  0
LINE
  5
1EFE
330
26A8
100
AcDbEntity
  8
0
100
AcDbLine
 10
538.9137927590691
 20
323.153303443485
 30
0.0
 11
538.9137927590691
 21
304.653303443485
 31
0.0
  0
LINE
  5
1F0B
330
26A8
100
AcDbEntity
  8
0
100
AcDbLine
 10
496.4138232766472
 20
310.2532790294225
 30
0.0
 11
499.2637877311167
 21
310.2532790294225
 31
0.0
  0
LINE
  5
1F0C
330
26A8
100
AcDbEntity
  8
0
100
AcDbLine
 10
694.4138032948759
 20
405.724503859691
 30
0.0
 11
694.4137444395518
 21
486.7244962302751
 31
0.0
  0
LINE
  5
1F0D
330
26A8
100
AcDbEntity
  8
0
100
AcDbLine
 10
677.4137982086174
 20
412.724491507336
 30
0.0
 11
677.4137444395567
 21
486.7244838779217
 31
0.0
  0
LINE
  5
1F0E
330
26A8
100
AcDbEntity
  8
0
100
AcDbLine
 10
694.4138032948759
 20
405.724503859691
 30
0.0
 11
677.4138032948805
 21
405.724491507338
 31
0.0
  0
LINE
  5
1F0F
330
26A8
100
AcDbEntity
  8
0
100
AcDbLine
 10
694.4137974820039
 20
413.7245038596885
 30
0.0
 11
677.4137974820082
 21
413.7244915073356
 31
0.0
  0
LINE
  5
1F14
330
26A8
100
AcDbEntity
  8
0
100
AcDbLine
 10
673.9137927590689
 20
323.1533034434852
 30
0.0
 11
673.9137927590689
 21
304.6533034434852
 31
0.0
  0
LINE
  5
1F19
330
26A8
100
AcDbEntity
  8
0
100
AcDbLine
 10
694.4137444395518
 20
486.7244962302751
 30
0.0
 11
677.4137444395567
 21
486.7244838779217
 31
0.0
  0
LINE
  5
1F1E
330
26A8
100
AcDbEntity
  8
0
  6
Continuous
100
AcDbLine
 10
501.9389912861056
 20
226.6032851329382
 30
0.0
 11
501.9389601627745
 21
302.9033034434842
 31
0.0
  0
LINE
  5
1F1F
330
26A8
100
AcDbEntity
  8
0
  6
Continuous
100
AcDbLine
 10
568.2638293801623
 20
160.2784642308178
 30
0.0
 11
644.563817173132
 21
160.278466720298
 31
0.0
  0
LINE
  5
2057
330
26A8
100
AcDbEntity
  8
0
  6
Continuous
 62
     7
100
AcDbLine
 10
685.913891941198
 20
644.6755331482702
 30
0.0
 11
639.3796969949089
 21
644.6755331482702
 31
0.0
  0
LINE
  5
2058
330
26A8
100
AcDbEntity
  8
0
  6
Continuous
 62
     7
100
AcDbLine
 10
685.913891941198
 20
661.6755484070592
 30
0.0
 11
639.3796969949089
 21
661.6755484070592
 31
0.0
  0
CIRCLE
  5
2059
330
26A8
100
AcDbEntity
  8
0
  6
Continuous
 62
     7
100
AcDbCircle
 10
685.9137546120964
 20
653.1756094422148
 30
0.0
 40
8.499999761581419
  0
CIRCLE
  5
205A
330
26A8
100
AcDbEntity
  8
0
  6
Continuous
 62
     7
100
AcDbCircle
 10
606.4138232766472
 20
653.1756094422148
 30
0.0
 40
22.00000047683715
  0
CIRCLE
  5
205B
330
26A8
100
AcDbEntity
  8
0
  6
Continuous
 62
     7
100
AcDbCircle
 10
606.4138232766472
 20
667.1755331482692
 30
0.0
 40
4.500000134110448
  0
ARC
  5
205C
330
26A8
100
AcDbEntity
  8
0
  6
Continuous
 62
     7
100
AcDbCircle
 10
639.3796741067252
 20
686.6755331482693
 30
0.0
 40
25.0000019073486
100
AcDbArc
 50
225.4604149695246
 51
270.0
  0
ARC
  5
205D
330
26A8
100
AcDbEntity
  8
0
  6
Continuous
 62
     7
100
AcDbCircle
 10
639.3796741067252
 20
619.6755484070592
 30
0.0
 40
25.0000019073486
100
AcDbArc
 50
89.99997768819374
 51
134.5395593035806
  0
CIRCLE
  5
205E
330
26A8
100
AcDbEntity
  8
0
  6
Continuous
 62
     7
100
AcDbCircle
 10
606.4138232766472
 20
639.1755484070581
 30
0.0
 40
4.500000134110448
  0
CIRCLE
  5
205F
330
26A8
100
AcDbEntity
  8
0
  6
Continuous
 62
     7
100
AcDbCircle
 10
606.4138232766472
 20
653.1756094422148
 30
0.0
 40
5.500000119209286
  0
LINE
  5
2065
330
26A8
100
AcDbEntity
  8
0
  6
Continuous
 62
     7
100
AcDbLine
 10
586.1222308310566
 20
644.6755331482702
 30
0.0
 11
573.4138232766472
 21
644.6755331482693
 31
0.0
  0
LINE
  5
2066
330
26A8
100
AcDbEntity
  8
0
  6
Continuous
 62
     7
100
AcDbLine
 10
586.1221733049283
 20
661.6755484070592
 30
0.0
 11
573.4138232766481
 21
661.6755484070592
 31
0.0
  0
LINE
  5
2067
330
26A8
100
AcDbEntity
  8
0
  6
Continuous
 62
     7
100
AcDbLine
 10
570.9137927590691
 20
657.1754110779572
 30
0.0
 11
570.9137927590691
 21
649.1753958191679
 31
0.0
  0
LINE
  5
2068
330
26A8
100
AcDbEntity
  8
0
  6
Continuous
 62
     7
100
AcDbLine
 10
573.4138232766481
 20
661.6755484070592
 30
0.0
 11
573.4138232766472
 21
644.6755331482693
 31
0.0
  0
LINE
  5
2069
330
26A8
100
AcDbEntity
  8
0
  6
Continuous
 62
     7
100
AcDbLine
 10
573.4138232766472
 20
649.1755331482702
 30
0.0
 11
570.9137927590691
 21
649.1755331482702
 31
0.0
  0
LINE
  5
206A
330
26A8
100
AcDbEntity
  8
0
  6
Continuous
 62
     7
100
AcDbLine
 10
573.4138232766472
 20
657.1755484070592
 30
0.0
 11
570.9137927590691
 21
657.1755484070592
 31
0.0
  0
ARC
  5
206E
330
26A8
100
AcDbEntity
  8
0
  6
Continuous
100
AcDbCircle
 10
606.4138232766472
 20
653.1756094422148
 30
0.0
 40
67.5
100
AcDbArc
 50
7.234177743967885
 51
352.4686880465285
  0
LINE
  5
208F
330
26A8
100
AcDbEntity
  8
0
  6
Continuous
100
AcDbLine
 10
501.9389912861056
 20
615.0256155457305
 30
0.0
 11
501.9389601627745
 21
691.3256338562771
 31
0.0
  0
LINE
  5
2090
330
26A8
100
AcDbEntity
  8
0
100
AcDbLine
 10
496.4138232766472
 20
607.6756094422151
 30
0.0
 11
496.4138232766472
 21
698.6756094422148
 31
0.0
  0
LINE
  5
2091
330
26A8
100
AcDbEntity
  8
0
100
AcDbLine
 10
501.9389912861056
 20
615.0256155457305
 30
0.0
 11
550.728744793285
 21
615.0256155457305
 31
0.0
  0
LINE
  5
2092
330
26A8
100
AcDbEntity
  8
0
100
AcDbLine
 10
499.2638077469562
 20
607.6756094422151
 30
0.0
 11
501.9389912861056
 21
615.0256155457305
 31
0.0
  0
LINE
  5
2093
330
26A8
100
AcDbEntity
  8
0
100
AcDbLine
 10
496.4138232766472
 20
607.6756094422151
 30
0.0
 11
499.2638077469562
 21
607.6756094422151
 31
0.0
  0
LINE
  5
2094
330
26A8
100
AcDbEntity
  8
0
100
AcDbLine
 10
501.9389601627745
 20
691.3256338562771
 30
0.0
 11
550.7287657009704
 21
691.3256338562771
 31
0.0
  0
LINE
  5
2095
330
26A8
100
AcDbEntity
  8
0
100
AcDbLine
 10
499.2637877311167
 20
698.6756094422148
 30
0.0
 11
501.9389601627745
 21
691.3256338562771
 31
0.0
  0
LINE
  5
2096
330
26A8
100
AcDbEntity
  8
0
100
AcDbLine
 10
496.4138232766472
 20
698.6756094422148
 30
0.0
 11
499.2637877311167
 21
698.6756094422148
 31
0.0
  0
TEXT
  5
263D
330
26A8
100
AcDbEntity
  8
0
  6
Continuous
100
AcDbText
 10
379.8222739865252
 20
813.5560789131233
 30
0.0
 40
48.000002
  1
WLM__ 3S
 41
1.32095
100
AcDbText
  0
LINE
  5
26FF
330
26A8
100
AcDbEntity
  8
0
  6
CENTER
100
AcDbLine
 10
459.9346983892265
 20
653.1756094422148
 30
0.0
 11
702.6257667080632
 21
653.1756094422148
 31
0.0
  0
LINE
  5
2700
330
26A8
100
AcDbEntity
  8
0
  6
CENTER
100
AcDbLine
 10
606.4138232766472
 20
568.7885050320155
 30
0.0
 11
606.4138232766472
 21
737.5627138524142
 31
0.0
  0
LINE
  5
2701
330
26A8
100
AcDbEntity
  8
0
  6
CENTER
100
AcDbLine
 10
606.413792759069
 20
112.5611827571854
 30
0.0
 11
606.413792759069
 21
454.4530423602298
 31
0.0
  0
LINE
  5
2702
330
26A8
100
AcDbEntity
  8
0
  6
CENTER
100
AcDbLine
 10
448.9870849855755
 20
264.7532790294225
 30
0.0
 11
606.413792759069
 21
264.7532790294225
 31
0.0
  0
ENDSEC
  0
SECTION
  2
OBJECTS
  0
DICTIONARY
  5
2696
330
0
100
AcDbDictionary
281
     1
  3
ACAD_GROUP
350
2697
  3
ACAD_LAYOUT
350
26A3
  3
ACAD_MLINESTYLE
350
26A0
  3
ACAD_PLOTSETTINGS
350
26A2
  3
ACAD_PLOTSTYLENAME
350
2698
  3
AcDbVariableDictionary
350
26EE
  0
DICTIONARY
  5
26F5
330
268C
100
AcDbDictionary
280
     1
281
     1
  3
ACAD_LAYERSTATES
360
26F6
  0
DICTIONARY
  5
26BA
330
26A8
100
AcDbDictionary
280
     1
281
     1
  3
ACAD_LAYOUTSELFREF
360
26E9
  0
DICTIONARY
  5
26BC
330
26A4
100
AcDbDictionary
280
     1
281
     1
  3
ACAD_LAYOUTSELFREF
360
26E8
  0
DICTIONARY
  5
2697
102
{ACAD_REACTORS
330
2696
102
}
330
2696
100
AcDbDictionary
281
     1
  0
DICTIONARY
  5
26A3
102
{ACAD_REACTORS
330
2696
102
}
330
2696
100
AcDbDictionary
281
     1
  3
Model
350
26AB
  3
ﾚｲｱｳﾄ1
350
26A7
  0
DICTIONARY
  5
26A0
102
{ACAD_REACTORS
330
2696
102
}
330
2696
100
AcDbDictionary
281
     1
  3
Standard
350
26A1
  0
DICTIONARY
  5
26A2
102
{ACAD_REACTORS
330
2696
102
}
330
2696
100
AcDbDictionary
281
     1
  0
ACDBDICTIONARYWDFLT
  5
2698
102
{ACAD_REACTORS
330
2696
102
}
330
2696
100
AcDbDictionary
281
     1
  3
Normal
350
2699
100
AcDbDictionaryWithDefault
340
2699
  0
DICTIONARY
  5
26EE
102
{ACAD_REACTORS
330
2696
102
}
330
2696
100
AcDbDictionary
281
     1
  3
DIMASSOC
350
26EF
  0
DICTIONARY
  5
26F6
102
{ACAD_REACTORS
330
26F5
102
}
330
26F5
100
AcDbDictionary
281
     1
  0
XRECORD
  5
26E9
102
{ACAD_REACTORS
330
26BA
102
}
330
26BA
100
AcDbXrecord
280
     1
340
26A8
  0
XRECORD
  5
26E8
102
{ACAD_REACTORS
330
26BC
102
}
330
26BC
100
AcDbXrecord
280
     1
340
26A4
  0
LAYOUT
  5
26AB
102
{ACAD_REACTORS
330
26A3
102
}
330
26A3
100
AcDbPlotSettings
  1

  2
SII LP-2150 (D-SCAN C2)
  4

  6

 40
0.0
 41
0.0
 42
0.0
 43
0.0
 44
0.0
 45
0.0
 46
0.0
 47
0.0
 48
0.0
 49
0.0
140
0.0
141
0.0
142
1.0
143
1.0
 70
  1712
 72
     0
 73
     0
 74
     0
  7

 75
     0
147
1.0
148
0.0
149
0.0
100
AcDbLayout
  1
Model
 70
     1
 71
     0
 10
0.0
 20
0.0
 11
12.0
 21
9.0
 12
0.0
 22
0.0
 32
0.0
 14
0.0
 24
0.0
 34
0.0
 15
0.0
 25
0.0
 35
0.0
146
0.0
 13
0.0
 23
0.0
 33
0.0
 16
1.0
 26
0.0
 36
0.0
 17
0.0
 27
1.0
 37
0.0
 76
     0
330
26A8
  0
LAYOUT
  5
26A7
102
{ACAD_REACTORS
330
26A3
102
}
330
26A3
100
AcDbPlotSettings
  1

  2
SII LP-2150 (D-SCAN C2)
  4

  6

 40
0.0
 41
0.0
 42
0.0
 43
0.0
 44
0.0
 45
0.0
 46
0.0
 47
0.0
 48
0.0
 49
0.0
140
0.0
141
0.0
142
1.0
143
1.0
 70
   688
 72
     0
 73
     0
 74
     5
  7

 75
    16
147
1.0
148
0.0
149
0.0
100
AcDbLayout
  1
ﾚｲｱｳﾄ1
 70
     1
 71
     1
 10
-580.5701293945312
 20
0.0
 11
0.0
 21
407.8999938964844
 12
0.0
 22
0.0
 32
0.0
 14
-580.5701293945312
 24
0.0
 34
0.0
 15
0.0
 25
407.8999938964844
 35
0.0
146
0.0
 13
0.0
 23
0.0
 33
0.0
 16
1.0
 26
0.0
 36
0.0
 17
0.0
 27
1.0
 37
0.0
 76
     0
330
26A4
  0
MLINESTYLE
  5
26A1
102
{ACAD_REACTORS
330
26A0
102
}
330
26A0
100
AcDbMlineStyle
  2
STANDARD
 70
     0
  3

 62
   256
 51
90.0
 52
90.0
 71
     2
 49
0.5
 62
   256
  6
BYLAYER
 49
-0.5
 62
   256
  6
BYLAYER
  0
ACDBPLACEHOLDER
  5
2699
102
{ACAD_REACTORS
330
2698
102
}
330
2698
  0
DICTIONARYVAR
  5
26EF
102
{ACAD_REACTORS
330
26EE
102
}
330
26EE
100
DictionaryVariables
280
     0
  1
1
  0
ENDSEC
  0
EOF
