  0
SECTION
  2
HEADER
  9
$ACADVER
  1
AC1015
  9
$ACADMAINTVER
 70
    14
  9
$DWGCODEPAGE
  3
ANSI_932
  9
$INSBASE
 10
0.0
 20
0.0
 30
0.0
  9
$EXTMIN
 10
465.0113200905743
 20
89.41026223516315
 30
-0.0000000349181948
  9
$EXTMAX
 10
947.0351335024398
 20
757.7614971633725
 30
0.0000000814935746
  9
$LIMMIN
 10
-580.5701293945312
 20
0.0
  9
$LIMMAX
 10
0.0
 20
407.8999938964844
  9
$ORTHOMODE
 70
     0
  9
$REGENMODE
 70
     1
  9
$FILLMODE
 70
     1
  9
$QTEXTMODE
 70
     0
  9
$MIRRTEXT
 70
     1
  9
$LTSCALE
 40
1.0
  9
$ATTMODE
 70
     1
  9
$TEXTSIZE
 40
0.2
  9
$TRACEWID
 40
0.05
  9
$TEXTSTYLE
  7
STANDARD
  9
$CLAYER
  8
0
  9
$CELTYPE
  6
CONTINUOUS
  9
$CECOLOR
 62
   256
  9
$CELTSCALE
 40
1.0
  9
$DISPSILH
 70
     0
  9
$DIMSCALE
 40
1.0
  9
$DIMASZ
 40
1.0
  9
$DIMEXO
 40
2.54
  9
$DIMDLI
 40
0.38
  9
$DIMRND
 40
0.0
  9
$DIMDLE
 40
0.0
  9
$DIMEXE
 40
2.54
  9
$DIMTP
 40
0.0
  9
$DIMTM
 40
0.0
  9
$DIMTXT
 40
3.200000047683714
  9
$DIMCEN
 40
0.09
  9
$DIMTSZ
 40
0.0
  9
$DIMTOL
 70
     0
  9
$DIMLIM
 70
     0
  9
$DIMTIH
 70
     0
  9
$DIMTOH
 70
     0
  9
$DIMSE1
 70
     0
  9
$DIMSE2
 70
     0
  9
$DIMTAD
 70
     1
  9
$DIMZIN
 70
     0
  9
$DIMBLK
  1

  9
$DIMASO
 70
     1
  9
$DIMSHO
 70
     0
  9
$DIMPOST
  1

  9
$DIMAPOST
  1

  9
$DIMALT
 70
     0
  9
$DIMALTD
 70
     2
  9
$DIMALTF
 40
25.4
  9
$DIMLFAC
 40
1.0
  9
$DIMTOFL
 70
     0
  9
$DIMTVP
 40
1.0
  9
$DIMTIX
 70
     0
  9
$DIMSOXD
 70
     0
  9
$DIMSAH
 70
     1
  9
$DIMBLK1
  1

  9
$DIMBLK2
  1

  9
$DIMSTYLE
  2
STANDARD
  9
$DIMCLRD
 70
     0
  9
$DIMCLRE
 70
     0
  9
$DIMCLRT
 70
     0
  9
$DIMTFAC
 40
1.0
  9
$DIMGAP
 40
1.600000023841857
  9
$DIMJUST
 70
     0
  9
$DIMSD1
 70
     0
  9
$DIMSD2
 70
     0
  9
$DIMTOLJ
 70
     1
  9
$DIMTZIN
 70
     0
  9
$DIMALTZ
 70
     0
  9
$DIMALTTZ
 70
     0
  9
$DIMUPT
 70
     0
  9
$DIMDEC
 70
     4
  9
$DIMTDEC
 70
     4
  9
$DIMALTU
 70
     2
  9
$DIMALTTD
 70
     2
  9
$DIMTXSTY
  7
STANDARD
  9
$DIMAUNIT
 70
     0
  9
$DIMADEC
 70
     0
  9
$DIMALTRND
 40
0.0
  9
$DIMAZIN
 70
     0
  9
$DIMDSEP
 70
    46
  9
$DIMATFIT
 70
     3
  9
$DIMFRAC
 70
     0
  9
$DIMLDRBLK
  1

  9
$DIMLUNIT
 70
     2
  9
$DIMLWD
 70
    -2
  9
$DIMLWE
 70
    -2
  9
$DIMTMOVE
 70
     0
  9
$LUNITS
 70
     2
  9
$LUPREC
 70
     4
  9
$SKETCHINC
 40
0.1
  9
$FILLETRAD
 40
0.0
  9
$AUNITS
 70
     0
  9
$AUPREC
 70
     0
  9
$MENU
  1
.
  9
$ELEVATION
 40
0.0
  9
$PELEVATION
 40
0.0
  9
$THICKNESS
 40
0.0
  9
$LIMCHECK
 70
     0
  9
$CHAMFERA
 40
0.0
  9
$CHAMFERB
 40
0.0
  9
$CHAMFERC
 40
0.0
  9
$CHAMFERD
 40
0.0
  9
$SKPOLY
 70
     0
  9
$TDCREATE
 40
2452717.604314595
  9
$TDUCREATE
 40
2452717.229314595
  9
$TDUPDATE
 40
2456899.681663379
  9
$TDUUPDATE
 40
2456899.306663379
  9
$TDINDWG
 40
0.0949417130
  9
$TDUSRTIMER
 40
0.0949417130
  9
$USRTIMER
 70
     1
  9
$ANGBASE
 50
0.0
  9
$ANGDIR
 70
     0
  9
$PDMODE
 70
     0
  9
$PDSIZE
 40
0.0
  9
$PLINEWID
 40
0.0
  9
$SPLFRAME
 70
     0
  9
$SPLINETYPE
 70
     6
  9
$SPLINESEGS
 70
     8
  9
$HANDSEED
  5
2709
  9
$SURFTAB1
 70
     6
  9
$SURFTAB2
 70
     6
  9
$SURFTYPE
 70
     6
  9
$SURFU
 70
     6
  9
$SURFV
 70
     6
  9
$UCSBASE
  2

  9
$UCSNAME
  2

  9
$UCSORG
 10
0.0
 20
0.0
 30
0.0
  9
$UCSXDIR
 10
1.0
 20
0.0
 30
0.0
  9
$UCSYDIR
 10
0.0
 20
1.0
 30
0.0
  9
$UCSORTHOREF
  2

  9
$UCSORTHOVIEW
 70
     0
  9
$UCSORGTOP
 10
0.0
 20
0.0
 30
0.0
  9
$UCSORGBOTTOM
 10
0.0
 20
0.0
 30
0.0
  9
$UCSORGLEFT
 10
0.0
 20
0.0
 30
0.0
  9
$UCSORGRIGHT
 10
0.0
 20
0.0
 30
0.0
  9
$UCSORGFRONT
 10
0.0
 20
0.0
 30
0.0
  9
$UCSORGBACK
 10
0.0
 20
0.0
 30
0.0
  9
$PUCSBASE
  2

  9
$PUCSNAME
  2

  9
$PUCSORG
 10
0.0
 20
0.0
 30
0.0
  9
$PUCSXDIR
 10
1.0
 20
0.0
 30
0.0
  9
$PUCSYDIR
 10
0.0
 20
1.0
 30
0.0
  9
$PUCSORTHOREF
  2

  9
$PUCSORTHOVIEW
 70
     0
  9
$PUCSORGTOP
 10
0.0
 20
0.0
 30
0.0
  9
$PUCSORGBOTTOM
 10
0.0
 20
0.0
 30
0.0
  9
$PUCSORGLEFT
 10
0.0
 20
0.0
 30
0.0
  9
$PUCSORGRIGHT
 10
0.0
 20
0.0
 30
0.0
  9
$PUCSORGFRONT
 10
0.0
 20
0.0
 30
0.0
  9
$PUCSORGBACK
 10
0.0
 20
0.0
 30
0.0
  9
$USERI1
 70
     0
  9
$USERI2
 70
     0
  9
$USERI3
 70
     0
  9
$USERI4
 70
     0
  9
$USERI5
 70
     0
  9
$USERR1
 40
0.0
  9
$USERR2
 40
0.0
  9
$USERR3
 40
0.0
  9
$USERR4
 40
0.0
  9
$USERR5
 40
0.0
  9
$WORLDVIEW
 70
     1
  9
$SHADEDGE
 70
     3
  9
$SHADEDIF
 70
    70
  9
$TILEMODE
 70
     1
  9
$MAXACTVP
 70
    48
  9
$PINSBASE
 10
0.0
 20
0.0
 30
0.0
  9
$PLIMCHECK
 70
     0
  9
$PEXTMIN
 10
-580.5701293945312
 20
0.0
 30
0.0
  9
$PEXTMAX
 10
0.0
 20
407.8999938964844
 30
0.0
  9
$PLIMMIN
 10
-580.5701293945312
 20
0.0
  9
$PLIMMAX
 10
0.0
 20
407.8999938964844
  9
$UNITMODE
 70
     0
  9
$VISRETAIN
 70
     1
  9
$PLINEGEN
 70
     0
  9
$PSLTSCALE
 70
     1
  9
$TREEDEPTH
 70
  3020
  9
$CMLSTYLE
  2
Standard
  9
$CMLJUST
 70
     0
  9
$CMLSCALE
 40
1.0
  9
$PROXYGRAPHICS
 70
     1
  9
$MEASUREMENT
 70
     0
  9
$CELWEIGHT
370
    -1
  9
$ENDCAPS
280
     0
  9
$JOINSTYLE
280
     0
  9
$LWDISPLAY
290
     0
  9
$INSUNITS
 70
     0
  9
$HYPERLINKBASE
  1

  9
$STYLESHEET
  1

  9
$XEDIT
290
     1
  9
$CEPSNTYPE
380
     0
  9
$PSTYLEMODE
290
     1
  9
$FINGERPRINTGUID
  2
{723C801C-C295-411C-BAF1-FCA5AE68BBCE}
  9
$VERSIONGUID
  2
{7C3253DD-7D9F-4F93-80E5-6A7059A00EA3}
  9
$EXTNAMES
290
     1
  9
$PSVPSCALE
 40
0.0
  9
$OLESTARTUP
290
     0
  0
ENDSEC
  0
SECTION
  2
CLASSES
  0
CLASS
  1
ACDBDICTIONARYWDFLT
  2
AcDbDictionaryWithDefault
  3
AutoCAD 2000
 90
        0
280
     0
281
     0
  0
CLASS
  1
ACDBPLACEHOLDER
  2
AcDbPlaceHolder
  3
AutoCAD 2000
 90
        0
280
     0
281
     0
  0
CLASS
  1
LAYOUT
  2
AcDbLayout
  3
AutoCAD 2000
 90
        0
280
     0
281
     0
  0
CLASS
  1
DICTIONARYVAR
  2
AcDbDictionaryVar
  3
AutoCAD 2000
 90
        0
280
     0
281
     0
  0
CLASS
  1
LONG_TRANSACTION
  2
AcDbLongTransaction
  3
AutoCAD 2000
 90
    32768
280
     0
281
     0
  0
CLASS
  1
LWPOLYLINE
  2
AcDbPolyline
  3
AutoCAD 2000
 90
    32768
280
     0
281
     1
  0
CLASS
  1
HATCH
  2
AcDbHatch
  3
AutoCAD 2000
 90
    32768
280
     0
281
     1
  0
CLASS
  1
XRECORD
  2
AcDbXrecord
  3
AutoCAD 2000
 90
    32768
280
     0
281
     0
  0
ENDSEC
  0
SECTION
  2
TABLES
  0
TABLE
  2
VPORT
  5
2692
330
0
100
AcDbSymbolTable
 70
     2
  0
VPORT
  5
2708
330
2692
100
AcDbSymbolTableRecord
100
AcDbViewportTableRecord
  2
*Active
 70
     0
 10
0.0
 20
0.0
 11
1.0
 21
1.0
 12
706.0232267965071
 22
423.5858796992678
 13
0.0
 23
0.0
 14
1.0
 24
1.0
 15
0.0
 25
0.0
 16
0.0
 26
0.0
 36
1.0
 17
0.0
 27
0.0
 37
0.0
 40
672.5947348325155
 41
1.592161016949152
 42
50.0
 43
0.0
 44
0.0
 50
0.0
 51
0.0
 71
     0
 72
   100
 73
     1
 74
     3
 75
     0
 76
     0
 77
     0
 78
     0
281
     0
 65
     1
110
0.0
120
0.0
130
0.0
111
1.0
121
0.0
131
0.0
112
0.0
122
1.0
132
0.0
 79
     0
146
0.0
  0
ENDTAB
  0
TABLE
  2
LTYPE
  5
268F
330
0
100
AcDbSymbolTable
 70
     2
  0
LTYPE
  5
269D
330
268F
100
AcDbSymbolTableRecord
100
AcDbLinetypeTableRecord
  2
ByBlock
 70
     0
  3

 72
    65
 73
     0
 40
0.0
  0
LTYPE
  5
269E
330
268F
100
AcDbSymbolTableRecord
100
AcDbLinetypeTableRecord
  2
ByLayer
 70
     0
  3

 72
    65
 73
     0
 40
0.0
  0
LTYPE
  5
269F
330
268F
100
AcDbSymbolTableRecord
100
AcDbLinetypeTableRecord
  2
CONTINUOUS
 70
     0
  3
Solid line
 72
    65
 73
     0
 40
0.0
  0
LTYPE
  5
26F4
330
268F
100
AcDbSymbolTableRecord
100
AcDbLinetypeTableRecord
  2
CENTER
 70
     0
  3
__ . __
 72
    65
 73
     4
 40
7.0
 49
4.0
 74
     0
 49
-1.0
 74
     0
 49
1.0
 74
     0
 49
-1.0
 74
     0
  0
ENDTAB
  0
TABLE
  2
LAYER
  5
268C
102
{ACAD_XDICTIONARY
360
26F5
102
}
330
0
100
AcDbSymbolTable
 70
     2
  0
LAYER
  5
269A
330
268C
100
AcDbSymbolTableRecord
100
AcDbLayerTableRecord
  2
0
 70
     0
 62
     7
  6
CONTINUOUS
370
    -3
390
2699
  0
LAYER
  5
26AD
330
268C
100
AcDbSymbolTableRecord
100
AcDbLayerTableRecord
  2
DEFPOINTS
 70
     0
 62
     7
  6
CONTINUOUS
290
     0
370
    -3
390
2699
  0
ENDTAB
  0
TABLE
  2
STYLE
  5
268D
330
0
100
AcDbSymbolTable
 70
     1
  0
STYLE
  5
269B
330
268D
100
AcDbSymbolTableRecord
100
AcDbTextStyleTableRecord
  2
STANDARD
 70
     0
 40
0.0
 41
1.0
 50
0.0
 71
     0
 42
0.2
  3
txt
  4
BIGFONT
  0
ENDTAB
  0
TABLE
  2
VIEW
  5
2690
330
0
100
AcDbSymbolTable
 70
     0
  0
ENDTAB
  0
TABLE
  2
UCS
  5
2691
330
0
100
AcDbSymbolTable
 70
     0
  0
ENDTAB
  0
TABLE
  2
APPID
  5
2693
330
0
100
AcDbSymbolTable
 70
     4
  0
APPID
  5
269C
330
2693
100
AcDbSymbolTableRecord
100
AcDbRegAppTableRecord
  2
ACAD
 70
     0
  0
APPID
  5
26AE
330
2693
100
AcDbSymbolTableRecord
100
AcDbRegAppTableRecord
  2
MCAD_NO_VIS
 70
     0
  0
APPID
  5
26AF
330
2693
100
AcDbSymbolTableRecord
100
AcDbRegAppTableRecord
  2
ACAD_TEMP_GRAPHIC
 70
     0
  0
APPID
  5
26B0
330
2693
100
AcDbSymbolTableRecord
100
AcDbRegAppTableRecord
  2
ACATTRIBSERVICES
 70
     0
  0
ENDTAB
  0
TABLE
  2
DIMSTYLE
  5
2694
330
0
100
AcDbSymbolTable
 70
     1
100
AcDbDimStyleTable
 71
     0
  0
DIMSTYLE
105
26B1
330
2694
100
AcDbSymbolTableRecord
100
AcDbDimStyleTableRecord
  2
STANDARD
 70
     0
279
     2
340
269B
  0
ENDTAB
  0
TABLE
  2
BLOCK_RECORD
  5
268B
330
0
100
AcDbSymbolTable
 70
     2
  0
BLOCK_RECORD
  5
26A8
102
{ACAD_XDICTIONARY
360
26BA
102
}
330
268B
100
AcDbSymbolTableRecord
100
AcDbBlockTableRecord
  2
*Model_Space
340
26AB
  0
BLOCK_RECORD
  5
26A4
102
{ACAD_XDICTIONARY
360
26BC
102
}
330
268B
100
AcDbSymbolTableRecord
100
AcDbBlockTableRecord
  2
*Paper_Space
340
26A7
  0
BLOCK_RECORD
  5
26B4
330
268B
100
AcDbSymbolTableRecord
100
AcDbBlockTableRecord
  2
$MODEL_SPACE
340
0
  0
BLOCK_RECORD
  5
26B6
330
268B
100
AcDbSymbolTableRecord
100
AcDbBlockTableRecord
  2
$PAPER_SPACE
340
0
  0
ENDTAB
  0
ENDSEC
  0
SECTION
  2
BLOCKS
  0
BLOCK
  5
26A9
330
26A8
100
AcDbEntity
  8
0
100
AcDbBlockBegin
  2
*Model_Space
 70
     0
 10
0.0
 20
0.0
 30
0.0
  3
*Model_Space
  1

  0
ENDBLK
  5
26AA
330
26A8
100
AcDbEntity
  8
0
100
AcDbBlockEnd
  0
BLOCK
  5
26A5
330
26A4
100
AcDbEntity
 67
     1
  8
0
100
AcDbBlockBegin
  2
*Paper_Space
 70
     0
 10
0.0
 20
0.0
 30
0.0
  3
*Paper_Space
  1

  0
ENDBLK
  5
26A6
330
26A4
100
AcDbEntity
 67
     1
  8
0
100
AcDbBlockEnd
  0
BLOCK
  5
26B5
330
26B4
100
AcDbEntity
  8
0
100
AcDbBlockBegin
  2
$MODEL_SPACE
 70
     0
 10
0.0
 20
0.0
 30
0.0
  3
$MODEL_SPACE
  1

  0
ENDBLK
  5
2675
330
26B4
100
AcDbEntity
  8
0
100
AcDbBlockEnd
  0
BLOCK
  5
26B7
330
26B6
100
AcDbEntity
  8
0
100
AcDbBlockBegin
  2
$PAPER_SPACE
 70
     0
 10
0.0
 20
0.0
 30
0.0
  3
$PAPER_SPACE
  1

  0
ENDBLK
  5
2671
330
26B6
100
AcDbEntity
  8
0
100
AcDbBlockEnd
  0
ENDSEC
  0
SECTION
  2
ENTITIES
  0
LINE
  5
1AF7
330
26A8
100
AcDbEntity
  8
0
100
AcDbLine
 10
689.863210280935
 20
256.9495689078209
 30
0.0
 11
689.8631852110781
 21
325.9546500421236
 31
0.0
  0
LINE
  5
1B05
330
26A8
100
AcDbEntity
  8
0
100
AcDbLine
 10
689.863210280935
 20
256.9495689078209
 30
0.0
 11
645.8632255397274
 21
256.9495529224274
 31
0.0
  0
LINE
  5
1B1A
330
26A8
100
AcDbEntity
  8
0
100
AcDbLine
 10
648.8632150226903
 20
243.8978267174136
 30
0.0
 11
648.8632102809383
 21
256.9495540123357
 31
0.0
  0
LINE
  5
1B3D
330
26A8
100
AcDbEntity
  8
0
100
AcDbLine
 10
686.8632150226872
 20
243.8978405229854
 30
0.0
 11
686.8632102809365
 21
256.9495678179064
 31
0.0
  0
LINE
  5
1B55
330
26A8
100
AcDbEntity
  8
0
100
AcDbLine
 10
738.863190398657
 20
326.4496174098076
 30
0.0
 11
689.8631852110781
 21
325.9546500421236
 31
0.0
  0
LINE
  5
1B56
330
26A8
100
AcDbEntity
  8
0
100
AcDbLine
 10
746.3631824881372
 20
333.4495894345208
 30
0.0
 11
689.3631977469294
 21
333.4495687261687
 31
0.0
  0
LINE
  5
1B5A
330
26A8
100
AcDbEntity
  8
0
100
AcDbLine
 10
689.3631968386626
 20
335.9495839849578
 30
0.0
 11
646.3631815798756
 21
335.9495683628576
 31
0.0
  0
LINE
  5
1B5B
330
26A8
100
AcDbEntity
  8
0
100
AcDbLine
 10
646.3631823064861
 20
333.9495683628588
 30
0.0
 11
646.3631815798756
 21
335.9495683628576
 31
0.0
  0
LINE
  5
1B61
330
26A8
100
AcDbEntity
  8
0
100
AcDbLine
 10
630.3631964753573
 20
315.9495778087797
 30
0.0
 11
634.8632117341453
 21
315.949579443655
 31
0.0
  0
LINE
  5
1B62
330
26A8
100
AcDbEntity
  8
0
100
AcDbLine
 10
630.3631935689319
 20
323.9495472912008
 30
0.0
 11
634.8632088277212
 21
323.9495489260765
 31
0.0
  0
LINE
  5
1B65
330
26A8
100
AcDbEntity
  8
0
100
AcDbLine
 10
630.3631964753573
 20
315.9495778087797
 30
0.0
 11
630.3631935689319
 21
323.9495472912008
 31
0.0
  0
LINE
  5
1B6B
330
26A8
100
AcDbEntity
  8
0
100
AcDbLine
 10
634.8632130057225
 20
312.4495489260778
 30
0.0
 11
634.8632075561554
 21
327.4495489260766
 31
0.0
  0
LINE
  5
1B6C
330
26A8
100
AcDbEntity
  8
0
100
AcDbLine
 10
645.8632053763271
 20
312.4495529224248
 30
0.0
 11
634.8632130057225
 21
312.4495489260778
 31
0.0
  0
LINE
  5
1B6E
330
26A8
100
AcDbEntity
  8
0
100
AcDbLine
 10
645.8631999267604
 20
327.4495529224227
 30
0.0
 11
634.8632075561554
 21
327.4495489260766
 31
0.0
  0
LINE
  5
1B71
330
26A8
100
AcDbEntity
  8
0
100
AcDbLine
 10
645.8632255397274
 20
256.9495529224274
 30
0.0
 11
645.8631975652751
 21
333.9495681812118
 31
0.0
  0
LINE
  5
1B78
330
26A8
100
AcDbEntity
  8
0
100
AcDbLine
 10
689.3631977469294
 20
333.4495687261687
 30
0.0
 11
689.3631968386626
 21
335.9495839849578
 31
0.0
  0
LINE
  5
1BB5
330
26A8
100
AcDbEntity
  8
0
100
AcDbLine
 10
689.3631975652724
 20
333.9495839849586
 30
0.0
 11
645.8631975652751
 21
333.9495681812118
 31
0.0
  0
LINE
  5
1BB9
330
26A8
100
AcDbEntity
  8
0
100
AcDbLine
 10
675.8631950221465
 20
340.9495638215577
 30
0.0
 11
659.8632102809376
 21
340.9495580086907
 31
0.0
  0
LINE
  5
1BC4
330
26A8
100
AcDbEntity
  8
0
100
AcDbLine
 10
659.8632102809376
 20
340.9495580086907
 30
0.0
 11
659.8632119158073
 21
336.4495580086916
 31
0.0
  0
LINE
  5
1BCA
330
26A8
100
AcDbEntity
  8
0
100
AcDbLine
 10
675.8631950221465
 20
340.9495638215577
 30
0.0
 11
675.8631966570162
 21
336.4495638215577
 31
0.0
  0
LINE
  5
1BD0
330
26A8
100
AcDbEntity
  8
0
100
AcDbLine
 10
738.8631977469263
 20
333.449586709743
 30
0.0
 11
738.8631708623869
 21
407.4496019685263
 31
0.0
  0
LINE
  5
1BD1
330
26A8
100
AcDbEntity
  8
0
100
AcDbLine
 10
755.8631850312622
 20
326.449608144703
 30
0.0
 11
755.8631556035982
 21
407.4496081446977
 31
0.0
  0
LINE
  5
1BD4
330
26A8
100
AcDbEntity
  8
0
100
AcDbLine
 10
755.8631821248318
 20
334.4495928859137
 30
0.0
 11
738.863197383621
 21
334.449586709743
 31
0.0
  0
LINE
  5
1BD5
330
26A8
100
AcDbEntity
  8
0
100
AcDbLine
 10
755.8631850312622
 20
326.449608144703
 30
0.0
 11
738.8632002900516
 21
326.4496019685316
 31
0.0
  0
LINE
  5
1BDC
330
26A8
100
AcDbEntity
  8
0
100
AcDbLine
 10
755.8631556035982
 20
407.4496081446977
 30
0.0
 11
738.8631708623869
 21
407.4496019685263
 31
0.0
  0
LINE
  5
1BE1
330
26A8
100
AcDbEntity
  8
0
  6
Continuous
100
AcDbLine
 10
642.4632697902134
 20
121.7500286652928
 30
0.0
 11
693.263249953789
 21
121.7500571392577
 31
0.0
  0
LINE
  5
1BE2
330
26A8
100
AcDbEntity
  8
0
  6
Continuous
100
AcDbLine
 10
591.1154379948086
 20
173.0978455739125
 30
0.0
 11
591.1154800897373
 21
223.8978028493037
 31
0.0
  0
LINE
  5
1BE3
330
26A8
100
AcDbEntity
  8
0
100
AcDbLine
 10
698.8632271088695
 20
168.3978028493038
 30
0.0
 11
693.263249953789
 21
165.1646544733318
 31
0.0
  0
LINE
  5
1BE4
330
26A8
100
AcDbEntity
  8
0
100
AcDbLine
 10
636.8631843981432
 20
168.3978028493038
 30
0.0
 11
642.4632697902152
 21
165.1645919826758
 31
0.0
  0
LINE
  5
1BE7
330
26A8
100
AcDbEntity
  8
0
100
AcDbLine
 10
629.7132697902144
 20
226.8978331135615
 30
0.0
 11
629.7132697902144
 21
168.3978028493038
 31
0.0
  0
LINE
  5
1BE8
330
26A8
100
AcDbEntity
  8
0
100
AcDbLine
 10
591.1154800897373
 20
223.8978028493037
 30
0.0
 11
629.7132697902144
 21
223.8978028493037
 31
0.0
  0
LINE
  5
1BE9
330
26A8
100
AcDbEntity
  8
0
100
AcDbLine
 10
591.1154379948086
 20
173.0978455739125
 30
0.0
 11
629.7132697902144
 21
173.0978455739125
 31
0.0
  0
LINE
  5
1BEA
330
26A8
100
AcDbEntity
  8
0
100
AcDbLine
 10
720.3632271043471
 20
226.8978331135636
 30
0.0
 11
720.3632271043471
 21
243.8978336202016
 31
0.0
  0
LINE
  5
1BEB
330
26A8
100
AcDbEntity
  8
0
100
AcDbLine
 10
615.3632239751045
 20
243.8978336202008
 30
0.0
 11
720.3632271043471
 21
243.8978336202016
 31
0.0
  0
LINE
  5
1BEC
330
26A8
100
AcDbEntity
  8
0
100
AcDbLine
 10
615.3632239751045
 20
226.8978331135615
 30
0.0
 11
720.3632271043471
 21
226.8978331135636
 31
0.0
  0
LINE
  5
1BED
330
26A8
100
AcDbEntity
  8
0
100
AcDbLine
 10
615.3632239751045
 20
226.8978331135615
 30
0.0
 11
615.3632239751045
 21
243.8978336202008
 31
0.0
  0
LINE
  5
1BEE
330
26A8
100
AcDbEntity
  8
0
100
AcDbLine
 10
588.7132631285716
 20
230.4978394703967
 30
0.0
 11
591.1154800897373
 21
223.8978028493037
 31
0.0
  0
LINE
  5
1BEF
330
26A8
100
AcDbEntity
  8
0
100
AcDbLine
 10
585.8632407985147
 20
230.4978394703967
 30
0.0
 11
588.7132631285716
 21
230.4978394703967
 31
0.0
  0
LINE
  5
1BF0
330
26A8
100
AcDbEntity
  8
0
100
AcDbLine
 10
585.8632407985147
 20
166.4978089528185
 30
0.0
 11
588.7132210336452
 21
166.4978089528185
 31
0.0
  0
LINE
  5
1BF1
330
26A8
100
AcDbEntity
  8
0
100
AcDbLine
 10
588.7132210336452
 20
166.4978089528185
 30
0.0
 11
591.1154379948086
 21
173.0978455739125
 31
0.0
  0
LINE
  5
1BF2
330
26A8
100
AcDbEntity
  8
0
100
AcDbLine
 10
699.863286574882
 20
116.4978394703976
 30
0.0
 11
699.863286574882
 21
119.3478401780937
 31
0.0
  0
LINE
  5
1BF3
330
26A8
100
AcDbEntity
  8
0
100
AcDbLine
 10
699.863286574882
 20
119.3478401780937
 30
0.0
 11
693.263249953789
 21
121.7500571392577
 31
0.0
  0
LINE
  5
1BF4
330
26A8
100
AcDbEntity
  8
0
100
AcDbLine
 10
693.263249953789
 20
121.7500571392577
 30
0.0
 11
693.263249953789
 21
165.1646544733318
 31
0.0
  0
LINE
  5
1BF5
330
26A8
100
AcDbEntity
  8
0
100
AcDbLine
 10
635.863233169121
 20
119.3478117041283
 30
0.0
 11
642.4632697902134
 21
121.7500286652928
 31
0.0
  0
LINE
  5
1BF6
330
26A8
100
AcDbEntity
  8
0
100
AcDbLine
 10
635.863233169121
 20
116.4978394703976
 30
0.0
 11
635.863233169121
 21
119.3478117041283
 31
0.0
  0
LINE
  5
1BF7
330
26A8
100
AcDbEntity
  8
0
100
AcDbLine
 10
642.4632697902134
 20
121.7500286652928
 30
0.0
 11
642.4632697902152
 21
165.1645919826758
 31
0.0
  0
LINE
  5
1BF8
330
26A8
100
AcDbEntity
  8
0
100
AcDbLine
 10
706.0132499537891
 20
168.3978028493038
 30
0.0
 11
629.7132697902144
 21
168.3978028493038
 31
0.0
  0
LINE
  5
1BF9
330
26A8
100
AcDbEntity
  8
0
100
AcDbLine
 10
706.0132499537891
 20
226.8978028493036
 30
0.0
 11
706.0132499537891
 21
168.3978028493038
 31
0.0
  0
LINE
  5
1BFA
330
26A8
100
AcDbEntity
  8
0
100
AcDbLine
 10
635.863233169121
 20
116.4978394703976
 30
0.0
 11
699.863286574882
 21
116.4978394703976
 31
0.0
  0
LINE
  5
1BFB
330
26A8
100
AcDbEntity
  8
0
100
AcDbLine
 10
636.0594306788852
 20
168.3978028493038
 30
0.0
 11
632.7132697902144
 21
168.3978028493038
 31
0.0
  0
LINE
  5
1BFC
330
26A8
100
AcDbEntity
  8
0
100
AcDbLine
 10
585.8632407985147
 20
166.4978089528185
 30
0.0
 11
585.8632407985147
 21
230.4978394703967
 31
0.0
  0
LINE
  5
202F
330
26A8
100
AcDbEntity
  8
0
  6
Continuous
 62
     7
100
AcDbLine
 10
747.3632942042764
 20
514.0368450507205
 30
0.0
 11
700.8290992579872
 21
514.0368450507205
 31
0.0
  0
LINE
  5
2030
330
26A8
100
AcDbEntity
  8
0
  6
Continuous
 62
     7
100
AcDbLine
 10
747.3632942042764
 20
531.0368603095096
 30
0.0
 11
700.8290992579872
 21
531.0368603095096
 31
0.0
  0
CIRCLE
  5
2031
330
26A8
100
AcDbEntity
  8
0
  6
Continuous
 62
     7
100
AcDbCircle
 10
747.363156875175
 20
522.5369213446656
 30
0.0
 40
8.499999761581419
  0
CIRCLE
  5
2032
330
26A8
100
AcDbEntity
  8
0
  6
Continuous
 62
     7
100
AcDbCircle
 10
667.8632255397253
 20
522.5369213446656
 30
0.0
 40
22.00000047683715
  0
CIRCLE
  5
2033
330
26A8
100
AcDbEntity
  8
0
  6
Continuous
 62
     7
100
AcDbCircle
 10
667.8632255397253
 20
536.5368450507205
 30
0.0
 40
4.500000134110448
  0
ARC
  5
2034
330
26A8
100
AcDbEntity
  8
0
  6
Continuous
 62
     7
100
AcDbCircle
 10
700.8290763698032
 20
556.0368450507205
 30
0.0
 40
25.0000019073486
100
AcDbArc
 50
225.4604149695246
 51
270.0
  0
ARC
  5
2035
330
26A8
100
AcDbEntity
  8
0
  6
Continuous
 62
     7
100
AcDbCircle
 10
700.8290763698032
 20
489.0368603095097
 30
0.0
 40
25.0000019073486
100
AcDbArc
 50
89.99997768819374
 51
134.5395593035806
  0
CIRCLE
  5
2036
330
26A8
100
AcDbEntity
  8
0
  6
Continuous
 62
     7
100
AcDbCircle
 10
667.8632255397253
 20
508.5368603095083
 30
0.0
 40
4.500000134110448
  0
CIRCLE
  5
2037
330
26A8
100
AcDbEntity
  8
0
  6
Continuous
 62
     7
100
AcDbCircle
 10
667.8632255397253
 20
522.5369213446656
 30
0.0
 40
5.500000119209286
  0
LINE
  5
203D
330
26A8
100
AcDbEntity
  8
0
  6
Continuous
 62
     7
100
AcDbLine
 10
647.571633094135
 20
514.0368450507205
 30
0.0
 11
634.8632255397253
 21
514.0368450507205
 31
0.0
  0
LINE
  5
203E
330
26A8
100
AcDbEntity
  8
0
  6
Continuous
 62
     7
100
AcDbLine
 10
647.5715755680071
 20
531.0368603095105
 30
0.0
 11
634.8632255397265
 21
531.0368603095096
 31
0.0
  0
LINE
  5
203F
330
26A8
100
AcDbEntity
  8
0
  6
Continuous
 62
     7
100
AcDbLine
 10
632.3631950221473
 20
526.5367229804076
 30
0.0
 11
632.3631950221473
 21
518.5367077216197
 31
0.0
  0
LINE
  5
2040
330
26A8
100
AcDbEntity
  8
0
  6
Continuous
 62
     7
100
AcDbLine
 10
634.8632255397265
 20
531.0368603095096
 30
0.0
 11
634.8632255397253
 21
514.0368450507205
 31
0.0
  0
LINE
  5
2041
330
26A8
100
AcDbEntity
  8
0
  6
Continuous
 62
     7
100
AcDbLine
 10
634.8632255397253
 20
518.5368450507205
 30
0.0
 11
632.3631950221473
 21
518.5368450507205
 31
0.0
  0
LINE
  5
2042
330
26A8
100
AcDbEntity
  8
0
  6
Continuous
 62
     7
100
AcDbLine
 10
634.8632255397253
 20
526.5368603095096
 30
0.0
 11
632.3631950221473
 21
526.5368603095096
 31
0.0
  0
ARC
  5
206C
330
26A8
100
AcDbEntity
  8
0
  6
Continuous
100
AcDbCircle
 10
667.8632255397253
 20
522.5369213446656
 30
0.0
 40
52.50000156462192
100
AcDbArc
 50
9.317404953865946
 51
350.6824431684551
  0
LINE
  5
207E
330
26A8
100
AcDbEntity
  8
0
100
AcDbLine
 10
585.8632407985147
 20
490.5369060858764
 30
0.0
 11
585.8632407985147
 21
554.5369366034544
 31
0.0
  0
LINE
  5
207F
330
26A8
100
AcDbEntity
  8
0
100
AcDbLine
 10
588.7132210336452
 20
490.5369060858764
 30
0.0
 11
591.1154379948086
 21
497.1369427069705
 31
0.0
  0
LINE
  5
2080
330
26A8
100
AcDbEntity
  8
0
100
AcDbLine
 10
585.8632407985147
 20
490.5369060858764
 30
0.0
 11
588.7132210336452
 21
490.5369060858764
 31
0.0
  0
LINE
  5
2081
330
26A8
100
AcDbEntity
  8
0
100
AcDbLine
 10
585.8632407985147
 20
554.5369366034544
 30
0.0
 11
588.7132631285716
 21
554.5369366034544
 31
0.0
  0
LINE
  5
2082
330
26A8
100
AcDbEntity
  8
0
100
AcDbLine
 10
588.7132631285716
 20
554.5369366034544
 30
0.0
 11
591.1154800897373
 21
547.9368999823616
 31
0.0
  0
LINE
  5
2083
330
26A8
100
AcDbEntity
  8
0
  6
Continuous
100
AcDbLine
 10
591.1154379948086
 20
497.1369427069705
 30
0.0
 11
591.1154800897373
 21
547.9368999823616
 31
0.0
  0
LINE
  5
2084
330
26A8
100
AcDbEntity
  8
0
100
AcDbLine
 10
591.1154379948086
 20
497.1369427069705
 30
0.0
 11
621.9166125036172
 21
497.1369427069705
 31
0.0
  0
LINE
  5
2085
330
26A8
100
AcDbEntity
  8
0
100
AcDbLine
 10
591.1154800897373
 20
547.9368999823616
 30
0.0
 11
621.9166125036172
 21
547.93689998236
 31
0.0
  0
TEXT
  5
263B
330
26A8
100
AcDbEntity
  8
0
  6
Continuous
100
AcDbText
 10
465.059312953072
 20
709.7152436607355
 30
0.0
 40
48.000002
  1
WLM__ 2S
 41
1.32095
100
AcDbText
  0
LINE
  5
26FF
330
26A8
100
AcDbEntity
  8
0
  6
CENTER
100
AcDbLine
 10
554.8306468378296
 20
522.5369213446656
 30
0.0
 11
764.0751689711414
 21
522.5369213446656
 31
0.0
  0
LINE
  5
2700
330
26A8
100
AcDbEntity
  8
0
  6
CENTER
100
AcDbLine
 10
667.8632255397253
 20
455.5851537596432
 30
0.0
 11
667.8632255397253
 21
589.488688929688
 31
0.0
  0
LINE
  5
2701
330
26A8
100
AcDbEntity
  8
0
  6
CENTER
100
AcDbLine
 10
667.8632255397258
 20
89.45553544775885
 30
0.0
 11
667.8632255397258
 21
353.0450469288652
 31
0.0
  0
LINE
  5
2702
330
26A8
100
AcDbEntity
  8
0
  6
CENTER
100
AcDbLine
 10
563.1159945995377
 20
198.4978242116076
 30
0.0
 11
667.8632255397258
 21
198.4978242116076
 31
0.0
  0
ENDSEC
  0
SECTION
  2
OBJECTS
  0
DICTIONARY
  5
2696
330
0
100
AcDbDictionary
281
     1
  3
ACAD_GROUP
350
2697
  3
ACAD_LAYOUT
350
26A3
  3
ACAD_MLINESTYLE
350
26A0
  3
ACAD_PLOTSETTINGS
350
26A2
  3
ACAD_PLOTSTYLENAME
350
2698
  3
AcDbVariableDictionary
350
26EE
  0
DICTIONARY
  5
26F5
330
268C
100
AcDbDictionary
280
     1
281
     1
  3
ACAD_LAYERSTATES
360
26F6
  0
DICTIONARY
  5
26BA
330
26A8
100
AcDbDictionary
280
     1
281
     1
  3
ACAD_LAYOUTSELFREF
360
26E9
  0
DICTIONARY
  5
26BC
330
26A4
100
AcDbDictionary
280
     1
281
     1
  3
ACAD_LAYOUTSELFREF
360
26E8
  0
DICTIONARY
  5
2697
102
{ACAD_REACTORS
330
2696
102
}
330
2696
100
AcDbDictionary
281
     1
  0
DICTIONARY
  5
26A3
102
{ACAD_REACTORS
330
2696
102
}
330
2696
100
AcDbDictionary
281
     1
  3
Model
350
26AB
  3
ﾚｲｱｳﾄ1
350
26A7
  0
DICTIONARY
  5
26A0
102
{ACAD_REACTORS
330
2696
102
}
330
2696
100
AcDbDictionary
281
     1
  3
Standard
350
26A1
  0
DICTIONARY
  5
26A2
102
{ACAD_REACTORS
330
2696
102
}
330
2696
100
AcDbDictionary
281
     1
  0
ACDBDICTIONARYWDFLT
  5
2698
102
{ACAD_REACTORS
330
2696
102
}
330
2696
100
AcDbDictionary
281
     1
  3
Normal
350
2699
100
AcDbDictionaryWithDefault
340
2699
  0
DICTIONARY
  5
26EE
102
{ACAD_REACTORS
330
2696
102
}
330
2696
100
AcDbDictionary
281
     1
  3
DIMASSOC
350
26EF
  0
DICTIONARY
  5
26F6
102
{ACAD_REACTORS
330
26F5
102
}
330
26F5
100
AcDbDictionary
281
     1
  0
XRECORD
  5
26E9
102
{ACAD_REACTORS
330
26BA
102
}
330
26BA
100
AcDbXrecord
280
     1
340
26A8
  0
XRECORD
  5
26E8
102
{ACAD_REACTORS
330
26BC
102
}
330
26BC
100
AcDbXrecord
280
     1
340
26A4
  0
LAYOUT
  5
26AB
102
{ACAD_REACTORS
330
26A3
102
}
330
26A3
100
AcDbPlotSettings
  1

  2
SII LP-2150 (D-SCAN C2)
  4

  6

 40
0.0
 41
0.0
 42
0.0
 43
0.0
 44
0.0
 45
0.0
 46
0.0
 47
0.0
 48
0.0
 49
0.0
140
0.0
141
0.0
142
1.0
143
1.0
 70
  1712
 72
     0
 73
     0
 74
     0
  7

 75
     0
147
1.0
148
0.0
149
0.0
100
AcDbLayout
  1
Model
 70
     1
 71
     0
 10
0.0
 20
0.0
 11
12.0
 21
9.0
 12
0.0
 22
0.0
 32
0.0
 14
0.0
 24
0.0
 34
0.0
 15
0.0
 25
0.0
 35
0.0
146
0.0
 13
0.0
 23
0.0
 33
0.0
 16
1.0
 26
0.0
 36
0.0
 17
0.0
 27
1.0
 37
0.0
 76
     0
330
26A8
  0
LAYOUT
  5
26A7
102
{ACAD_REACTORS
330
26A3
102
}
330
26A3
100
AcDbPlotSettings
  1

  2
SII LP-2150 (D-SCAN C2)
  4

  6

 40
0.0
 41
0.0
 42
0.0
 43
0.0
 44
0.0
 45
0.0
 46
0.0
 47
0.0
 48
0.0
 49
0.0
140
0.0
141
0.0
142
1.0
143
1.0
 70
   688
 72
     0
 73
     0
 74
     5
  7

 75
    16
147
1.0
148
0.0
149
0.0
100
AcDbLayout
  1
ﾚｲｱｳﾄ1
 70
     1
 71
     1
 10
-580.5701293945312
 20
0.0
 11
0.0
 21
407.8999938964844
 12
0.0
 22
0.0
 32
0.0
 14
-580.5701293945312
 24
0.0
 34
0.0
 15
0.0
 25
407.8999938964844
 35
0.0
146
0.0
 13
0.0
 23
0.0
 33
0.0
 16
1.0
 26
0.0
 36
0.0
 17
0.0
 27
1.0
 37
0.0
 76
     0
330
26A4
  0
MLINESTYLE
  5
26A1
102
{ACAD_REACTORS
330
26A0
102
}
330
26A0
100
AcDbMlineStyle
  2
STANDARD
 70
     0
  3

 62
   256
 51
90.0
 52
90.0
 71
     2
 49
0.5
 62
   256
  6
BYLAYER
 49
-0.5
 62
   256
  6
BYLAYER
  0
ACDBPLACEHOLDER
  5
2699
102
{ACAD_REACTORS
330
2698
102
}
330
2698
  0
DICTIONARYVAR
  5
26EF
102
{ACAD_REACTORS
330
26EE
102
}
330
26EE
100
DictionaryVariables
280
     0
  1
1
  0
ENDSEC
  0
EOF
