  0
SECTION
  2
HEADER
  9
$ACADVER
  1
AC1015
  9
$ACADMAINTVER
 70
    14
  9
$DWGCODEPAGE
  3
ANSI_932
  9
$INSBASE
 10
0.0
 20
0.0
 30
0.0
  9
$EXTMIN
 10
484.9429277856943
 20
116.9736781532524
 30
-0.0000000349181948
  9
$EXTMAX
 10
1030.382961335327
 20
787.652399830064
 30
0.0000000814935746
  9
$LIMMIN
 10
-580.5701293945312
 20
0.0
  9
$LIMMAX
 10
0.0
 20
407.8999938964844
  9
$ORTHOMODE
 70
     0
  9
$REGENMODE
 70
     1
  9
$FILLMODE
 70
     1
  9
$QTEXTMODE
 70
     0
  9
$MIRRTEXT
 70
     1
  9
$LTSCALE
 40
1.0
  9
$ATTMODE
 70
     1
  9
$TEXTSIZE
 40
0.2
  9
$TRACEWID
 40
0.05
  9
$TEXTSTYLE
  7
STANDARD
  9
$CLAYER
  8
0
  9
$CELTYPE
  6
CONTINUOUS
  9
$CECOLOR
 62
   256
  9
$CELTSCALE
 40
1.0
  9
$DISPSILH
 70
     0
  9
$DIMSCALE
 40
1.0
  9
$DIMASZ
 40
1.0
  9
$DIMEXO
 40
2.54
  9
$DIMDLI
 40
0.38
  9
$DIMRND
 40
0.0
  9
$DIMDLE
 40
0.0
  9
$DIMEXE
 40
2.54
  9
$DIMTP
 40
0.0
  9
$DIMTM
 40
0.0
  9
$DIMTXT
 40
3.200000047683714
  9
$DIMCEN
 40
0.09
  9
$DIMTSZ
 40
0.0
  9
$DIMTOL
 70
     0
  9
$DIMLIM
 70
     0
  9
$DIMTIH
 70
     0
  9
$DIMTOH
 70
     0
  9
$DIMSE1
 70
     0
  9
$DIMSE2
 70
     0
  9
$DIMTAD
 70
     1
  9
$DIMZIN
 70
     0
  9
$DIMBLK
  1

  9
$DIMASO
 70
     1
  9
$DIMSHO
 70
     0
  9
$DIMPOST
  1

  9
$DIMAPOST
  1

  9
$DIMALT
 70
     0
  9
$DIMALTD
 70
     2
  9
$DIMALTF
 40
25.4
  9
$DIMLFAC
 40
1.0
  9
$DIMTOFL
 70
     0
  9
$DIMTVP
 40
1.0
  9
$DIMTIX
 70
     0
  9
$DIMSOXD
 70
     0
  9
$DIMSAH
 70
     1
  9
$DIMBLK1
  1

  9
$DIMBLK2
  1

  9
$DIMSTYLE
  2
STANDARD
  9
$DIMCLRD
 70
     0
  9
$DIMCLRE
 70
     0
  9
$DIMCLRT
 70
     0
  9
$DIMTFAC
 40
1.0
  9
$DIMGAP
 40
1.600000023841857
  9
$DIMJUST
 70
     0
  9
$DIMSD1
 70
     0
  9
$DIMSD2
 70
     0
  9
$DIMTOLJ
 70
     1
  9
$DIMTZIN
 70
     0
  9
$DIMALTZ
 70
     0
  9
$DIMALTTZ
 70
     0
  9
$DIMUPT
 70
     0
  9
$DIMDEC
 70
     4
  9
$DIMTDEC
 70
     4
  9
$DIMALTU
 70
     2
  9
$DIMALTTD
 70
     2
  9
$DIMTXSTY
  7
STANDARD
  9
$DIMAUNIT
 70
     0
  9
$DIMADEC
 70
     0
  9
$DIMALTRND
 40
0.0
  9
$DIMAZIN
 70
     0
  9
$DIMDSEP
 70
    46
  9
$DIMATFIT
 70
     3
  9
$DIMFRAC
 70
     0
  9
$DIMLDRBLK
  1

  9
$DIMLUNIT
 70
     2
  9
$DIMLWD
 70
    -2
  9
$DIMLWE
 70
    -2
  9
$DIMTMOVE
 70
     0
  9
$LUNITS
 70
     2
  9
$LUPREC
 70
     4
  9
$SKETCHINC
 40
0.1
  9
$FILLETRAD
 40
0.0
  9
$AUNITS
 70
     0
  9
$AUPREC
 70
     0
  9
$MENU
  1
.
  9
$ELEVATION
 40
0.0
  9
$PELEVATION
 40
0.0
  9
$THICKNESS
 40
0.0
  9
$LIMCHECK
 70
     0
  9
$CHAMFERA
 40
0.0
  9
$CHAMFERB
 40
0.0
  9
$CHAMFERC
 40
0.0
  9
$CHAMFERD
 40
0.0
  9
$SKPOLY
 70
     0
  9
$TDCREATE
 40
2452717.604314595
  9
$TDUCREATE
 40
2452717.229314595
  9
$TDUPDATE
 40
2456899.681673911
  9
$TDUUPDATE
 40
2456899.306673911
  9
$TDINDWG
 40
0.0951378472
  9
$TDUSRTIMER
 40
0.0951378472
  9
$USRTIMER
 70
     1
  9
$ANGBASE
 50
0.0
  9
$ANGDIR
 70
     0
  9
$PDMODE
 70
     0
  9
$PDSIZE
 40
0.0
  9
$PLINEWID
 40
0.0
  9
$SPLFRAME
 70
     0
  9
$SPLINETYPE
 70
     6
  9
$SPLINESEGS
 70
     8
  9
$HANDSEED
  5
270A
  9
$SURFTAB1
 70
     6
  9
$SURFTAB2
 70
     6
  9
$SURFTYPE
 70
     6
  9
$SURFU
 70
     6
  9
$SURFV
 70
     6
  9
$UCSBASE
  2

  9
$UCSNAME
  2

  9
$UCSORG
 10
0.0
 20
0.0
 30
0.0
  9
$UCSXDIR
 10
1.0
 20
0.0
 30
0.0
  9
$UCSYDIR
 10
0.0
 20
1.0
 30
0.0
  9
$UCSORTHOREF
  2

  9
$UCSORTHOVIEW
 70
     0
  9
$UCSORGTOP
 10
0.0
 20
0.0
 30
0.0
  9
$UCSORGBOTTOM
 10
0.0
 20
0.0
 30
0.0
  9
$UCSORGLEFT
 10
0.0
 20
0.0
 30
0.0
  9
$UCSORGRIGHT
 10
0.0
 20
0.0
 30
0.0
  9
$UCSORGFRONT
 10
0.0
 20
0.0
 30
0.0
  9
$UCSORGBACK
 10
0.0
 20
0.0
 30
0.0
  9
$PUCSBASE
  2

  9
$PUCSNAME
  2

  9
$PUCSORG
 10
0.0
 20
0.0
 30
0.0
  9
$PUCSXDIR
 10
1.0
 20
0.0
 30
0.0
  9
$PUCSYDIR
 10
0.0
 20
1.0
 30
0.0
  9
$PUCSORTHOREF
  2

  9
$PUCSORTHOVIEW
 70
     0
  9
$PUCSORGTOP
 10
0.0
 20
0.0
 30
0.0
  9
$PUCSORGBOTTOM
 10
0.0
 20
0.0
 30
0.0
  9
$PUCSORGLEFT
 10
0.0
 20
0.0
 30
0.0
  9
$PUCSORGRIGHT
 10
0.0
 20
0.0
 30
0.0
  9
$PUCSORGFRONT
 10
0.0
 20
0.0
 30
0.0
  9
$PUCSORGBACK
 10
0.0
 20
0.0
 30
0.0
  9
$USERI1
 70
     0
  9
$USERI2
 70
     0
  9
$USERI3
 70
     0
  9
$USERI4
 70
     0
  9
$USERI5
 70
     0
  9
$USERR1
 40
0.0
  9
$USERR2
 40
0.0
  9
$USERR3
 40
0.0
  9
$USERR4
 40
0.0
  9
$USERR5
 40
0.0
  9
$WORLDVIEW
 70
     1
  9
$SHADEDGE
 70
     3
  9
$SHADEDIF
 70
    70
  9
$TILEMODE
 70
     1
  9
$MAXACTVP
 70
    48
  9
$PINSBASE
 10
0.0
 20
0.0
 30
0.0
  9
$PLIMCHECK
 70
     0
  9
$PEXTMIN
 10
-580.5701293945312
 20
0.0
 30
0.0
  9
$PEXTMAX
 10
0.0
 20
407.8999938964844
 30
0.0
  9
$PLIMMIN
 10
-580.5701293945312
 20
0.0
  9
$PLIMMAX
 10
0.0
 20
407.8999938964844
  9
$UNITMODE
 70
     0
  9
$VISRETAIN
 70
     1
  9
$PLINEGEN
 70
     0
  9
$PSLTSCALE
 70
     1
  9
$TREEDEPTH
 70
  3020
  9
$CMLSTYLE
  2
Standard
  9
$CMLJUST
 70
     0
  9
$CMLSCALE
 40
1.0
  9
$PROXYGRAPHICS
 70
     1
  9
$MEASUREMENT
 70
     0
  9
$CELWEIGHT
370
    -1
  9
$ENDCAPS
280
     0
  9
$JOINSTYLE
280
     0
  9
$LWDISPLAY
290
     0
  9
$INSUNITS
 70
     0
  9
$HYPERLINKBASE
  1

  9
$STYLESHEET
  1

  9
$XEDIT
290
     1
  9
$CEPSNTYPE
380
     0
  9
$PSTYLEMODE
290
     1
  9
$FINGERPRINTGUID
  2
{C256D64A-2F90-45A7-A3AF-DE7147F47D64}
  9
$VERSIONGUID
  2
{68E5D3E0-C969-4A81-8FE0-43AA6F7924C0}
  9
$EXTNAMES
290
     1
  9
$PSVPSCALE
 40
0.0
  9
$OLESTARTUP
290
     0
  0
ENDSEC
  0
SECTION
  2
CLASSES
  0
CLASS
  1
ACDBDICTIONARYWDFLT
  2
AcDbDictionaryWithDefault
  3
AutoCAD 2000
 90
        0
280
     0
281
     0
  0
CLASS
  1
ACDBPLACEHOLDER
  2
AcDbPlaceHolder
  3
AutoCAD 2000
 90
        0
280
     0
281
     0
  0
CLASS
  1
LAYOUT
  2
AcDbLayout
  3
AutoCAD 2000
 90
        0
280
     0
281
     0
  0
CLASS
  1
DICTIONARYVAR
  2
AcDbDictionaryVar
  3
AutoCAD 2000
 90
        0
280
     0
281
     0
  0
CLASS
  1
LONG_TRANSACTION
  2
AcDbLongTransaction
  3
AutoCAD 2000
 90
    32768
280
     0
281
     0
  0
CLASS
  1
LWPOLYLINE
  2
AcDbPolyline
  3
AutoCAD 2000
 90
    32768
280
     0
281
     1
  0
CLASS
  1
HATCH
  2
AcDbHatch
  3
AutoCAD 2000
 90
    32768
280
     0
281
     1
  0
CLASS
  1
XRECORD
  2
AcDbXrecord
  3
AutoCAD 2000
 90
    32768
280
     0
281
     0
  0
ENDSEC
  0
SECTION
  2
TABLES
  0
TABLE
  2
VPORT
  5
2692
330
0
100
AcDbSymbolTable
 70
     2
  0
VPORT
  5
2709
330
2692
100
AcDbSymbolTableRecord
100
AcDbViewportTableRecord
  2
*Active
 70
     0
 10
0.0
 20
0.0
 11
1.0
 21
1.0
 12
757.6629445605107
 22
452.3130389916582
 13
0.0
 23
0.0
 14
1.0
 24
1.0
 15
0.0
 25
0.0
 16
0.0
 26
0.0
 36
1.0
 17
0.0
 27
0.0
 37
0.0
 40
674.9369992747597
 41
1.592161016949152
 42
50.0
 43
0.0
 44
0.0
 50
0.0
 51
0.0
 71
     0
 72
   100
 73
     1
 74
     3
 75
     0
 76
     0
 77
     0
 78
     0
281
     0
 65
     1
110
0.0
120
0.0
130
0.0
111
1.0
121
0.0
131
0.0
112
0.0
122
1.0
132
0.0
 79
     0
146
0.0
  0
ENDTAB
  0
TABLE
  2
LTYPE
  5
268F
330
0
100
AcDbSymbolTable
 70
     2
  0
LTYPE
  5
269D
330
268F
100
AcDbSymbolTableRecord
100
AcDbLinetypeTableRecord
  2
ByBlock
 70
     0
  3

 72
    65
 73
     0
 40
0.0
  0
LTYPE
  5
269E
330
268F
100
AcDbSymbolTableRecord
100
AcDbLinetypeTableRecord
  2
ByLayer
 70
     0
  3

 72
    65
 73
     0
 40
0.0
  0
LTYPE
  5
269F
330
268F
100
AcDbSymbolTableRecord
100
AcDbLinetypeTableRecord
  2
CONTINUOUS
 70
     0
  3
Solid line
 72
    65
 73
     0
 40
0.0
  0
LTYPE
  5
26F4
330
268F
100
AcDbSymbolTableRecord
100
AcDbLinetypeTableRecord
  2
CENTER
 70
     0
  3
__ . __
 72
    65
 73
     4
 40
7.0
 49
4.0
 74
     0
 49
-1.0
 74
     0
 49
1.0
 74
     0
 49
-1.0
 74
     0
  0
ENDTAB
  0
TABLE
  2
LAYER
  5
268C
102
{ACAD_XDICTIONARY
360
26F5
102
}
330
0
100
AcDbSymbolTable
 70
     2
  0
LAYER
  5
269A
330
268C
100
AcDbSymbolTableRecord
100
AcDbLayerTableRecord
  2
0
 70
     0
 62
     7
  6
CONTINUOUS
370
    -3
390
2699
  0
LAYER
  5
26AD
330
268C
100
AcDbSymbolTableRecord
100
AcDbLayerTableRecord
  2
DEFPOINTS
 70
     0
 62
     7
  6
CONTINUOUS
290
     0
370
    -3
390
2699
  0
ENDTAB
  0
TABLE
  2
STYLE
  5
268D
330
0
100
AcDbSymbolTable
 70
     1
  0
STYLE
  5
269B
330
268D
100
AcDbSymbolTableRecord
100
AcDbTextStyleTableRecord
  2
STANDARD
 70
     0
 40
0.0
 41
1.0
 50
0.0
 71
     0
 42
0.2
  3
txt
  4
BIGFONT
  0
ENDTAB
  0
TABLE
  2
VIEW
  5
2690
330
0
100
AcDbSymbolTable
 70
     0
  0
ENDTAB
  0
TABLE
  2
UCS
  5
2691
330
0
100
AcDbSymbolTable
 70
     0
  0
ENDTAB
  0
TABLE
  2
APPID
  5
2693
330
0
100
AcDbSymbolTable
 70
     4
  0
APPID
  5
269C
330
2693
100
AcDbSymbolTableRecord
100
AcDbRegAppTableRecord
  2
ACAD
 70
     0
  0
APPID
  5
26AE
330
2693
100
AcDbSymbolTableRecord
100
AcDbRegAppTableRecord
  2
MCAD_NO_VIS
 70
     0
  0
APPID
  5
26AF
330
2693
100
AcDbSymbolTableRecord
100
AcDbRegAppTableRecord
  2
ACAD_TEMP_GRAPHIC
 70
     0
  0
APPID
  5
26B0
330
2693
100
AcDbSymbolTableRecord
100
AcDbRegAppTableRecord
  2
ACATTRIBSERVICES
 70
     0
  0
ENDTAB
  0
TABLE
  2
DIMSTYLE
  5
2694
330
0
100
AcDbSymbolTable
 70
     1
100
AcDbDimStyleTable
 71
     0
  0
DIMSTYLE
105
26B1
330
2694
100
AcDbSymbolTableRecord
100
AcDbDimStyleTableRecord
  2
STANDARD
 70
     0
279
     2
340
269B
  0
ENDTAB
  0
TABLE
  2
BLOCK_RECORD
  5
268B
330
0
100
AcDbSymbolTable
 70
     2
  0
BLOCK_RECORD
  5
26A8
102
{ACAD_XDICTIONARY
360
26BA
102
}
330
268B
100
AcDbSymbolTableRecord
100
AcDbBlockTableRecord
  2
*Model_Space
340
26AB
  0
BLOCK_RECORD
  5
26A4
102
{ACAD_XDICTIONARY
360
26BC
102
}
330
268B
100
AcDbSymbolTableRecord
100
AcDbBlockTableRecord
  2
*Paper_Space
340
26A7
  0
BLOCK_RECORD
  5
26B4
330
268B
100
AcDbSymbolTableRecord
100
AcDbBlockTableRecord
  2
$MODEL_SPACE
340
0
  0
BLOCK_RECORD
  5
26B6
330
268B
100
AcDbSymbolTableRecord
100
AcDbBlockTableRecord
  2
$PAPER_SPACE
340
0
  0
ENDTAB
  0
ENDSEC
  0
SECTION
  2
BLOCKS
  0
BLOCK
  5
26A9
330
26A8
100
AcDbEntity
  8
0
100
AcDbBlockBegin
  2
*Model_Space
 70
     0
 10
0.0
 20
0.0
 30
0.0
  3
*Model_Space
  1

  0
ENDBLK
  5
26AA
330
26A8
100
AcDbEntity
  8
0
100
AcDbBlockEnd
  0
BLOCK
  5
26A5
330
26A4
100
AcDbEntity
 67
     1
  8
0
100
AcDbBlockBegin
  2
*Paper_Space
 70
     0
 10
0.0
 20
0.0
 30
0.0
  3
*Paper_Space
  1

  0
ENDBLK
  5
26A6
330
26A4
100
AcDbEntity
 67
     1
  8
0
100
AcDbBlockEnd
  0
BLOCK
  5
26B5
330
26B4
100
AcDbEntity
  8
0
100
AcDbBlockBegin
  2
$MODEL_SPACE
 70
     0
 10
0.0
 20
0.0
 30
0.0
  3
$MODEL_SPACE
  1

  0
ENDBLK
  5
2675
330
26B4
100
AcDbEntity
  8
0
100
AcDbBlockEnd
  0
BLOCK
  5
26B7
330
26B6
100
AcDbEntity
  8
0
100
AcDbBlockBegin
  2
$PAPER_SPACE
 70
     0
 10
0.0
 20
0.0
 30
0.0
  3
$PAPER_SPACE
  1

  0
ENDBLK
  5
2671
330
26B6
100
AcDbEntity
  8
0
100
AcDbBlockEnd
  0
ENDSEC
  0
SECTION
  2
ENTITIES
  0
LINE
  5
B13
330
26A8
100
AcDbEntity
  8
0
100
AcDbLine
 10
709.2977496811354
 20
268.136896813167
 30
0.0
 11
709.2977089377072
 21
344.6368968131563
 31
0.0
  0
LINE
  5
B14
330
26A8
100
AcDbEntity
  8
0
100
AcDbLine
 10
753.2977496811293
 20
268.1369202472964
 30
0.0
 11
753.297712929409
 21
337.142076535143
 31
0.0
  0
LINE
  5
B26
330
26A8
100
AcDbEntity
  8
0
100
AcDbLine
 10
753.2977496811293
 20
268.1369202472964
 30
0.0
 11
709.2977496811354
 21
268.136896813167
 31
0.0
  0
LINE
  5
B41
330
26A8
100
AcDbEntity
  8
0
100
AcDbLine
 10
712.2977566847203
 20
254.9869441873171
 30
0.0
 11
712.2977496811365
 21
268.1368984109478
 31
0.0
  0
LINE
  5
B46
330
26A8
100
AcDbEntity
  8
0
100
AcDbLine
 10
750.2977566847152
 20
254.9869644258831
 30
0.0
 11
750.2977496811297
 21
268.1369186495142
 31
0.0
  0
LINE
  5
B8B
330
26A8
100
AcDbEntity
  8
0
100
AcDbLine
 10
802.297751040267
 20
337.6370525314273
 30
0.0
 11
753.297712929409
 21
337.142076535143
 31
0.0
  0
LINE
  5
B8C
330
26A8
100
AcDbEntity
  8
0
100
AcDbLine
 10
809.7977089376936
 20
344.6369503388372
 30
0.0
 11
709.2977089377072
 21
344.6368968131563
 31
0.0
  0
LINE
  5
B96
330
26A8
100
AcDbEntity
  8
0
100
AcDbLine
 10
709.2977121332705
 20
338.6368968131571
 30
0.0
 11
698.2977121332719
 21
338.6368909546252
 31
0.0
  0
LINE
  5
B97
330
26A8
100
AcDbEntity
  8
0
100
AcDbLine
 10
709.2977201221785
 20
323.6368968131591
 30
0.0
 11
698.2977201221792
 21
323.6368909546269
 31
0.0
  0
LINE
  5
B9A
330
26A8
100
AcDbEntity
  8
0
100
AcDbLine
 10
698.2977201221792
 20
323.6368909546269
 30
0.0
 11
698.2977121332719
 21
338.6368909546252
 31
0.0
  0
LINE
  5
B9B
330
26A8
100
AcDbEntity
  8
0
100
AcDbLine
 10
693.7977182581025
 20
327.1368885579543
 30
0.0
 11
693.7977139973512
 21
335.1368885579531
 31
0.0
  0
LINE
  5
B9C
330
26A8
100
AcDbEntity
  8
0
100
AcDbLine
 10
693.7977182581025
 20
327.1368885579543
 30
0.0
 11
698.2977182581012
 21
327.1368909546258
 31
0.0
  0
LINE
  5
BA0
330
26A8
100
AcDbEntity
  8
0
100
AcDbLine
 10
693.7977139973512
 20
335.1368885579531
 30
0.0
 11
698.29771399735
 21
335.136890954625
 31
0.0
  0
LINE
  5
BAB
330
26A8
100
AcDbEntity
  8
0
100
AcDbLine
 10
709.7977089377072
 20
344.6368970794529
 30
0.0
 11
709.7977076062233
 21
347.1368970794522
 31
0.0
  0
LINE
  5
BB2
330
26A8
100
AcDbEntity
  8
0
100
AcDbLine
 10
752.797707606217
 20
347.1369199809871
 30
0.0
 11
709.7977076062233
 21
347.1368970794522
 31
0.0
  0
LINE
  5
BF3
330
26A8
100
AcDbEntity
  8
0
100
AcDbLine
 10
723.2977049432513
 20
352.1369042694692
 30
0.0
 11
739.2977049432491
 21
352.1369127909701
 31
0.0
  0
LINE
  5
BFC
330
26A8
100
AcDbEntity
  8
0
100
AcDbLine
 10
723.2977076062211
 20
347.1369042694705
 30
0.0
 11
723.2977049432513
 21
352.1369042694692
 31
0.0
  0
LINE
  5
C10
330
26A8
100
AcDbEntity
  8
0
100
AcDbLine
 10
739.2977076062178
 20
347.136912790971
 30
0.0
 11
739.2977049432491
 21
352.1369127909701
 31
0.0
  0
LINE
  5
C16
330
26A8
100
AcDbEntity
  8
0
100
AcDbLine
 10
752.7977089377011
 20
344.6369199809883
 30
0.0
 11
752.797707606217
 21
347.1369199809871
 31
0.0
  0
LINE
  5
C18
330
26A8
100
AcDbEntity
  8
0
100
AcDbLine
 10
819.2977126658492
 20
337.6369553984793
 30
0.0
 11
819.2976695257232
 21
418.637001174835
 31
0.0
  0
LINE
  5
C19
330
26A8
100
AcDbEntity
  8
0
100
AcDbLine
 10
802.2977089376944
 20
344.6369463443831
 30
0.0
 11
802.2976695257257
 21
418.6369921207401
 31
0.0
  0
LINE
  5
C1B
330
26A8
100
AcDbEntity
  8
0
100
AcDbLine
 10
819.2977084050983
 20
345.6369553984777
 30
0.0
 11
802.2977084051005
 21
345.636946344383
 31
0.0
  0
LINE
  5
C1C
330
26A8
100
AcDbEntity
  8
0
100
AcDbLine
 10
819.2977126658492
 20
337.6369553984793
 30
0.0
 11
802.2977126658513
 21
337.6369463443837
 31
0.0
  0
LINE
  5
C22
330
26A8
100
AcDbEntity
  8
0
100
AcDbLine
 10
819.2976695257232
 20
418.637001174835
 30
0.0
 11
802.2976695257257
 21
418.6369921207401
 31
0.0
  0
LINE
  5
C2B
330
26A8
100
AcDbEntity
  8
0
100
AcDbLine
 10
685.5477573105272
 20
254.9869543065979
 30
0.0
 11
777.0477573105272
 21
254.9869543065979
 31
0.0
  0
LINE
  5
C2C
330
26A8
100
AcDbEntity
  8
0
100
AcDbLine
 10
685.5477573105272
 20
239.4869543065979
 30
0.0
 11
777.0477573105272
 21
239.4869543065979
 31
0.0
  0
LINE
  5
C2D
330
26A8
100
AcDbEntity
  8
0
100
AcDbLine
 10
777.0477573105272
 20
239.4869543065979
 30
0.0
 11
777.0477573105272
 21
254.9869543065979
 31
0.0
  0
LINE
  5
C2E
330
26A8
100
AcDbEntity
  8
0
100
AcDbLine
 10
712.2477237411913
 20
151.4935432643531
 30
0.0
 11
712.2477237411913
 21
189.1017283188539
 31
0.0
  0
LINE
  5
C2F
330
26A8
100
AcDbEntity
  8
0
100
AcDbLine
 10
750.3477451034959
 20
151.4935450953385
 30
0.0
 11
750.3477451034959
 21
189.1017342280091
 31
0.0
  0
LINE
  5
C30
330
26A8
100
AcDbEntity
  8
0
100
AcDbLine
 10
706.0477420517384
 20
149.2369343955911
 30
0.0
 11
712.2477237411913
 21
151.4935432643531
 31
0.0
  0
LINE
  5
C31
330
26A8
100
AcDbEntity
  8
0
100
AcDbLine
 10
706.0477420517384
 20
146.386917685505
 30
0.0
 11
756.5477573105272
 21
146.386917685505
 31
0.0
  0
LINE
  5
C32
330
26A8
100
AcDbEntity
  8
0
  6
Continuous
100
AcDbLine
 10
712.2477237411913
 20
151.4935432643531
 30
0.0
 11
750.3477451034959
 21
151.4935450953385
 31
0.0
  0
LINE
  5
C33
330
26A8
100
AcDbEntity
  8
0
100
AcDbLine
 10
756.5477573105272
 20
149.2369251190861
 30
0.0
 11
750.3477451034959
 21
151.4935450953385
 31
0.0
  0
LINE
  5
C34
330
26A8
100
AcDbEntity
  8
0
100
AcDbLine
 10
756.5477573105272
 20
146.386917685505
 30
0.0
 11
756.5477573105272
 21
149.2369251190861
 31
0.0
  0
LINE
  5
C35
330
26A8
100
AcDbEntity
  8
0
100
AcDbLine
 10
706.0477420517384
 20
146.386917685505
 30
0.0
 11
706.0477420517384
 21
149.2369343955911
 31
0.0
  0
LINE
  5
C36
330
26A8
100
AcDbEntity
  8
0
100
AcDbLine
 10
685.5477573105272
 20
239.4869543065979
 30
0.0
 11
685.5477573105272
 21
254.9869543065979
 31
0.0
  0
LINE
  5
C37
330
26A8
100
AcDbEntity
  8
0
100
AcDbLine
 10
706.2977590449281
 20
192.5369420995673
 30
0.0
 11
712.2477237411913
 21
189.1017283188539
 31
0.0
  0
LINE
  5
C38
330
26A8
100
AcDbEntity
  8
0
100
AcDbLine
 10
763.2977573105263
 20
192.5369420995673
 30
0.0
 11
699.2977420517384
 21
192.5369420995673
 31
0.0
  0
LINE
  5
C39
330
26A8
100
AcDbEntity
  8
0
100
AcDbLine
 10
763.2977573105263
 20
239.4869543065979
 30
0.0
 11
763.2977573105263
 21
192.5369420995673
 31
0.0
  0
LINE
  5
C3A
330
26A8
100
AcDbEntity
  8
0
100
AcDbLine
 10
756.2976995648045
 20
192.5369420995673
 30
0.0
 11
750.3477451034959
 21
189.1017342280091
 31
0.0
  0
LINE
  5
C3B
330
26A8
100
AcDbEntity
  8
0
100
AcDbLine
 10
661.2977267929492
 20
191.1369176855049
 30
0.0
 11
661.2977267929492
 21
241.6369176855041
 31
0.0
  0
LINE
  5
C3C
330
26A8
100
AcDbEntity
  8
0
  6
Continuous
100
AcDbLine
 10
666.4043605185792
 20
197.3369298925361
 30
0.0
 11
666.4043735141964
 21
235.4369054784731
 31
0.0
  0
LINE
  5
C3D
330
26A8
100
AcDbEntity
  8
0
100
AcDbLine
 10
699.2977420517384
 20
239.4869543065979
 30
0.0
 11
699.2977420517384
 21
192.5369420995673
 31
0.0
  0
LINE
  5
C3E
330
26A8
100
AcDbEntity
  8
0
100
AcDbLine
 10
666.4043605185792
 20
197.3369298925361
 30
0.0
 11
699.2977420517384
 21
197.3369298925361
 31
0.0
  0
LINE
  5
C3F
330
26A8
100
AcDbEntity
  8
0
100
AcDbLine
 10
661.2977267929492
 20
191.1369176855049
 30
0.0
 11
664.1477405423263
 21
191.1369176855049
 31
0.0
  0
LINE
  5
C40
330
26A8
100
AcDbEntity
  8
0
100
AcDbLine
 10
664.1477405423263
 20
191.1369176855049
 30
0.0
 11
666.4043605185792
 21
197.3369298925361
 31
0.0
  0
LINE
  5
C41
330
26A8
100
AcDbEntity
  8
0
100
AcDbLine
 10
666.4043735141964
 20
235.4369054784731
 30
0.0
 11
699.2977420517384
 21
235.4369054784731
 31
0.0
  0
LINE
  5
C42
330
26A8
100
AcDbEntity
  8
0
100
AcDbLine
 10
661.2977267929492
 20
241.6369176855041
 30
0.0
 11
664.1477535379431
 21
241.6369176855041
 31
0.0
  0
LINE
  5
C43
330
26A8
100
AcDbEntity
  8
0
100
AcDbLine
 10
664.1477535379431
 20
241.6369176855041
 30
0.0
 11
666.4043735141964
 21
235.4369054784731
 31
0.0
  0
LINE
  5
1F9F
330
26A8
100
AcDbEntity
  8
0
  6
Continuous
 62
     7
100
AcDbLine
 10
698.2977496811332
 20
548.425923265828
 30
0.0
 11
695.7977191635555
 21
548.425923265828
 31
0.0
  0
LINE
  5
1FA0
330
26A8
100
AcDbEntity
  8
0
  6
Continuous
 62
     7
100
AcDbLine
 10
698.2977496811332
 20
556.4259385246169
 30
0.0
 11
695.7977191635555
 21
556.4259385246169
 31
0.0
  0
LINE
  5
1FA2
330
26A8
100
AcDbEntity
  8
0
  6
Continuous
 62
     7
100
AcDbLine
 10
695.7977191635555
 20
556.4258011955152
 30
0.0
 11
695.7977191635555
 21
548.425785936726
 31
0.0
  0
CIRCLE
  5
1FA3
330
26A8
100
AcDbEntity
  8
0
  6
Continuous
 62
     7
100
AcDbCircle
 10
731.2977496811336
 20
552.4259995597731
 30
0.0
 40
22.00000047683715
  0
LINE
  5
1FA4
330
26A8
100
AcDbEntity
  8
0
  6
Continuous
 62
     7
100
AcDbLine
 10
810.797818345684
 20
560.9259385246168
 30
0.0
 11
764.2636233993954
 21
560.9259385246168
 31
0.0
  0
LINE
  5
1FA5
330
26A8
100
AcDbEntity
  8
0
  6
Continuous
 62
     7
100
AcDbLine
 10
810.797818345684
 20
543.925923265828
 30
0.0
 11
764.2636233993954
 21
543.925923265828
 31
0.0
  0
CIRCLE
  5
1FA7
330
26A8
100
AcDbEntity
  8
0
  6
Continuous
 62
     7
100
AcDbCircle
 10
731.2977496811336
 20
538.4259385246157
 30
0.0
 40
4.500000134110448
  0
LINE
  5
1FAF
330
26A8
100
AcDbEntity
  8
0
  6
Continuous
 62
     7
100
AcDbLine
 10
711.0060997094142
 20
560.9259385246168
 30
0.0
 11
698.2977496811343
 21
560.9259385246168
 31
0.0
  0
LINE
  5
1FB7
330
26A8
100
AcDbEntity
  8
0
  6
Continuous
 62
     7
100
AcDbLine
 10
698.2977496811343
 20
560.9259385246168
 30
0.0
 11
698.2977496811332
 21
543.925923265828
 31
0.0
  0
LINE
  5
1FB8
330
26A8
100
AcDbEntity
  8
0
  6
Continuous
 62
     7
100
AcDbLine
 10
711.0061572355424
 20
543.925923265828
 30
0.0
 11
698.2977496811332
 21
543.925923265828
 31
0.0
  0
CIRCLE
  5
1FB9
330
26A8
100
AcDbEntity
  8
0
  6
Continuous
 62
     7
100
AcDbCircle
 10
731.2977496811336
 20
552.4259995597731
 30
0.0
 40
5.500000119209286
  0
CIRCLE
  5
1FBA
330
26A8
100
AcDbEntity
  8
0
  6
Continuous
 62
     7
100
AcDbCircle
 10
731.2977496811336
 20
566.425923265828
 30
0.0
 40
4.500000134110448
  0
ARC
  5
1FC6
330
26A8
100
AcDbEntity
  8
0
  6
Continuous
 62
     7
100
AcDbCircle
 10
764.2636005112109
 20
518.9259385246169
 30
0.0
 40
25.0000019073486
100
AcDbArc
 50
89.99997768819374
 51
134.5395593035806
  0
ARC
  5
1FC7
330
26A8
100
AcDbEntity
  8
0
  6
Continuous
 62
     7
100
AcDbCircle
 10
764.2636005112109
 20
585.925923265828
 30
0.0
 40
25.0000019073486
100
AcDbArc
 50
225.4604149695246
 51
270.0
  0
CIRCLE
  5
1FC8
330
26A8
100
AcDbEntity
  8
0
  6
Continuous
 62
     7
100
AcDbCircle
 10
810.7976810165828
 20
552.4259995597731
 30
0.0
 40
8.499999761581419
  0
ARC
  5
1FCD
330
26A8
100
AcDbEntity
  8
0
  6
Continuous
100
AcDbCircle
 10
731.2977496811336
 20
552.4259995597719
 30
0.0
 40
45.75
100
AcDbArc
 50
10.70725381756502
 51
349.2925711485182
  0
LINE
  5
1FCF
330
26A8
100
AcDbEntity
  8
0
100
AcDbLine
 10
664.1477535379431
 20
577.6759995597731
 30
0.0
 11
666.4043735141964
 21
571.4759873527407
 31
0.0
  0
LINE
  5
1FD0
330
26A8
100
AcDbEntity
  8
0
100
AcDbLine
 10
661.297726792949
 20
577.6759995597731
 30
0.0
 11
664.1477535379431
 21
577.6759995597731
 31
0.0
  0
LINE
  5
1FD1
330
26A8
100
AcDbEntity
  8
0
100
AcDbLine
 10
664.1477405423263
 20
527.1759995597731
 30
0.0
 11
666.4043605185792
 21
533.3760117668036
 31
0.0
  0
LINE
  5
1FD2
330
26A8
100
AcDbEntity
  8
0
100
AcDbLine
 10
661.297726792949
 20
527.1759995597731
 30
0.0
 11
664.1477405423263
 21
527.1759995597731
 31
0.0
  0
LINE
  5
1FD3
330
26A8
100
AcDbEntity
  8
0
100
AcDbLine
 10
661.297726792949
 20
527.1759995597731
 30
0.0
 11
661.297726792949
 21
577.6759995597731
 31
0.0
  0
LINE
  5
1FD4
330
26A8
100
AcDbEntity
  8
0
  6
Continuous
100
AcDbLine
 10
666.4043605185792
 20
533.3760117668036
 30
0.0
 11
666.4043735141964
 21
571.4759873527407
 31
0.0
  0
LINE
  5
1FD5
330
26A8
100
AcDbEntity
  8
0
100
AcDbLine
 10
666.4043605185792
 20
533.3760117668036
 30
0.0
 11
689.7025520606412
 21
533.3760117668036
 31
0.0
  0
LINE
  5
1FD6
330
26A8
100
AcDbEntity
  8
0
100
AcDbLine
 10
666.4043735141964
 20
571.4759873527407
 30
0.0
 11
689.7025520606412
 21
571.4759873527407
 31
0.0
  0
TEXT
  5
263A
330
26A8
100
AcDbEntity
  8
0
  6
Continuous
100
AcDbText
 10
484.9964508411388
 20
739.6043218758432
 30
0.0
 40
48.000002
  1
WLM__ 1.5S
 41
1.32095
100
AcDbText
  0
LINE
  5
26FF
330
26A8
100
AcDbEntity
  8
0
  6
CENTER
100
AcDbLine
 10
731.2977344223445
 20
117.0177011753385
 30
0.0
 11
731.2977344223445
 21
369.3121288059437
 31
0.0
  0
LINE
  5
2700
330
26A8
100
AcDbEntity
  8
0
  6
CENTER
100
AcDbLine
 10
636.4442578402012
 20
216.3869176855044
 30
0.0
 11
731.2977344223445
 21
216.3869176855044
 31
0.0
  0
LINE
  5
2701
330
26A8
100
AcDbEntity
  8
0
  6
CENTER
100
AcDbLine
 10
731.2977496811336
 20
495.646355704471
 30
0.0
 11
731.2977496811336
 21
609.2056434150752
 31
0.0
  0
LINE
  5
2702
330
26A8
100
AcDbEntity
  8
0
  6
CENTER
100
AcDbLine
 10
635.0858062497177
 20
552.4259995597731
 30
0.0
 11
827.5096931125496
 21
552.4259995597731
 31
0.0
  0
ENDSEC
  0
SECTION
  2
OBJECTS
  0
DICTIONARY
  5
2696
330
0
100
AcDbDictionary
281
     1
  3
ACAD_GROUP
350
2697
  3
ACAD_LAYOUT
350
26A3
  3
ACAD_MLINESTYLE
350
26A0
  3
ACAD_PLOTSETTINGS
350
26A2
  3
ACAD_PLOTSTYLENAME
350
2698
  3
AcDbVariableDictionary
350
26EE
  0
DICTIONARY
  5
26F5
330
268C
100
AcDbDictionary
280
     1
281
     1
  3
ACAD_LAYERSTATES
360
26F6
  0
DICTIONARY
  5
26BA
330
26A8
100
AcDbDictionary
280
     1
281
     1
  3
ACAD_LAYOUTSELFREF
360
26E9
  0
DICTIONARY
  5
26BC
330
26A4
100
AcDbDictionary
280
     1
281
     1
  3
ACAD_LAYOUTSELFREF
360
26E8
  0
DICTIONARY
  5
2697
102
{ACAD_REACTORS
330
2696
102
}
330
2696
100
AcDbDictionary
281
     1
  0
DICTIONARY
  5
26A3
102
{ACAD_REACTORS
330
2696
102
}
330
2696
100
AcDbDictionary
281
     1
  3
Model
350
26AB
  3
ﾚｲｱｳﾄ1
350
26A7
  0
DICTIONARY
  5
26A0
102
{ACAD_REACTORS
330
2696
102
}
330
2696
100
AcDbDictionary
281
     1
  3
Standard
350
26A1
  0
DICTIONARY
  5
26A2
102
{ACAD_REACTORS
330
2696
102
}
330
2696
100
AcDbDictionary
281
     1
  0
ACDBDICTIONARYWDFLT
  5
2698
102
{ACAD_REACTORS
330
2696
102
}
330
2696
100
AcDbDictionary
281
     1
  3
Normal
350
2699
100
AcDbDictionaryWithDefault
340
2699
  0
DICTIONARY
  5
26EE
102
{ACAD_REACTORS
330
2696
102
}
330
2696
100
AcDbDictionary
281
     1
  3
DIMASSOC
350
26EF
  0
DICTIONARY
  5
26F6
102
{ACAD_REACTORS
330
26F5
102
}
330
26F5
100
AcDbDictionary
281
     1
  0
XRECORD
  5
26E9
102
{ACAD_REACTORS
330
26BA
102
}
330
26BA
100
AcDbXrecord
280
     1
340
26A8
  0
XRECORD
  5
26E8
102
{ACAD_REACTORS
330
26BC
102
}
330
26BC
100
AcDbXrecord
280
     1
340
26A4
  0
LAYOUT
  5
26AB
102
{ACAD_REACTORS
330
26A3
102
}
330
26A3
100
AcDbPlotSettings
  1

  2
SII LP-2150 (D-SCAN C2)
  4

  6

 40
0.0
 41
0.0
 42
0.0
 43
0.0
 44
0.0
 45
0.0
 46
0.0
 47
0.0
 48
0.0
 49
0.0
140
0.0
141
0.0
142
1.0
143
1.0
 70
  1712
 72
     0
 73
     0
 74
     0
  7

 75
     0
147
1.0
148
0.0
149
0.0
100
AcDbLayout
  1
Model
 70
     1
 71
     0
 10
0.0
 20
0.0
 11
12.0
 21
9.0
 12
0.0
 22
0.0
 32
0.0
 14
0.0
 24
0.0
 34
0.0
 15
0.0
 25
0.0
 35
0.0
146
0.0
 13
0.0
 23
0.0
 33
0.0
 16
1.0
 26
0.0
 36
0.0
 17
0.0
 27
1.0
 37
0.0
 76
     0
330
26A8
  0
LAYOUT
  5
26A7
102
{ACAD_REACTORS
330
26A3
102
}
330
26A3
100
AcDbPlotSettings
  1

  2
SII LP-2150 (D-SCAN C2)
  4

  6

 40
0.0
 41
0.0
 42
0.0
 43
0.0
 44
0.0
 45
0.0
 46
0.0
 47
0.0
 48
0.0
 49
0.0
140
0.0
141
0.0
142
1.0
143
1.0
 70
   688
 72
     0
 73
     0
 74
     5
  7

 75
    16
147
1.0
148
0.0
149
0.0
100
AcDbLayout
  1
ﾚｲｱｳﾄ1
 70
     1
 71
     1
 10
-580.5701293945312
 20
0.0
 11
0.0
 21
407.8999938964844
 12
0.0
 22
0.0
 32
0.0
 14
-580.5701293945312
 24
0.0
 34
0.0
 15
0.0
 25
407.8999938964844
 35
0.0
146
0.0
 13
0.0
 23
0.0
 33
0.0
 16
1.0
 26
0.0
 36
0.0
 17
0.0
 27
1.0
 37
0.0
 76
     0
330
26A4
  0
MLINESTYLE
  5
26A1
102
{ACAD_REACTORS
330
26A0
102
}
330
26A0
100
AcDbMlineStyle
  2
STANDARD
 70
     0
  3

 62
   256
 51
90.0
 52
90.0
 71
     2
 49
0.5
 62
   256
  6
BYLAYER
 49
-0.5
 62
   256
  6
BYLAYER
  0
ACDBPLACEHOLDER
  5
2699
102
{ACAD_REACTORS
330
2698
102
}
330
2698
  0
DICTIONARYVAR
  5
26EF
102
{ACAD_REACTORS
330
26EE
102
}
330
26EE
100
DictionaryVariables
280
     0
  1
1
  0
ENDSEC
  0
EOF
