  0
SECTION
  2
HEADER
  9
$ACADVER
  1
AC1015
  9
$ACADMAINTVER
 70
    14
  9
$DWGCODEPAGE
  3
ANSI_932
  9
$INSBASE
 10
0.0
 20
0.0
 30
0.0
  9
$EXTMIN
 10
340.8271754241491
 20
47.7045834278797
 30
-0.0000000349181948
  9
$EXTMAX
 10
822.854069251889
 20
1024.062507722385
 30
0.0000000814935746
  9
$LIMMIN
 10
-580.5701293945312
 20
0.0
  9
$LIMMAX
 10
0.0
 20
407.8999938964844
  9
$ORTHOMODE
 70
     0
  9
$REGENMODE
 70
     1
  9
$FILLMODE
 70
     1
  9
$QTEXTMODE
 70
     0
  9
$MIRRTEXT
 70
     1
  9
$LTSCALE
 40
1.0
  9
$ATTMODE
 70
     1
  9
$TEXTSIZE
 40
0.2
  9
$TRACEWID
 40
0.05
  9
$TEXTSTYLE
  7
STANDARD
  9
$CLAYER
  8
0
  9
$CELTYPE
  6
CONTINUOUS
  9
$CECOLOR
 62
   256
  9
$CELTSCALE
 40
1.0
  9
$DISPSILH
 70
     0
  9
$DIMSCALE
 40
1.0
  9
$DIMASZ
 40
1.0
  9
$DIMEXO
 40
2.54
  9
$DIMDLI
 40
0.38
  9
$DIMRND
 40
0.0
  9
$DIMDLE
 40
0.0
  9
$DIMEXE
 40
2.54
  9
$DIMTP
 40
0.0
  9
$DIMTM
 40
0.0
  9
$DIMTXT
 40
3.200000047683714
  9
$DIMCEN
 40
0.09
  9
$DIMTSZ
 40
0.0
  9
$DIMTOL
 70
     0
  9
$DIMLIM
 70
     0
  9
$DIMTIH
 70
     0
  9
$DIMTOH
 70
     0
  9
$DIMSE1
 70
     0
  9
$DIMSE2
 70
     0
  9
$DIMTAD
 70
     1
  9
$DIMZIN
 70
     0
  9
$DIMBLK
  1

  9
$DIMASO
 70
     1
  9
$DIMSHO
 70
     0
  9
$DIMPOST
  1

  9
$DIMAPOST
  1

  9
$DIMALT
 70
     0
  9
$DIMALTD
 70
     2
  9
$DIMALTF
 40
25.4
  9
$DIMLFAC
 40
1.0
  9
$DIMTOFL
 70
     0
  9
$DIMTVP
 40
1.0
  9
$DIMTIX
 70
     0
  9
$DIMSOXD
 70
     0
  9
$DIMSAH
 70
     1
  9
$DIMBLK1
  1

  9
$DIMBLK2
  1

  9
$DIMSTYLE
  2
STANDARD
  9
$DIMCLRD
 70
     0
  9
$DIMCLRE
 70
     0
  9
$DIMCLRT
 70
     0
  9
$DIMTFAC
 40
1.0
  9
$DIMGAP
 40
1.600000023841857
  9
$DIMJUST
 70
     0
  9
$DIMSD1
 70
     0
  9
$DIMSD2
 70
     0
  9
$DIMTOLJ
 70
     1
  9
$DIMTZIN
 70
     0
  9
$DIMALTZ
 70
     0
  9
$DIMALTTZ
 70
     0
  9
$DIMUPT
 70
     0
  9
$DIMDEC
 70
     4
  9
$DIMTDEC
 70
     4
  9
$DIMALTU
 70
     2
  9
$DIMALTTD
 70
     2
  9
$DIMTXSTY
  7
STANDARD
  9
$DIMAUNIT
 70
     0
  9
$DIMADEC
 70
     0
  9
$DIMALTRND
 40
0.0
  9
$DIMAZIN
 70
     0
  9
$DIMDSEP
 70
    46
  9
$DIMATFIT
 70
     3
  9
$DIMFRAC
 70
     0
  9
$DIMLDRBLK
  1

  9
$DIMLUNIT
 70
     2
  9
$DIMLWD
 70
    -2
  9
$DIMLWE
 70
    -2
  9
$DIMTMOVE
 70
     0
  9
$LUNITS
 70
     2
  9
$LUPREC
 70
     4
  9
$SKETCHINC
 40
0.1
  9
$FILLETRAD
 40
0.0
  9
$AUNITS
 70
     0
  9
$AUPREC
 70
     0
  9
$MENU
  1
.
  9
$ELEVATION
 40
0.0
  9
$PELEVATION
 40
0.0
  9
$THICKNESS
 40
0.0
  9
$LIMCHECK
 70
     0
  9
$CHAMFERA
 40
0.0
  9
$CHAMFERB
 40
0.0
  9
$CHAMFERC
 40
0.0
  9
$CHAMFERD
 40
0.0
  9
$SKPOLY
 70
     0
  9
$TDCREATE
 40
2452717.604314595
  9
$TDUCREATE
 40
2452717.229314595
  9
$TDUPDATE
 40
2456899.681420150
  9
$TDUUPDATE
 40
2456899.306420150
  9
$TDINDWG
 40
0.1620632639
  9
$TDUSRTIMER
 40
0.1620632639
  9
$USRTIMER
 70
     1
  9
$ANGBASE
 50
0.0
  9
$ANGDIR
 70
     0
  9
$PDMODE
 70
     0
  9
$PDSIZE
 40
0.0
  9
$PLINEWID
 40
0.0
  9
$SPLFRAME
 70
     0
  9
$SPLINETYPE
 70
     6
  9
$SPLINESEGS
 70
     8
  9
$HANDSEED
  5
3229
  9
$SURFTAB1
 70
     6
  9
$SURFTAB2
 70
     6
  9
$SURFTYPE
 70
     6
  9
$SURFU
 70
     6
  9
$SURFV
 70
     6
  9
$UCSBASE
  2

  9
$UCSNAME
  2

  9
$UCSORG
 10
0.0
 20
0.0
 30
0.0
  9
$UCSXDIR
 10
1.0
 20
0.0
 30
0.0
  9
$UCSYDIR
 10
0.0
 20
1.0
 30
0.0
  9
$UCSORTHOREF
  2

  9
$UCSORTHOVIEW
 70
     0
  9
$UCSORGTOP
 10
0.0
 20
0.0
 30
0.0
  9
$UCSORGBOTTOM
 10
0.0
 20
0.0
 30
0.0
  9
$UCSORGLEFT
 10
0.0
 20
0.0
 30
0.0
  9
$UCSORGRIGHT
 10
0.0
 20
0.0
 30
0.0
  9
$UCSORGFRONT
 10
0.0
 20
0.0
 30
0.0
  9
$UCSORGBACK
 10
0.0
 20
0.0
 30
0.0
  9
$PUCSBASE
  2

  9
$PUCSNAME
  2

  9
$PUCSORG
 10
0.0
 20
0.0
 30
0.0
  9
$PUCSXDIR
 10
1.0
 20
0.0
 30
0.0
  9
$PUCSYDIR
 10
0.0
 20
1.0
 30
0.0
  9
$PUCSORTHOREF
  2

  9
$PUCSORTHOVIEW
 70
     0
  9
$PUCSORGTOP
 10
0.0
 20
0.0
 30
0.0
  9
$PUCSORGBOTTOM
 10
0.0
 20
0.0
 30
0.0
  9
$PUCSORGLEFT
 10
0.0
 20
0.0
 30
0.0
  9
$PUCSORGRIGHT
 10
0.0
 20
0.0
 30
0.0
  9
$PUCSORGFRONT
 10
0.0
 20
0.0
 30
0.0
  9
$PUCSORGBACK
 10
0.0
 20
0.0
 30
0.0
  9
$USERI1
 70
     0
  9
$USERI2
 70
     0
  9
$USERI3
 70
     0
  9
$USERI4
 70
     0
  9
$USERI5
 70
     0
  9
$USERR1
 40
0.0
  9
$USERR2
 40
0.0
  9
$USERR3
 40
0.0
  9
$USERR4
 40
0.0
  9
$USERR5
 40
0.0
  9
$WORLDVIEW
 70
     1
  9
$SHADEDGE
 70
     3
  9
$SHADEDIF
 70
    70
  9
$TILEMODE
 70
     1
  9
$MAXACTVP
 70
    48
  9
$PINSBASE
 10
0.0
 20
0.0
 30
0.0
  9
$PLIMCHECK
 70
     0
  9
$PEXTMIN
 10
-580.5701293945312
 20
0.0
 30
0.0
  9
$PEXTMAX
 10
0.0
 20
407.8999938964844
 30
0.0
  9
$PLIMMIN
 10
-580.5701293945312
 20
0.0
  9
$PLIMMAX
 10
0.0
 20
407.8999938964844
  9
$UNITMODE
 70
     0
  9
$VISRETAIN
 70
     1
  9
$PLINEGEN
 70
     0
  9
$PSLTSCALE
 70
     1
  9
$TREEDEPTH
 70
  3020
  9
$CMLSTYLE
  2
Standard
  9
$CMLJUST
 70
     0
  9
$CMLSCALE
 40
1.0
  9
$PROXYGRAPHICS
 70
     1
  9
$MEASUREMENT
 70
     0
  9
$CELWEIGHT
370
    -1
  9
$ENDCAPS
280
     0
  9
$JOINSTYLE
280
     0
  9
$LWDISPLAY
290
     0
  9
$INSUNITS
 70
     0
  9
$HYPERLINKBASE
  1

  9
$STYLESHEET
  1

  9
$XEDIT
290
     1
  9
$CEPSNTYPE
380
     0
  9
$PSTYLEMODE
290
     1
  9
$FINGERPRINTGUID
  2
{422FB008-D01A-4562-B334-97B87E509B31}
  9
$VERSIONGUID
  2
{5B85C08E-3F65-43EB-BDF6-9CE450092418}
  9
$EXTNAMES
290
     1
  9
$PSVPSCALE
 40
0.0
  9
$OLESTARTUP
290
     0
  0
ENDSEC
  0
SECTION
  2
CLASSES
  0
CLASS
  1
ACDBDICTIONARYWDFLT
  2
AcDbDictionaryWithDefault
  3
AutoCAD 2000
 90
        0
280
     0
281
     0
  0
CLASS
  1
ACDBPLACEHOLDER
  2
AcDbPlaceHolder
  3
AutoCAD 2000
 90
        0
280
     0
281
     0
  0
CLASS
  1
LAYOUT
  2
AcDbLayout
  3
AutoCAD 2000
 90
        0
280
     0
281
     0
  0
CLASS
  1
DICTIONARYVAR
  2
AcDbDictionaryVar
  3
AutoCAD 2000
 90
        0
280
     0
281
     0
  0
CLASS
  1
LONG_TRANSACTION
  2
AcDbLongTransaction
  3
AutoCAD 2000
 90
    32768
280
     0
281
     0
  0
CLASS
  1
LWPOLYLINE
  2
AcDbPolyline
  3
AutoCAD 2000
 90
    32768
280
     0
281
     1
  0
CLASS
  1
HATCH
  2
AcDbHatch
  3
AutoCAD 2000
 90
    32768
280
     0
281
     1
  0
CLASS
  1
XRECORD
  2
AcDbXrecord
  3
AutoCAD 2000
 90
    32768
280
     0
281
     0
  0
ENDSEC
  0
SECTION
  2
TABLES
  0
TABLE
  2
VPORT
  5
31AA
330
0
100
AcDbSymbolTable
 70
     2
  0
VPORT
  5
3228
330
31AA
100
AcDbSymbolTableRecord
100
AcDbViewportTableRecord
  2
*Active
 70
     0
 10
0.0
 20
0.0
 11
1.0
 21
1.0
 12
581.8406223380191
 22
535.8835455751327
 13
0.0
 23
0.0
 14
1.0
 24
1.0
 15
0.0
 25
0.0
 16
0.0
 26
0.0
 36
1.0
 17
0.0
 27
0.0
 37
0.0
 40
982.5570222265346
 41
1.592161016949152
 42
50.0
 43
0.0
 44
0.0
 50
0.0
 51
0.0
 71
     0
 72
   100
 73
     1
 74
     3
 75
     0
 76
     0
 77
     0
 78
     0
281
     0
 65
     1
110
0.0
120
0.0
130
0.0
111
1.0
121
0.0
131
0.0
112
0.0
122
1.0
132
0.0
 79
     0
146
0.0
  0
ENDTAB
  0
TABLE
  2
LTYPE
  5
31A7
330
0
100
AcDbSymbolTable
 70
     2
  0
LTYPE
  5
31B5
330
31A7
100
AcDbSymbolTableRecord
100
AcDbLinetypeTableRecord
  2
ByBlock
 70
     0
  3

 72
    65
 73
     0
 40
0.0
  0
LTYPE
  5
31B6
330
31A7
100
AcDbSymbolTableRecord
100
AcDbLinetypeTableRecord
  2
ByLayer
 70
     0
  3

 72
    65
 73
     0
 40
0.0
  0
LTYPE
  5
31B7
330
31A7
100
AcDbSymbolTableRecord
100
AcDbLinetypeTableRecord
  2
CONTINUOUS
 70
     0
  3
Solid line
 72
    65
 73
     0
 40
0.0
  0
LTYPE
  5
320C
330
31A7
100
AcDbSymbolTableRecord
100
AcDbLinetypeTableRecord
  2
CENTER
 70
     0
  3
__ . __
 72
    65
 73
     4
 40
7.0
 49
4.0
 74
     0
 49
-1.0
 74
     0
 49
1.0
 74
     0
 49
-1.0
 74
     0
  0
ENDTAB
  0
TABLE
  2
LAYER
  5
31A4
102
{ACAD_XDICTIONARY
360
320D
102
}
330
0
100
AcDbSymbolTable
 70
     2
  0
LAYER
  5
31B2
330
31A4
100
AcDbSymbolTableRecord
100
AcDbLayerTableRecord
  2
0
 70
     0
 62
     7
  6
CONTINUOUS
370
    -3
390
31B1
  0
LAYER
  5
31C5
330
31A4
100
AcDbSymbolTableRecord
100
AcDbLayerTableRecord
  2
DEFPOINTS
 70
     0
 62
     7
  6
CONTINUOUS
290
     0
370
    -3
390
31B1
  0
ENDTAB
  0
TABLE
  2
STYLE
  5
31A5
330
0
100
AcDbSymbolTable
 70
     1
  0
STYLE
  5
31B3
330
31A5
100
AcDbSymbolTableRecord
100
AcDbTextStyleTableRecord
  2
STANDARD
 70
     0
 40
0.0
 41
1.0
 50
0.0
 71
     0
 42
0.2
  3
txt
  4
BIGFONT
  0
ENDTAB
  0
TABLE
  2
VIEW
  5
31A8
330
0
100
AcDbSymbolTable
 70
     0
  0
ENDTAB
  0
TABLE
  2
UCS
  5
31A9
330
0
100
AcDbSymbolTable
 70
     0
  0
ENDTAB
  0
TABLE
  2
APPID
  5
31AB
330
0
100
AcDbSymbolTable
 70
     4
  0
APPID
  5
31B4
330
31AB
100
AcDbSymbolTableRecord
100
AcDbRegAppTableRecord
  2
ACAD
 70
     0
  0
APPID
  5
31C6
330
31AB
100
AcDbSymbolTableRecord
100
AcDbRegAppTableRecord
  2
MCAD_NO_VIS
 70
     0
  0
APPID
  5
31C7
330
31AB
100
AcDbSymbolTableRecord
100
AcDbRegAppTableRecord
  2
ACAD_TEMP_GRAPHIC
 70
     0
  0
APPID
  5
31C8
330
31AB
100
AcDbSymbolTableRecord
100
AcDbRegAppTableRecord
  2
ACATTRIBSERVICES
 70
     0
  0
ENDTAB
  0
TABLE
  2
DIMSTYLE
  5
31AC
330
0
100
AcDbSymbolTable
 70
     1
100
AcDbDimStyleTable
 71
     0
  0
DIMSTYLE
105
31C9
330
31AC
100
AcDbSymbolTableRecord
100
AcDbDimStyleTableRecord
  2
STANDARD
 70
     0
279
     2
340
31B3
  0
ENDTAB
  0
TABLE
  2
BLOCK_RECORD
  5
31A3
330
0
100
AcDbSymbolTable
 70
     3
  0
BLOCK_RECORD
  5
31C0
102
{ACAD_XDICTIONARY
360
31D2
102
}
330
31A3
100
AcDbSymbolTableRecord
100
AcDbBlockTableRecord
  2
*Model_Space
340
31C3
  0
BLOCK_RECORD
  5
31BC
102
{ACAD_XDICTIONARY
360
31D4
102
}
330
31A3
100
AcDbSymbolTableRecord
100
AcDbBlockTableRecord
  2
*Paper_Space
340
31BF
  0
BLOCK_RECORD
  5
31CC
330
31A3
100
AcDbSymbolTableRecord
100
AcDbBlockTableRecord
  2
$MODEL_SPACE
340
0
  0
BLOCK_RECORD
  5
31CE
330
31A3
100
AcDbSymbolTableRecord
100
AcDbBlockTableRecord
  2
$PAPER_SPACE
340
0
  0
BLOCK_RECORD
  5
320F
330
31A3
100
AcDbSymbolTableRecord
100
AcDbBlockTableRecord
  2
A$C00294823
340
0
  0
ENDTAB
  0
ENDSEC
  0
SECTION
  2
BLOCKS
  0
BLOCK
  5
31C1
330
31C0
100
AcDbEntity
  8
0
100
AcDbBlockBegin
  2
*Model_Space
 70
     0
 10
0.0
 20
0.0
 30
0.0
  3
*Model_Space
  1

  0
ENDBLK
  5
31C2
330
31C0
100
AcDbEntity
  8
0
100
AcDbBlockEnd
  0
BLOCK
  5
31BD
330
31BC
100
AcDbEntity
 67
     1
  8
0
100
AcDbBlockBegin
  2
*Paper_Space
 70
     0
 10
0.0
 20
0.0
 30
0.0
  3
*Paper_Space
  1

  0
ENDBLK
  5
31BE
330
31BC
100
AcDbEntity
 67
     1
  8
0
100
AcDbBlockEnd
  0
BLOCK
  5
31CD
330
31CC
100
AcDbEntity
  8
0
100
AcDbBlockBegin
  2
$MODEL_SPACE
 70
     0
 10
0.0
 20
0.0
 30
0.0
  3
$MODEL_SPACE
  1

  0
ENDBLK
  5
318D
330
31CC
100
AcDbEntity
  8
0
100
AcDbBlockEnd
  0
BLOCK
  5
31CF
330
31CE
100
AcDbEntity
  8
0
100
AcDbBlockBegin
  2
$PAPER_SPACE
 70
     0
 10
0.0
 20
0.0
 30
0.0
  3
$PAPER_SPACE
  1

  0
ENDBLK
  5
3189
330
31CE
100
AcDbEntity
  8
0
100
AcDbBlockEnd
  0
BLOCK
  5
3214
330
320F
100
AcDbEntity
  8
0
100
AcDbBlockBegin
  2
A$C00294823
 70
     0
 10
0.0
 20
0.0
 30
0.0
  3
A$C00294823
  1

  0
LINE
  5
3210
330
320F
100
AcDbEntity
  8
0
  6
CENTER
100
AcDbLine
 10
0.0007180590114331
 20
557.9584111342917
 30
0.0
 11
174.927167783831
 21
557.9584111342917
 31
0.0
  0
LINE
  5
3211
330
320F
100
AcDbEntity
  8
0
  6
CENTER
100
AcDbLine
 10
68.44311938301609
 20
501.1787672789896
 30
0.0
 11
68.44311938301609
 21
614.7380549895938
 31
0.0
  0
LINE
  5
3212
330
320F
100
AcDbEntity
  8
0
  6
CENTER
100
AcDbLine
 10
0.0000008959256093
 20
157.825156091166
 30
0.0
 11
68.44274554268418
 21
157.825156091166
 31
0.0
  0
LINE
  5
3213
330
320F
100
AcDbEntity
  8
0
  6
CENTER
100
AcDbLine
 10
68.44310412422714
 20
-0.000000476139121
 30
0.0
 11
68.44310412422714
 21
306.6725107199595
 31
0.0
  0
ENDBLK
  5
3215
330
320F
100
AcDbEntity
  8
0
100
AcDbBlockEnd
  0
ENDSEC
  0
SECTION
  2
ENTITIES
  0
LINE
  5
1DA5
330
31C0
100
AcDbEntity
  8
0
100
AcDbLine
 10
499.2637877311167
 20
244.1195615778904
 30
0.0
 11
501.9389601627745
 21
236.7695859919527
 31
0.0
  0
LINE
  5
1DA6
330
31C0
100
AcDbEntity
  8
0
100
AcDbLine
 10
496.4138232766472
 20
153.1195615778904
 30
0.0
 11
496.4138232766472
 21
244.1195615778904
 31
0.0
  0
LINE
  5
1DA8
330
31C0
100
AcDbEntity
  8
0
100
AcDbLine
 10
673.9137927590689
 20
238.5195859919535
 30
0.0
 11
538.9137927590691
 21
238.5195859919531
 31
0.0
  0
LINE
  5
1DAA
330
31C0
100
AcDbEntity
  8
0
100
AcDbLine
 10
501.9389601627745
 20
236.7695859919527
 30
0.0
 11
553.9138232766472
 21
236.7695859919531
 31
0.0
  0
LINE
  5
1DAC
330
31C0
100
AcDbEntity
  8
0
100
AcDbLine
 10
501.9389912861056
 20
160.4695676814062
 30
0.0
 11
553.9138232766472
 21
160.4695676814062
 31
0.0
  0
LINE
  5
1DB3
330
31C0
100
AcDbEntity
  8
0
100
AcDbLine
 10
560.9138232766472
 20
88.61956157789062
 30
0.0
 11
651.9137927590691
 21
88.61956157789062
 31
0.0
  0
LINE
  5
1DB4
330
31C0
100
AcDbEntity
  8
0
100
AcDbLine
 10
644.563817173132
 20
94.14474926876621
 30
0.0
 11
644.5638171731316
 21
151.5147127702879
 31
0.0
  0
LINE
  5
1DB8
330
31C0
100
AcDbEntity
  8
0
100
AcDbLine
 10
651.9137927590691
 20
91.46957683710843
 30
0.0
 11
644.563817173132
 21
94.14474926876621
 31
0.0
  0
LINE
  5
1DB9
330
31C0
100
AcDbEntity
  8
0
100
AcDbLine
 10
651.9137927590691
 20
88.61956157789062
 30
0.0
 11
651.9137927590691
 21
91.46957683710843
 31
0.0
  0
LINE
  5
1DBA
330
31C0
100
AcDbEntity
  8
0
100
AcDbLine
 10
568.2638293801623
 20
94.14474677928593
 30
0.0
 11
568.2638293801629
 21
151.5147150664978
 31
0.0
  0
LINE
  5
1DBC
330
31C0
100
AcDbEntity
  8
0
100
AcDbLine
 10
560.9138232766476
 20
91.46956324013761
 30
0.0
 11
568.2638293801623
 21
94.14474677928593
 31
0.0
  0
LINE
  5
1DC5
330
31C0
100
AcDbEntity
  8
0
100
AcDbLine
 10
560.9138232766472
 20
88.61956157789062
 30
0.0
 11
560.9138232766476
 21
91.46956324013761
 31
0.0
  0
LINE
  5
1DCB
330
31C0
100
AcDbEntity
  8
0
100
AcDbLine
 10
658.9137927590687
 20
155.4695676814066
 30
0.0
 11
553.9138232766465
 21
155.469567681405
 31
0.0
  0
LINE
  5
1DCC
330
31C0
100
AcDbEntity
  8
0
100
AcDbLine
 10
658.9137927590691
 20
238.5195859919531
 30
0.0
 11
658.9137927590687
 21
155.4695676814066
 31
0.0
  0
LINE
  5
1DCF
330
31C0
100
AcDbEntity
  8
0
100
AcDbLine
 10
651.4138266928028
 20
155.4695676814066
 30
0.0
 11
644.5638171731316
 21
151.5147127702879
 31
0.0
  0
LINE
  5
1DFB
330
31C0
100
AcDbEntity
  8
0
100
AcDbLine
 10
561.4138238376413
 20
155.4695676814058
 30
0.0
 11
568.2638293801629
 21
151.5147150664978
 31
0.0
  0
LINE
  5
1E3B
330
31C0
100
AcDbEntity
  8
0
100
AcDbLine
 10
553.9138232766472
 20
238.5195859919531
 30
0.0
 11
553.9138232766465
 21
155.469567681405
 31
0.0
  0
LINE
  5
1E3F
330
31C0
100
AcDbEntity
  8
0
100
AcDbLine
 10
499.2638077469561
 20
153.1195615778904
 30
0.0
 11
501.9389912861056
 21
160.4695676814062
 31
0.0
  0
LINE
  5
1E43
330
31C0
100
AcDbEntity
  8
0
100
AcDbLine
 10
496.4138232766472
 20
153.1195615778904
 30
0.0
 11
499.2638077469561
 21
153.1195615778904
 31
0.0
  0
LINE
  5
1E4E
330
31C0
100
AcDbEntity
  8
0
100
AcDbLine
 10
673.9137927590689
 20
257.0195859919536
 30
0.0
 11
538.9137927590691
 21
257.019585991953
 31
0.0
  0
LINE
  5
1E4F
330
31C0
100
AcDbEntity
  8
0
100
AcDbLine
 10
677.4137371623269
 20
489.6347167212947
 30
0.0
 11
628.4137426193743
 21
489.1397316574018
 31
0.0
  0
LINE
  5
1E50
330
31C0
100
AcDbEntity
  8
0
100
AcDbLine
 10
684.9137371734594
 20
496.634724817849
 30
0.0
 11
627.9137371734743
 21
496.6346834011357
 31
0.0
  0
LINE
  5
1E58
330
31C0
100
AcDbEntity
  8
0
100
AcDbLine
 10
573.413741533143
 20
490.6346438009466
 30
0.0
 11
573.4137524322781
 21
475.6346438009503
 31
0.0
  0
LINE
  5
1E5A
330
31C0
100
AcDbEntity
  8
0
100
AcDbLine
 10
568.9137498891478
 20
479.1346405312089
 30
0.0
 11
568.9137440762756
 21
487.1346405312065
 31
0.0
  0
LINE
  5
1E5C
330
31C0
100
AcDbEntity
  8
0
100
AcDbLine
 10
628.4137927590633
 20
420.1346837644611
 30
0.0
 11
628.4137368101703
 21
497.1346837644407
 31
0.0
  0
LINE
  5
1E63
330
31C0
100
AcDbEntity
  8
0
100
AcDbLine
 10
628.4137927590633
 20
420.1346837644611
 30
0.0
 11
584.4137927590752
 21
420.1346517936641
 31
0.0
  0
LINE
  5
1E68
330
31C0
100
AcDbEntity
  8
0
100
AcDbLine
 10
584.4137927590752
 20
420.1346517936641
 30
0.0
 11
584.4137368101812
 21
497.1346517936438
 31
0.0
  0
LINE
  5
1E70
330
31C0
100
AcDbEntity
  8
0
100
AcDbLine
 10
587.413799200517
 20
411.2695798157814
 30
0.0
 11
587.4137927590744
 21
420.1346539734911
 31
0.0
  0
LINE
  5
1E8C
330
31C0
100
AcDbEntity
  8
0
100
AcDbLine
 10
568.9137498891478
 20
479.1346405312089
 30
0.0
 11
573.4137498891465
 21
479.1346438009496
 31
0.0
  0
LINE
  5
1E8F
330
31C0
100
AcDbEntity
  8
0
100
AcDbLine
 10
584.4137524322753
 20
475.6346517936496
 30
0.0
 11
573.4137524322781
 21
475.6346438009503
 31
0.0
  0
LINE
  5
1EBC
330
31C0
100
AcDbEntity
  8
0
100
AcDbLine
 10
625.4137992005624
 20
411.2695311329786
 30
0.0
 11
625.4137927590644
 21
420.1346815846337
 31
0.0
  0
LINE
  5
1ED6
330
31C0
100
AcDbEntity
  8
0
100
AcDbLine
 10
628.4137368101703
 20
497.1346837644407
 30
0.0
 11
584.4137368101812
 21
497.1346517936438
 31
0.0
  0
LINE
  5
1ED7
330
31C0
100
AcDbEntity
  8
0
100
AcDbLine
 10
627.9137353569517
 20
499.134683401135
 30
0.0
 11
584.9137353569633
 21
499.1346521569477
 31
0.0
  0
LINE
  5
1EDE
330
31C0
100
AcDbEntity
  8
0
100
AcDbLine
 10
568.9137440762756
 20
487.1346405312065
 30
0.0
 11
573.4137440762745
 21
487.1346438009473
 31
0.0
  0
LINE
  5
1EE2
330
31C0
100
AcDbEntity
  8
0
100
AcDbLine
 10
584.4137415331401
 20
490.6346517936456
 30
0.0
 11
573.413741533143
 21
490.6346438009466
 31
0.0
  0
LINE
  5
1EE4
330
31C0
100
AcDbEntity
  8
0
100
AcDbLine
 10
584.9137368101812
 20
497.1346521569481
 30
0.0
 11
584.9137353569633
 21
499.1346521569477
 31
0.0
  0
LINE
  5
1EE7
330
31C0
100
AcDbEntity
  8
0
100
AcDbLine
 10
598.4137317239144
 20
504.1346619661679
 30
0.0
 11
598.4137353569598
 21
499.1346619661708
 31
0.0
  0
LINE
  5
1EEB
330
31C0
100
AcDbEntity
  8
0
100
AcDbLine
 10
614.4137317239109
 20
504.1346735919121
 30
0.0
 11
598.4137317239144
 21
504.1346619661679
 31
0.0
  0
LINE
  5
1EEE
330
31C0
100
AcDbEntity
  8
0
100
AcDbLine
 10
614.4137317239109
 20
504.1346735919121
 30
0.0
 11
614.4137353569556
 21
499.1346735919146
 31
0.0
  0
LINE
  5
1EF9
330
31C0
100
AcDbEntity
  8
0
100
AcDbLine
 10
627.9137368101695
 20
497.1346834011357
 30
0.0
 11
627.9137353569517
 21
499.134683401135
 31
0.0
  0
LINE
  5
1EFE
330
31C0
100
AcDbEntity
  8
0
100
AcDbLine
 10
538.9137927590691
 20
257.019585991953
 30
0.0
 11
538.9137927590691
 21
238.5195859919531
 31
0.0
  0
LINE
  5
1F0B
330
31C0
100
AcDbEntity
  8
0
100
AcDbLine
 10
496.4138232766472
 20
244.1195615778904
 30
0.0
 11
499.2637877311167
 21
244.1195615778904
 31
0.0
  0
LINE
  5
1F0C
330
31C0
100
AcDbEntity
  8
0
100
AcDbLine
 10
694.41374225972
 20
489.6347317206365
 30
0.0
 11
694.4136834043959
 21
570.6347240912208
 31
0.0
  0
LINE
  5
1F0D
330
31C0
100
AcDbEntity
  8
0
100
AcDbLine
 10
677.4137371734615
 20
496.6347193682818
 30
0.0
 11
677.4136834044009
 21
570.6347117388676
 31
0.0
  0
LINE
  5
1F0E
330
31C0
100
AcDbEntity
  8
0
100
AcDbLine
 10
694.41374225972
 20
489.6347317206365
 30
0.0
 11
677.4137422597241
 21
489.6347193682836
 31
0.0
  0
LINE
  5
1F0F
330
31C0
100
AcDbEntity
  8
0
100
AcDbLine
 10
694.4137364468481
 20
497.6347317206347
 30
0.0
 11
677.4137364468524
 21
497.6347193682816
 31
0.0
  0
LINE
  5
1F14
330
31C0
100
AcDbEntity
  8
0
100
AcDbLine
 10
673.9137927590689
 20
257.0195859919536
 30
0.0
 11
673.9137927590689
 21
238.5195859919535
 31
0.0
  0
LINE
  5
1F19
330
31C0
100
AcDbEntity
  8
0
100
AcDbLine
 10
694.4136834043959
 20
570.6347240912208
 30
0.0
 11
677.4136834044009
 21
570.6347117388676
 31
0.0
  0
LINE
  5
1F1E
330
31C0
100
AcDbEntity
  8
0
  6
Continuous
100
AcDbLine
 10
501.9389912861056
 20
160.4695676814062
 30
0.0
 11
501.9389601627745
 21
236.7695859919527
 31
0.0
  0
LINE
  5
1F1F
330
31C0
100
AcDbEntity
  8
0
  6
Continuous
100
AcDbLine
 10
568.2638293801623
 20
94.14474677928593
 30
0.0
 11
644.563817173132
 21
94.14474926876621
 31
0.0
  0
LINE
  5
2057
330
31C0
100
AcDbEntity
  8
0
  6
Continuous
 62
     7
100
AcDbLine
 10
685.913891941198
 20
726.2391717481324
 30
0.0
 11
639.3796969949089
 21
726.2391717481324
 31
0.0
  0
LINE
  5
2058
330
31C0
100
AcDbEntity
  8
0
  6
Continuous
 62
     7
100
AcDbLine
 10
685.913891941198
 20
743.2391870069217
 30
0.0
 11
639.3796969949089
 21
743.2391870069217
 31
0.0
  0
CIRCLE
  5
2059
330
31C0
100
AcDbEntity
  8
0
  6
Continuous
 62
     7
100
AcDbCircle
 10
685.9137546120964
 20
734.7392480420776
 30
0.0
 40
8.499999761581419
  0
CIRCLE
  5
205A
330
31C0
100
AcDbEntity
  8
0
  6
Continuous
 62
     7
100
AcDbCircle
 10
606.4138232766472
 20
734.7392480420776
 30
0.0
 40
22.00000047683715
  0
CIRCLE
  5
205B
330
31C0
100
AcDbEntity
  8
0
  6
Continuous
 62
     7
100
AcDbCircle
 10
606.4138232766472
 20
748.7391717481322
 30
0.0
 40
4.500000134110448
  0
ARC
  5
205C
330
31C0
100
AcDbEntity
  8
0
  6
Continuous
 62
     7
100
AcDbCircle
 10
639.3796741067252
 20
768.2391717481322
 30
0.0
 40
25.0000019073486
100
AcDbArc
 50
225.4604149695246
 51
270.0
  0
ARC
  5
205D
330
31C0
100
AcDbEntity
  8
0
  6
Continuous
 62
     7
100
AcDbCircle
 10
639.3796741067252
 20
701.2391870069213
 30
0.0
 40
25.0000019073486
100
AcDbArc
 50
89.99997768819374
 51
134.5395593035806
  0
CIRCLE
  5
205E
330
31C0
100
AcDbEntity
  8
0
  6
Continuous
 62
     7
100
AcDbCircle
 10
606.4138232766472
 20
720.7391870069209
 30
0.0
 40
4.500000134110448
  0
CIRCLE
  5
205F
330
31C0
100
AcDbEntity
  8
0
  6
Continuous
 62
     7
100
AcDbCircle
 10
606.4138232766472
 20
734.7392480420776
 30
0.0
 40
5.500000119209286
  0
POINT
  5
2060
330
31C0
100
AcDbEntity
  8
0
  6
Continuous
 62
     7
100
AcDbPoint
 10
606.4138232766472
 20
748.7391717481324
 30
0.0
  0
POINT
  5
2061
330
31C0
100
AcDbEntity
  8
0
  6
Continuous
 62
     7
100
AcDbPoint
 10
606.4138232766472
 20
748.7391717481324
 30
0.0
  0
POINT
  5
2062
330
31C0
100
AcDbEntity
  8
0
  6
Continuous
 62
     7
100
AcDbPoint
 10
606.4138232766472
 20
748.7391717481324
 30
0.0
  0
POINT
  5
2063
330
31C0
100
AcDbEntity
  8
0
  6
Continuous
 62
     7
100
AcDbPoint
 10
606.4138232766472
 20
720.7391870069216
 30
0.0
  0
POINT
  5
2064
330
31C0
100
AcDbEntity
  8
0
  6
Continuous
 62
     7
100
AcDbPoint
 10
606.4138232766472
 20
720.7391870069216
 30
0.0
  0
LINE
  5
2065
330
31C0
100
AcDbEntity
  8
0
  6
Continuous
 62
     7
100
AcDbLine
 10
586.1222308310566
 20
726.2391717481324
 30
0.0
 11
573.4138232766472
 21
726.2391717481322
 31
0.0
  0
LINE
  5
2066
330
31C0
100
AcDbEntity
  8
0
  6
Continuous
 62
     7
100
AcDbLine
 10
586.1221733049283
 20
743.2391870069222
 30
0.0
 11
573.4138232766481
 21
743.2391870069217
 31
0.0
  0
LINE
  5
2067
330
31C0
100
AcDbEntity
  8
0
  6
Continuous
 62
     7
100
AcDbLine
 10
570.9137927590691
 20
738.7390496778198
 30
0.0
 11
570.9137927590691
 21
730.739034419031
 31
0.0
  0
LINE
  5
2068
330
31C0
100
AcDbEntity
  8
0
  6
Continuous
 62
     7
100
AcDbLine
 10
573.4138232766481
 20
743.2391870069217
 30
0.0
 11
573.4138232766472
 21
726.2391717481322
 31
0.0
  0
LINE
  5
2069
330
31C0
100
AcDbEntity
  8
0
  6
Continuous
 62
     7
100
AcDbLine
 10
573.4138232766472
 20
730.7391717481324
 30
0.0
 11
570.9137927590691
 21
730.7391717481324
 31
0.0
  0
LINE
  5
206A
330
31C0
100
AcDbEntity
  8
0
  6
Continuous
 62
     7
100
AcDbLine
 10
573.4138232766472
 20
738.7391870069217
 30
0.0
 11
570.9137927590691
 21
738.7391870069217
 31
0.0
  0
ARC
  5
206E
330
31C0
100
AcDbEntity
  8
0
  6
Continuous
100
AcDbCircle
 10
606.4138232766472
 20
734.7392480420776
 30
0.0
 40
67.5
100
AcDbArc
 50
7.234177743967885
 51
352.4686880465285
  0
LINE
  5
208F
330
31C0
100
AcDbEntity
  8
0
  6
Continuous
100
AcDbLine
 10
501.9389912861056
 20
696.5892541455932
 30
0.0
 11
501.9389601627745
 21
772.8892724561393
 31
0.0
  0
LINE
  5
2090
330
31C0
100
AcDbEntity
  8
0
100
AcDbLine
 10
496.4138232766472
 20
689.2392480420776
 30
0.0
 11
496.4138232766472
 21
780.2392480420776
 31
0.0
  0
LINE
  5
2091
330
31C0
100
AcDbEntity
  8
0
100
AcDbLine
 10
501.9389912861056
 20
696.5892541455932
 30
0.0
 11
550.728744793285
 21
696.5892541455932
 31
0.0
  0
LINE
  5
2092
330
31C0
100
AcDbEntity
  8
0
100
AcDbLine
 10
499.2638077469561
 20
689.2392480420776
 30
0.0
 11
501.9389912861056
 21
696.5892541455932
 31
0.0
  0
LINE
  5
2093
330
31C0
100
AcDbEntity
  8
0
100
AcDbLine
 10
496.4138232766472
 20
689.2392480420776
 30
0.0
 11
499.2638077469561
 21
689.2392480420776
 31
0.0
  0
LINE
  5
2094
330
31C0
100
AcDbEntity
  8
0
100
AcDbLine
 10
501.9389601627745
 20
772.8892724561393
 30
0.0
 11
550.7287657009704
 21
772.8892724561398
 31
0.0
  0
LINE
  5
2095
330
31C0
100
AcDbEntity
  8
0
100
AcDbLine
 10
499.2637877311167
 20
780.2392480420776
 30
0.0
 11
501.9389601627745
 21
772.8892724561393
 31
0.0
  0
LINE
  5
2096
330
31C0
100
AcDbEntity
  8
0
100
AcDbLine
 10
496.4138232766472
 20
780.2392480420776
 30
0.0
 11
499.2637877311167
 21
780.2392480420776
 31
0.0
  0
LINE
  5
2979
330
31C0
100
AcDbEntity
  8
0
  6
Continuous
100
AcDbLine
 10
496.4137927590692
 20
394.1195920954688
 30
0.0
 11
496.4137927590692
 21
303.1195920954688
 31
0.0
  0
LINE
  5
297A
330
31C0
100
AcDbEntity
  8
0
  6
Continuous
100
AcDbLine
 10
645.0638171731318
 20
394.2695554743751
 30
0.0
 11
645.0638171731318
 21
257.0195859919532
 31
0.0
  0
LINE
  5
29A5
330
31C0
100
AcDbEntity
  8
0
  6
Continuous
100
AcDbLine
 10
501.9390196300911
 20
310.4695981989846
 30
0.0
 11
567.7637683450068
 21
310.4695981989846
 31
0.0
  0
LINE
  5
29A8
330
31C0
100
AcDbEntity
  8
0
  6
Continuous
100
AcDbLine
 10
567.7637683450068
 20
394.2695554743751
 30
0.0
 11
567.7637683450068
 21
257.0195859919532
 31
0.0
  0
LINE
  5
29F3
330
31C0
100
AcDbEntity
  8
0
  6
Continuous
100
AcDbLine
 10
499.263836090942
 20
303.1195920954688
 30
0.0
 11
501.9390196300911
 21
310.4695981989846
 31
0.0
  0
LINE
  5
29F5
330
31C0
100
AcDbEntity
  8
0
  6
Continuous
100
AcDbLine
 10
496.4137927590692
 20
303.1195920954688
 30
0.0
 11
499.263836090942
 21
303.1195920954688
 31
0.0
  0
LINE
  5
2A1A
330
31C0
100
AcDbEntity
  8
0
  6
Continuous
100
AcDbLine
 10
658.9137927590692
 20
411.269555474375
 30
0.0
 11
658.9137927590698
 21
394.2695554743751
 31
0.0
  0
LINE
  5
2A2D
330
31C0
100
AcDbEntity
  8
0
  6
Continuous
100
AcDbLine
 10
658.9137927590698
 20
394.2695554743751
 30
0.0
 11
553.9137927590692
 21
394.2695554743751
 31
0.0
  0
LINE
  5
2A50
330
31C0
100
AcDbEntity
  8
0
  6
Continuous
100
AcDbLine
 10
553.9137927590692
 20
411.269555474375
 30
0.0
 11
658.9137927590692
 21
411.269555474375
 31
0.0
  0
LINE
  5
2A60
330
31C0
100
AcDbEntity
  8
0
  6
Continuous
100
AcDbLine
 10
553.9137927590692
 20
411.269555474375
 30
0.0
 11
553.9137927590692
 21
394.2695554743751
 31
0.0
  0
LINE
  5
2A63
330
31C0
100
AcDbEntity
  8
0
  6
Continuous
100
AcDbLine
 10
501.9389970404643
 20
386.7695859919536
 30
0.0
 11
567.7637683450068
 21
386.769585991953
 31
0.0
  0
LINE
  5
2A8F
330
31C0
100
AcDbEntity
  8
0
  6
Continuous
100
AcDbLine
 10
499.263813501316
 20
394.1195920954688
 30
0.0
 11
501.9389970404643
 21
386.7695859919536
 31
0.0
  0
LINE
  5
2A96
330
31C0
100
AcDbEntity
  8
0
  6
Continuous
100
AcDbLine
 10
496.4137927590692
 20
394.1195920954688
 30
0.0
 11
499.263813501316
 21
394.1195920954688
 31
0.0
  0
LINE
  5
2AA9
330
31C0
100
AcDbEntity
  8
0
  6
Continuous
100
AcDbLine
 10
501.9389970404643
 20
386.7695859919536
 30
0.0
 11
501.9390196300911
 21
310.4695981989846
 31
0.0
  0
TEXT
  5
315B
330
31C0
100
AcDbEntity
  8
0
  6
Continuous
100
AcDbText
 10
340.8858283444574
 20
976.0
 30
0.0
 40
48.000002
  1
WFM__ 3S
 41
1.32095
100
AcDbText
  0
LINE
  5
321E
330
31C0
100
AcDbEntity
  8
0
  6
CENTER
100
AcDbLine
 10
455.7588416356129
 20
734.7392480420776
 30
0.0
 11
712.8978716774621
 21
734.7392480420776
 31
0.0
  0
LINE
  5
321F
330
31C0
100
AcDbEntity
  8
0
  6
CENTER
100
AcDbLine
 10
606.4138232766472
 20
649.8951664999475
 30
0.0
 11
606.4138232766472
 21
819.5833295842076
 31
0.0
  0
LINE
  5
3220
330
31C0
100
AcDbEntity
  8
0
  6
CENTER
100
AcDbLine
 10
462.1924509532678
 20
198.6195615778903
 30
0.0
 11
606.413792759069
 21
198.6195615778903
 31
0.0
  0
LINE
  5
3221
330
31C0
100
AcDbEntity
  8
0
  6
CENTER
100
AcDbLine
 10
606.413792759069
 20
47.76426486007131
 30
0.0
 11
606.413792759069
 21
534.0380450935549
 31
0.0
  0
LINE
  5
3222
330
31C0
100
AcDbEntity
  8
0
  6
CENTER
100
AcDbLine
 10
462.1924204356899
 20
348.6195920954688
 30
0.0
 11
606.413762241491
 21
348.6195920954688
 31
0.0
  0
ENDSEC
  0
SECTION
  2
OBJECTS
  0
DICTIONARY
  5
31AE
330
0
100
AcDbDictionary
281
     1
  3
ACAD_GROUP
350
31AF
  3
ACAD_LAYOUT
350
31BB
  3
ACAD_MLINESTYLE
350
31B8
  3
ACAD_PLOTSETTINGS
350
31BA
  3
ACAD_PLOTSTYLENAME
350
31B0
  3
AcDbVariableDictionary
350
3206
  0
DICTIONARY
  5
320D
330
31A4
100
AcDbDictionary
280
     1
281
     1
  3
ACAD_LAYERSTATES
360
320E
  0
DICTIONARY
  5
31D2
330
31C0
100
AcDbDictionary
280
     1
281
     1
  3
ACAD_LAYOUTSELFREF
360
3201
  0
DICTIONARY
  5
31D4
330
31BC
100
AcDbDictionary
280
     1
281
     1
  3
ACAD_LAYOUTSELFREF
360
3200
  0
DICTIONARY
  5
31AF
102
{ACAD_REACTORS
330
31AE
102
}
330
31AE
100
AcDbDictionary
281
     1
  0
DICTIONARY
  5
31BB
102
{ACAD_REACTORS
330
31AE
102
}
330
31AE
100
AcDbDictionary
281
     1
  3
Model
350
31C3
  3
ﾚｲｱｳﾄ1
350
31BF
  0
DICTIONARY
  5
31B8
102
{ACAD_REACTORS
330
31AE
102
}
330
31AE
100
AcDbDictionary
281
     1
  3
Standard
350
31B9
  0
DICTIONARY
  5
31BA
102
{ACAD_REACTORS
330
31AE
102
}
330
31AE
100
AcDbDictionary
281
     1
  0
ACDBDICTIONARYWDFLT
  5
31B0
102
{ACAD_REACTORS
330
31AE
102
}
330
31AE
100
AcDbDictionary
281
     1
  3
Normal
350
31B1
100
AcDbDictionaryWithDefault
340
31B1
  0
DICTIONARY
  5
3206
102
{ACAD_REACTORS
330
31AE
102
}
330
31AE
100
AcDbDictionary
281
     1
  3
DIMASSOC
350
3207
  0
DICTIONARY
  5
320E
102
{ACAD_REACTORS
330
320D
102
}
330
320D
100
AcDbDictionary
281
     1
  0
XRECORD
  5
3201
102
{ACAD_REACTORS
330
31D2
102
}
330
31D2
100
AcDbXrecord
280
     1
340
31C0
  0
XRECORD
  5
3200
102
{ACAD_REACTORS
330
31D4
102
}
330
31D4
100
AcDbXrecord
280
     1
340
31BC
  0
LAYOUT
  5
31C3
102
{ACAD_REACTORS
330
31BB
102
}
330
31BB
100
AcDbPlotSettings
  1

  2
SII LP-2150 (D-SCAN C2)
  4

  6

 40
0.0
 41
0.0
 42
0.0
 43
0.0
 44
0.0
 45
0.0
 46
0.0
 47
0.0
 48
0.0
 49
0.0
140
0.0
141
0.0
142
1.0
143
1.0
 70
  1712
 72
     0
 73
     0
 74
     0
  7

 75
     0
147
1.0
148
0.0
149
0.0
100
AcDbLayout
  1
Model
 70
     1
 71
     0
 10
0.0
 20
0.0
 11
12.0
 21
9.0
 12
0.0
 22
0.0
 32
0.0
 14
0.0
 24
0.0
 34
0.0
 15
0.0
 25
0.0
 35
0.0
146
0.0
 13
0.0
 23
0.0
 33
0.0
 16
1.0
 26
0.0
 36
0.0
 17
0.0
 27
1.0
 37
0.0
 76
     0
330
31C0
  0
LAYOUT
  5
31BF
102
{ACAD_REACTORS
330
31BB
102
}
330
31BB
100
AcDbPlotSettings
  1

  2
SII LP-2150 (D-SCAN C2)
  4

  6

 40
0.0
 41
0.0
 42
0.0
 43
0.0
 44
0.0
 45
0.0
 46
0.0
 47
0.0
 48
0.0
 49
0.0
140
0.0
141
0.0
142
1.0
143
1.0
 70
   688
 72
     0
 73
     0
 74
     5
  7

 75
    16
147
1.0
148
0.0
149
0.0
100
AcDbLayout
  1
ﾚｲｱｳﾄ1
 70
     1
 71
     1
 10
-580.5701293945312
 20
0.0
 11
0.0
 21
407.8999938964844
 12
0.0
 22
0.0
 32
0.0
 14
-580.5701293945312
 24
0.0
 34
0.0
 15
0.0
 25
407.8999938964844
 35
0.0
146
0.0
 13
0.0
 23
0.0
 33
0.0
 16
1.0
 26
0.0
 36
0.0
 17
0.0
 27
1.0
 37
0.0
 76
     0
330
31BC
  0
MLINESTYLE
  5
31B9
102
{ACAD_REACTORS
330
31B8
102
}
330
31B8
100
AcDbMlineStyle
  2
STANDARD
 70
     0
  3

 62
   256
 51
90.0
 52
90.0
 71
     2
 49
0.5
 62
   256
  6
BYLAYER
 49
-0.5
 62
   256
  6
BYLAYER
  0
ACDBPLACEHOLDER
  5
31B1
102
{ACAD_REACTORS
330
31B0
102
}
330
31B0
  0
DICTIONARYVAR
  5
3207
102
{ACAD_REACTORS
330
3206
102
}
330
3206
100
DictionaryVariables
280
     0
  1
1
  0
ENDSEC
  0
EOF
