  0
SECTION
  2
HEADER
  9
$ACADVER
  1
AC1015
  9
$ACADMAINTVER
 70
    14
  9
$DWGCODEPAGE
  3
ANSI_932
  9
$INSBASE
 10
0.0
 20
0.0
 30
0.0
  9
$EXTMIN
 10
439.5482514022405
 20
159.2376351102111
 30
-0.0000000349181948
  9
$EXTMAX
 10
985.0462975448772
 20
976.4330083280324
 30
0.0000000814935746
  9
$LIMMIN
 10
-580.5701293945312
 20
0.0
  9
$LIMMAX
 10
0.0
 20
407.8999938964844
  9
$ORTHOMODE
 70
     0
  9
$REGENMODE
 70
     1
  9
$FILLMODE
 70
     1
  9
$QTEXTMODE
 70
     0
  9
$MIRRTEXT
 70
     1
  9
$LTSCALE
 40
1.0
  9
$ATTMODE
 70
     1
  9
$TEXTSIZE
 40
0.2
  9
$TRACEWID
 40
0.05
  9
$TEXTSTYLE
  7
STANDARD
  9
$CLAYER
  8
0
  9
$CELTYPE
  6
CONTINUOUS
  9
$CECOLOR
 62
   256
  9
$CELTSCALE
 40
1.0
  9
$DISPSILH
 70
     0
  9
$DIMSCALE
 40
1.0
  9
$DIMASZ
 40
1.0
  9
$DIMEXO
 40
2.54
  9
$DIMDLI
 40
0.38
  9
$DIMRND
 40
0.0
  9
$DIMDLE
 40
0.0
  9
$DIMEXE
 40
2.54
  9
$DIMTP
 40
0.0
  9
$DIMTM
 40
0.0
  9
$DIMTXT
 40
3.200000047683714
  9
$DIMCEN
 40
0.09
  9
$DIMTSZ
 40
0.0
  9
$DIMTOL
 70
     0
  9
$DIMLIM
 70
     0
  9
$DIMTIH
 70
     0
  9
$DIMTOH
 70
     0
  9
$DIMSE1
 70
     0
  9
$DIMSE2
 70
     0
  9
$DIMTAD
 70
     1
  9
$DIMZIN
 70
     0
  9
$DIMBLK
  1

  9
$DIMASO
 70
     1
  9
$DIMSHO
 70
     0
  9
$DIMPOST
  1

  9
$DIMAPOST
  1

  9
$DIMALT
 70
     0
  9
$DIMALTD
 70
     2
  9
$DIMALTF
 40
25.4
  9
$DIMLFAC
 40
1.0
  9
$DIMTOFL
 70
     0
  9
$DIMTVP
 40
1.0
  9
$DIMTIX
 70
     0
  9
$DIMSOXD
 70
     0
  9
$DIMSAH
 70
     1
  9
$DIMBLK1
  1

  9
$DIMBLK2
  1

  9
$DIMSTYLE
  2
STANDARD
  9
$DIMCLRD
 70
     0
  9
$DIMCLRE
 70
     0
  9
$DIMCLRT
 70
     0
  9
$DIMTFAC
 40
1.0
  9
$DIMGAP
 40
1.600000023841857
  9
$DIMJUST
 70
     0
  9
$DIMSD1
 70
     0
  9
$DIMSD2
 70
     0
  9
$DIMTOLJ
 70
     1
  9
$DIMTZIN
 70
     0
  9
$DIMALTZ
 70
     0
  9
$DIMALTTZ
 70
     0
  9
$DIMUPT
 70
     0
  9
$DIMDEC
 70
     4
  9
$DIMTDEC
 70
     4
  9
$DIMALTU
 70
     2
  9
$DIMALTTD
 70
     2
  9
$DIMTXSTY
  7
STANDARD
  9
$DIMAUNIT
 70
     0
  9
$DIMADEC
 70
     0
  9
$DIMALTRND
 40
0.0
  9
$DIMAZIN
 70
     0
  9
$DIMDSEP
 70
    46
  9
$DIMATFIT
 70
     3
  9
$DIMFRAC
 70
     0
  9
$DIMLDRBLK
  1

  9
$DIMLUNIT
 70
     2
  9
$DIMLWD
 70
    -2
  9
$DIMLWE
 70
    -2
  9
$DIMTMOVE
 70
     0
  9
$LUNITS
 70
     2
  9
$LUPREC
 70
     4
  9
$SKETCHINC
 40
0.1
  9
$FILLETRAD
 40
0.0
  9
$AUNITS
 70
     0
  9
$AUPREC
 70
     0
  9
$MENU
  1
.
  9
$ELEVATION
 40
0.0
  9
$PELEVATION
 40
0.0
  9
$THICKNESS
 40
0.0
  9
$LIMCHECK
 70
     0
  9
$CHAMFERA
 40
0.0
  9
$CHAMFERB
 40
0.0
  9
$CHAMFERC
 40
0.0
  9
$CHAMFERD
 40
0.0
  9
$SKPOLY
 70
     0
  9
$TDCREATE
 40
2452717.604314595
  9
$TDUCREATE
 40
2452717.229314595
  9
$TDUPDATE
 40
2456899.681401157
  9
$TDUUPDATE
 40
2456899.306401157
  9
$TDINDWG
 40
0.1621662153
  9
$TDUSRTIMER
 40
0.1621660417
  9
$USRTIMER
 70
     1
  9
$ANGBASE
 50
0.0
  9
$ANGDIR
 70
     0
  9
$PDMODE
 70
     0
  9
$PDSIZE
 40
0.0
  9
$PLINEWID
 40
0.0
  9
$SPLFRAME
 70
     0
  9
$SPLINETYPE
 70
     6
  9
$SPLINESEGS
 70
     8
  9
$HANDSEED
  5
3226
  9
$SURFTAB1
 70
     6
  9
$SURFTAB2
 70
     6
  9
$SURFTYPE
 70
     6
  9
$SURFU
 70
     6
  9
$SURFV
 70
     6
  9
$UCSBASE
  2

  9
$UCSNAME
  2

  9
$UCSORG
 10
0.0
 20
0.0
 30
0.0
  9
$UCSXDIR
 10
1.0
 20
0.0
 30
0.0
  9
$UCSYDIR
 10
0.0
 20
1.0
 30
0.0
  9
$UCSORTHOREF
  2

  9
$UCSORTHOVIEW
 70
     0
  9
$UCSORGTOP
 10
0.0
 20
0.0
 30
0.0
  9
$UCSORGBOTTOM
 10
0.0
 20
0.0
 30
0.0
  9
$UCSORGLEFT
 10
0.0
 20
0.0
 30
0.0
  9
$UCSORGRIGHT
 10
0.0
 20
0.0
 30
0.0
  9
$UCSORGFRONT
 10
0.0
 20
0.0
 30
0.0
  9
$UCSORGBACK
 10
0.0
 20
0.0
 30
0.0
  9
$PUCSBASE
  2

  9
$PUCSNAME
  2

  9
$PUCSORG
 10
0.0
 20
0.0
 30
0.0
  9
$PUCSXDIR
 10
1.0
 20
0.0
 30
0.0
  9
$PUCSYDIR
 10
0.0
 20
1.0
 30
0.0
  9
$PUCSORTHOREF
  2

  9
$PUCSORTHOVIEW
 70
     0
  9
$PUCSORGTOP
 10
0.0
 20
0.0
 30
0.0
  9
$PUCSORGBOTTOM
 10
0.0
 20
0.0
 30
0.0
  9
$PUCSORGLEFT
 10
0.0
 20
0.0
 30
0.0
  9
$PUCSORGRIGHT
 10
0.0
 20
0.0
 30
0.0
  9
$PUCSORGFRONT
 10
0.0
 20
0.0
 30
0.0
  9
$PUCSORGBACK
 10
0.0
 20
0.0
 30
0.0
  9
$USERI1
 70
     0
  9
$USERI2
 70
     0
  9
$USERI3
 70
     0
  9
$USERI4
 70
     0
  9
$USERI5
 70
     0
  9
$USERR1
 40
0.0
  9
$USERR2
 40
0.0
  9
$USERR3
 40
0.0
  9
$USERR4
 40
0.0
  9
$USERR5
 40
0.0
  9
$WORLDVIEW
 70
     1
  9
$SHADEDGE
 70
     3
  9
$SHADEDIF
 70
    70
  9
$TILEMODE
 70
     1
  9
$MAXACTVP
 70
    48
  9
$PINSBASE
 10
0.0
 20
0.0
 30
0.0
  9
$PLIMCHECK
 70
     0
  9
$PEXTMIN
 10
-580.5701293945312
 20
0.0
 30
0.0
  9
$PEXTMAX
 10
0.0
 20
407.8999938964844
 30
0.0
  9
$PLIMMIN
 10
-580.5701293945312
 20
0.0
  9
$PLIMMAX
 10
0.0
 20
407.8999938964844
  9
$UNITMODE
 70
     0
  9
$VISRETAIN
 70
     1
  9
$PLINEGEN
 70
     0
  9
$PSLTSCALE
 70
     1
  9
$TREEDEPTH
 70
  3020
  9
$CMLSTYLE
  2
Standard
  9
$CMLJUST
 70
     0
  9
$CMLSCALE
 40
1.0
  9
$PROXYGRAPHICS
 70
     1
  9
$MEASUREMENT
 70
     0
  9
$CELWEIGHT
370
    -1
  9
$ENDCAPS
280
     0
  9
$JOINSTYLE
280
     0
  9
$LWDISPLAY
290
     0
  9
$INSUNITS
 70
     0
  9
$HYPERLINKBASE
  1

  9
$STYLESHEET
  1

  9
$XEDIT
290
     1
  9
$CEPSNTYPE
380
     0
  9
$PSTYLEMODE
290
     1
  9
$FINGERPRINTGUID
  2
{5B3DA0A2-0BD2-4E13-A99A-4E43377F641F}
  9
$VERSIONGUID
  2
{C377DFBC-CE62-4741-B60C-137567A774C1}
  9
$EXTNAMES
290
     1
  9
$PSVPSCALE
 40
0.0
  9
$OLESTARTUP
290
     0
  0
ENDSEC
  0
SECTION
  2
CLASSES
  0
CLASS
  1
ACDBDICTIONARYWDFLT
  2
AcDbDictionaryWithDefault
  3
AutoCAD 2000
 90
        0
280
     0
281
     0
  0
CLASS
  1
ACDBPLACEHOLDER
  2
AcDbPlaceHolder
  3
AutoCAD 2000
 90
        0
280
     0
281
     0
  0
CLASS
  1
LAYOUT
  2
AcDbLayout
  3
AutoCAD 2000
 90
        0
280
     0
281
     0
  0
CLASS
  1
DICTIONARYVAR
  2
AcDbDictionaryVar
  3
AutoCAD 2000
 90
        0
280
     0
281
     0
  0
CLASS
  1
LONG_TRANSACTION
  2
AcDbLongTransaction
  3
AutoCAD 2000
 90
    32768
280
     0
281
     0
  0
CLASS
  1
LWPOLYLINE
  2
AcDbPolyline
  3
AutoCAD 2000
 90
    32768
280
     0
281
     1
  0
CLASS
  1
HATCH
  2
AcDbHatch
  3
AutoCAD 2000
 90
    32768
280
     0
281
     1
  0
CLASS
  1
XRECORD
  2
AcDbXrecord
  3
AutoCAD 2000
 90
    32768
280
     0
281
     0
  0
ENDSEC
  0
SECTION
  2
TABLES
  0
TABLE
  2
VPORT
  5
31AA
330
0
100
AcDbSymbolTable
 70
     2
  0
VPORT
  5
3225
330
31AA
100
AcDbSymbolTableRecord
100
AcDbViewportTableRecord
  2
*Active
 70
     0
 10
0.0
 20
0.0
 11
1.0
 21
1.0
 12
712.2972744735589
 22
567.8353217191218
 13
0.0
 23
0.0
 14
1.0
 24
1.0
 15
0.0
 25
0.0
 16
0.0
 26
0.0
 36
1.0
 17
0.0
 27
0.0
 37
0.0
 40
822.3839152699978
 41
1.592161016949152
 42
50.0
 43
0.0
 44
0.0
 50
0.0
 51
0.0
 71
     0
 72
   100
 73
     1
 74
     3
 75
     0
 76
     0
 77
     0
 78
     0
281
     0
 65
     1
110
0.0
120
0.0
130
0.0
111
1.0
121
0.0
131
0.0
112
0.0
122
1.0
132
0.0
 79
     0
146
0.0
  0
ENDTAB
  0
TABLE
  2
LTYPE
  5
31A7
330
0
100
AcDbSymbolTable
 70
     2
  0
LTYPE
  5
31B5
330
31A7
100
AcDbSymbolTableRecord
100
AcDbLinetypeTableRecord
  2
ByBlock
 70
     0
  3

 72
    65
 73
     0
 40
0.0
  0
LTYPE
  5
31B6
330
31A7
100
AcDbSymbolTableRecord
100
AcDbLinetypeTableRecord
  2
ByLayer
 70
     0
  3

 72
    65
 73
     0
 40
0.0
  0
LTYPE
  5
31B7
330
31A7
100
AcDbSymbolTableRecord
100
AcDbLinetypeTableRecord
  2
CONTINUOUS
 70
     0
  3
Solid line
 72
    65
 73
     0
 40
0.0
  0
LTYPE
  5
320C
330
31A7
100
AcDbSymbolTableRecord
100
AcDbLinetypeTableRecord
  2
CENTER
 70
     0
  3
__ . __
 72
    65
 73
     4
 40
7.0
 49
4.0
 74
     0
 49
-1.0
 74
     0
 49
1.0
 74
     0
 49
-1.0
 74
     0
  0
ENDTAB
  0
TABLE
  2
LAYER
  5
31A4
102
{ACAD_XDICTIONARY
360
320D
102
}
330
0
100
AcDbSymbolTable
 70
     2
  0
LAYER
  5
31B2
330
31A4
100
AcDbSymbolTableRecord
100
AcDbLayerTableRecord
  2
0
 70
     0
 62
     7
  6
CONTINUOUS
370
    -3
390
31B1
  0
LAYER
  5
31C5
330
31A4
100
AcDbSymbolTableRecord
100
AcDbLayerTableRecord
  2
DEFPOINTS
 70
     0
 62
     7
  6
CONTINUOUS
290
     0
370
    -3
390
31B1
  0
ENDTAB
  0
TABLE
  2
STYLE
  5
31A5
330
0
100
AcDbSymbolTable
 70
     1
  0
STYLE
  5
31B3
330
31A5
100
AcDbSymbolTableRecord
100
AcDbTextStyleTableRecord
  2
STANDARD
 70
     0
 40
0.0
 41
1.0
 50
0.0
 71
     0
 42
0.2
  3
txt
  4
BIGFONT
  0
ENDTAB
  0
TABLE
  2
VIEW
  5
31A8
330
0
100
AcDbSymbolTable
 70
     0
  0
ENDTAB
  0
TABLE
  2
UCS
  5
31A9
330
0
100
AcDbSymbolTable
 70
     0
  0
ENDTAB
  0
TABLE
  2
APPID
  5
31AB
330
0
100
AcDbSymbolTable
 70
     4
  0
APPID
  5
31B4
330
31AB
100
AcDbSymbolTableRecord
100
AcDbRegAppTableRecord
  2
ACAD
 70
     0
  0
APPID
  5
31C6
330
31AB
100
AcDbSymbolTableRecord
100
AcDbRegAppTableRecord
  2
MCAD_NO_VIS
 70
     0
  0
APPID
  5
31C7
330
31AB
100
AcDbSymbolTableRecord
100
AcDbRegAppTableRecord
  2
ACAD_TEMP_GRAPHIC
 70
     0
  0
APPID
  5
31C8
330
31AB
100
AcDbSymbolTableRecord
100
AcDbRegAppTableRecord
  2
ACATTRIBSERVICES
 70
     0
  0
ENDTAB
  0
TABLE
  2
DIMSTYLE
  5
31AC
330
0
100
AcDbSymbolTable
 70
     1
100
AcDbDimStyleTable
 71
     0
  0
DIMSTYLE
105
31C9
330
31AC
100
AcDbSymbolTableRecord
100
AcDbDimStyleTableRecord
  2
STANDARD
 70
     0
279
     2
340
31B3
  0
ENDTAB
  0
TABLE
  2
BLOCK_RECORD
  5
31A3
330
0
100
AcDbSymbolTable
 70
     2
  0
BLOCK_RECORD
  5
31C0
102
{ACAD_XDICTIONARY
360
31D2
102
}
330
31A3
100
AcDbSymbolTableRecord
100
AcDbBlockTableRecord
  2
*Model_Space
340
31C3
  0
BLOCK_RECORD
  5
31BC
102
{ACAD_XDICTIONARY
360
31D4
102
}
330
31A3
100
AcDbSymbolTableRecord
100
AcDbBlockTableRecord
  2
*Paper_Space
340
31BF
  0
BLOCK_RECORD
  5
31CC
330
31A3
100
AcDbSymbolTableRecord
100
AcDbBlockTableRecord
  2
$MODEL_SPACE
340
0
  0
BLOCK_RECORD
  5
31CE
330
31A3
100
AcDbSymbolTableRecord
100
AcDbBlockTableRecord
  2
$PAPER_SPACE
340
0
  0
ENDTAB
  0
ENDSEC
  0
SECTION
  2
BLOCKS
  0
BLOCK
  5
31C1
330
31C0
100
AcDbEntity
  8
0
100
AcDbBlockBegin
  2
*Model_Space
 70
     0
 10
0.0
 20
0.0
 30
0.0
  3
*Model_Space
  1

  0
ENDBLK
  5
31C2
330
31C0
100
AcDbEntity
  8
0
100
AcDbBlockEnd
  0
BLOCK
  5
31BD
330
31BC
100
AcDbEntity
 67
     1
  8
0
100
AcDbBlockBegin
  2
*Paper_Space
 70
     0
 10
0.0
 20
0.0
 30
0.0
  3
*Paper_Space
  1

  0
ENDBLK
  5
31BE
330
31BC
100
AcDbEntity
 67
     1
  8
0
100
AcDbBlockEnd
  0
BLOCK
  5
31CD
330
31CC
100
AcDbEntity
  8
0
100
AcDbBlockBegin
  2
$MODEL_SPACE
 70
     0
 10
0.0
 20
0.0
 30
0.0
  3
$MODEL_SPACE
  1

  0
ENDBLK
  5
318D
330
31CC
100
AcDbEntity
  8
0
100
AcDbBlockEnd
  0
BLOCK
  5
31CF
330
31CE
100
AcDbEntity
  8
0
100
AcDbBlockBegin
  2
$PAPER_SPACE
 70
     0
 10
0.0
 20
0.0
 30
0.0
  3
$PAPER_SPACE
  1

  0
ENDBLK
  5
3189
330
31CE
100
AcDbEntity
  8
0
100
AcDbBlockEnd
  0
ENDSEC
  0
SECTION
  2
ENTITIES
  0
LINE
  5
B13
330
31C0
100
AcDbEntity
  8
0
100
AcDbLine
 10
680.2149225464853
 20
400.0141247350048
 30
0.0
 11
680.2148818030578
 21
476.5141247349935
 31
0.0
  0
LINE
  5
B14
330
31C0
100
AcDbEntity
  8
0
100
AcDbLine
 10
724.2149225464794
 20
400.0141481691342
 30
0.0
 11
724.2148857947587
 21
469.0193044569798
 31
0.0
  0
LINE
  5
B26
330
31C0
100
AcDbEntity
  8
0
100
AcDbLine
 10
724.2149225464794
 20
400.0141481691342
 30
0.0
 11
680.2149225464853
 21
400.0141247350048
 31
0.0
  0
LINE
  5
B41
330
31C0
100
AcDbEntity
  8
0
100
AcDbLine
 10
683.2149287511595
 20
388.3642101150178
 30
0.0
 11
683.2149225464855
 21
400.014126332786
 31
0.0
  0
LINE
  5
B46
330
31C0
100
AcDbEntity
  8
0
100
AcDbLine
 10
721.2149287511715
 20
388.3641970664696
 30
0.0
 11
721.2149225464806
 21
400.0141465713516
 31
0.0
  0
LINE
  5
B8B
330
31C0
100
AcDbEntity
  8
0
100
AcDbLine
 10
773.2149239056176
 20
469.5142804532649
 30
0.0
 11
724.2148857947587
 21
469.0193044569798
 31
0.0
  0
LINE
  5
B8C
330
31C0
100
AcDbEntity
  8
0
100
AcDbLine
 10
780.7148818030428
 20
476.514178260674
 30
0.0
 11
680.2148818030578
 21
476.5141247349935
 31
0.0
  0
LINE
  5
B96
330
31C0
100
AcDbEntity
  8
0
100
AcDbLine
 10
680.2148849986195
 20
470.5141247349935
 30
0.0
 11
669.2148849986217
 21
470.5141188764621
 31
0.0
  0
LINE
  5
B97
330
31C0
100
AcDbEntity
  8
0
100
AcDbLine
 10
680.2148929875275
 20
455.5141247349967
 30
0.0
 11
669.2148929875298
 21
455.5141188764642
 31
0.0
  0
LINE
  5
B9A
330
31C0
100
AcDbEntity
  8
0
100
AcDbLine
 10
669.2148929875298
 20
455.5141188764642
 30
0.0
 11
669.2148849986217
 21
470.5141188764621
 31
0.0
  0
LINE
  5
B9B
330
31C0
100
AcDbEntity
  8
0
100
AcDbLine
 10
664.7148911234515
 20
459.0141164797919
 30
0.0
 11
664.7148868627018
 21
467.0141164797906
 31
0.0
  0
LINE
  5
B9C
330
31C0
100
AcDbEntity
  8
0
100
AcDbLine
 10
664.7148911234515
 20
459.0141164797919
 30
0.0
 11
669.2148911234504
 21
459.0141188764642
 31
0.0
  0
LINE
  5
BA0
330
31C0
100
AcDbEntity
  8
0
100
AcDbLine
 10
664.7148868627018
 20
467.0141164797906
 30
0.0
 11
669.2148868627007
 21
467.0141188764628
 31
0.0
  0
LINE
  5
BAB
330
31C0
100
AcDbEntity
  8
0
100
AcDbLine
 10
680.7148818030578
 20
476.5141250012907
 30
0.0
 11
680.7148804715727
 21
479.0141250012896
 31
0.0
  0
LINE
  5
BB2
330
31C0
100
AcDbEntity
  8
0
100
AcDbLine
 10
723.7148804715665
 20
479.0141479028248
 30
0.0
 11
680.7148804715727
 21
479.0141250012896
 31
0.0
  0
LINE
  5
BF3
330
31C0
100
AcDbEntity
  8
0
100
AcDbLine
 10
694.2148778086017
 20
484.0141321913058
 30
0.0
 11
710.2148778085997
 21
484.0141407128077
 31
0.0
  0
LINE
  5
BFC
330
31C0
100
AcDbEntity
  8
0
100
AcDbLine
 10
694.2148804715721
 20
479.0141321913081
 30
0.0
 11
694.2148778086017
 21
484.0141321913058
 31
0.0
  0
LINE
  5
C10
330
31C0
100
AcDbEntity
  8
0
100
AcDbLine
 10
710.2148804715689
 20
479.0141407128088
 30
0.0
 11
710.2148778085997
 21
484.0141407128077
 31
0.0
  0
LINE
  5
C16
330
31C0
100
AcDbEntity
  8
0
100
AcDbLine
 10
723.7148818030521
 20
476.5141479028248
 30
0.0
 11
723.7148804715665
 21
479.0141479028248
 31
0.0
  0
LINE
  5
C18
330
31C0
100
AcDbEntity
  8
0
100
AcDbLine
 10
790.2148855311984
 20
469.5141833203169
 30
0.0
 11
790.2148423910736
 21
550.5142290966728
 31
0.0
  0
LINE
  5
C19
330
31C0
100
AcDbEntity
  8
0
100
AcDbLine
 10
773.2148818030446
 20
476.5141742662208
 30
0.0
 11
773.2148423910754
 21
550.5142200425767
 31
0.0
  0
LINE
  5
C1B
330
31C0
100
AcDbEntity
  8
0
100
AcDbLine
 10
790.2148812704478
 20
477.5141833203156
 30
0.0
 11
773.2148812704504
 21
477.5141742662207
 31
0.0
  0
LINE
  5
C1C
330
31C0
100
AcDbEntity
  8
0
100
AcDbLine
 10
790.2148855311984
 20
469.5141833203169
 30
0.0
 11
773.2148855312011
 21
469.5141742662212
 31
0.0
  0
LINE
  5
C22
330
31C0
100
AcDbEntity
  8
0
100
AcDbLine
 10
790.2148423910736
 20
550.5142290966728
 30
0.0
 11
773.2148423910754
 21
550.5142200425767
 31
0.0
  0
LINE
  5
C2B
330
31C0
100
AcDbEntity
  8
0
100
AcDbLine
 10
656.4649225464827
 20
283.8641730731619
 30
0.0
 11
747.9649225464827
 21
283.8641730731619
 31
0.0
  0
LINE
  5
C2C
330
31C0
100
AcDbEntity
  8
0
100
AcDbLine
 10
656.4649225464827
 20
268.3641730731617
 30
0.0
 11
747.9649225464827
 21
268.3641730731617
 31
0.0
  0
LINE
  5
C2D
330
31C0
100
AcDbEntity
  8
0
100
AcDbLine
 10
747.9649225464827
 20
268.3641730731617
 30
0.0
 11
747.9649225464827
 21
283.8641730731619
 31
0.0
  0
LINE
  5
C2E
330
31C0
100
AcDbEntity
  8
0
100
AcDbLine
 10
683.1648889771468
 20
180.3707620309168
 30
0.0
 11
683.1648889771468
 21
217.9789470854175
 31
0.0
  0
LINE
  5
C2F
330
31C0
100
AcDbEntity
  8
0
100
AcDbLine
 10
721.2649103394515
 20
180.3707638619017
 30
0.0
 11
721.2649103394515
 21
217.9789529945728
 31
0.0
  0
LINE
  5
C30
330
31C0
100
AcDbEntity
  8
0
100
AcDbLine
 10
676.9649072876941
 20
178.1141531621549
 30
0.0
 11
683.1648889771468
 21
180.3707620309168
 31
0.0
  0
LINE
  5
C31
330
31C0
100
AcDbEntity
  8
0
100
AcDbLine
 10
676.9649072876941
 20
175.2641364520674
 30
0.0
 11
727.4649225464827
 21
175.2641364520674
 31
0.0
  0
LINE
  5
C32
330
31C0
100
AcDbEntity
  8
0
  6
Continuous
100
AcDbLine
 10
683.1648889771468
 20
180.3707620309168
 30
0.0
 11
721.2649103394515
 21
180.3707638619017
 31
0.0
  0
LINE
  5
C33
330
31C0
100
AcDbEntity
  8
0
100
AcDbLine
 10
727.4649225464827
 20
178.1141438856488
 30
0.0
 11
721.2649103394515
 21
180.3707638619017
 31
0.0
  0
LINE
  5
C34
330
31C0
100
AcDbEntity
  8
0
100
AcDbLine
 10
727.4649225464827
 20
175.2641364520674
 30
0.0
 11
727.4649225464827
 21
178.1141438856488
 31
0.0
  0
LINE
  5
C35
330
31C0
100
AcDbEntity
  8
0
100
AcDbLine
 10
676.9649072876941
 20
175.2641364520674
 30
0.0
 11
676.9649072876941
 21
178.1141531621549
 31
0.0
  0
LINE
  5
C36
330
31C0
100
AcDbEntity
  8
0
100
AcDbLine
 10
656.4649225464827
 20
268.3641730731617
 30
0.0
 11
656.4649225464827
 21
283.8641730731619
 31
0.0
  0
LINE
  5
C37
330
31C0
100
AcDbEntity
  8
0
100
AcDbLine
 10
677.2149242808836
 20
221.4141608661305
 30
0.0
 11
683.1648889771468
 21
217.9789470854175
 31
0.0
  0
LINE
  5
C38
330
31C0
100
AcDbEntity
  8
0
100
AcDbLine
 10
734.2149225464818
 20
221.4141608661305
 30
0.0
 11
670.2149072876941
 21
221.4141608661305
 31
0.0
  0
LINE
  5
C39
330
31C0
100
AcDbEntity
  8
0
100
AcDbLine
 10
734.2149225464818
 20
268.3641730731617
 30
0.0
 11
734.2149225464818
 21
221.4141608661305
 31
0.0
  0
LINE
  5
C3A
330
31C0
100
AcDbEntity
  8
0
100
AcDbLine
 10
727.21486480076
 20
221.4141608661305
 30
0.0
 11
721.2649103394515
 21
217.9789529945728
 31
0.0
  0
LINE
  5
C3B
330
31C0
100
AcDbEntity
  8
0
100
AcDbLine
 10
632.2148920289047
 20
220.0141364520673
 30
0.0
 11
632.2148920289047
 21
270.5141364520674
 31
0.0
  0
LINE
  5
C3C
330
31C0
100
AcDbEntity
  8
0
  6
Continuous
100
AcDbLine
 10
637.3215257545346
 20
226.2141486591
 30
0.0
 11
637.3215387501519
 21
264.3141242450369
 31
0.0
  0
LINE
  5
C3D
330
31C0
100
AcDbEntity
  8
0
100
AcDbLine
 10
670.2149072876941
 20
268.3641730731617
 30
0.0
 11
670.2149072876941
 21
221.4141608661305
 31
0.0
  0
LINE
  5
C3E
330
31C0
100
AcDbEntity
  8
0
100
AcDbLine
 10
637.3215257545346
 20
226.2141486591
 30
0.0
 11
670.2149072876941
 21
226.2141486591
 31
0.0
  0
LINE
  5
C3F
330
31C0
100
AcDbEntity
  8
0
100
AcDbLine
 10
632.2148920289047
 20
220.0141364520673
 30
0.0
 11
635.064905778282
 21
220.0141364520673
 31
0.0
  0
LINE
  5
C40
330
31C0
100
AcDbEntity
  8
0
100
AcDbLine
 10
635.064905778282
 20
220.0141364520673
 30
0.0
 11
637.3215257545346
 21
226.2141486591
 31
0.0
  0
LINE
  5
C41
330
31C0
100
AcDbEntity
  8
0
100
AcDbLine
 10
637.3215387501519
 20
264.3141242450369
 30
0.0
 11
670.2149072876941
 21
264.3141242450369
 31
0.0
  0
LINE
  5
C42
330
31C0
100
AcDbEntity
  8
0
100
AcDbLine
 10
632.2148920289047
 20
270.5141364520674
 30
0.0
 11
635.0649187738985
 21
270.5141364520674
 31
0.0
  0
LINE
  5
C43
330
31C0
100
AcDbEntity
  8
0
100
AcDbLine
 10
635.0649187738985
 20
270.5141364520674
 30
0.0
 11
637.3215387501519
 21
264.3141242450369
 31
0.0
  0
LINE
  5
1F9F
330
31C0
100
AcDbEntity
  8
0
  6
Continuous
 62
     7
100
AcDbLine
 10
669.2149149170884
 20
731.0361084111952
 30
0.0
 11
666.7148843995106
 21
731.0361084111952
 31
0.0
  0
LINE
  5
1FA0
330
31C0
100
AcDbEntity
  8
0
  6
Continuous
 62
     7
100
AcDbLine
 10
669.2149149170884
 20
739.0361236699837
 30
0.0
 11
666.7148843995106
 21
739.0361236699837
 31
0.0
  0
LINE
  5
1FA2
330
31C0
100
AcDbEntity
  8
0
  6
Continuous
 62
     7
100
AcDbLine
 10
666.7148843995106
 20
739.0359863408815
 30
0.0
 11
666.7148843995106
 21
731.0359710820925
 31
0.0
  0
CIRCLE
  5
1FA3
330
31C0
100
AcDbEntity
  8
0
  6
Continuous
 62
     7
100
AcDbCircle
 10
702.2149149170887
 20
735.0361847051399
 30
0.0
 40
22.00000047683715
  0
LINE
  5
1FA4
330
31C0
100
AcDbEntity
  8
0
  6
Continuous
 62
     7
100
AcDbLine
 10
781.7149835816398
 20
743.5361236699836
 30
0.0
 11
735.1807886353508
 21
743.5361236699836
 31
0.0
  0
LINE
  5
1FA5
330
31C0
100
AcDbEntity
  8
0
  6
Continuous
 62
     7
100
AcDbLine
 10
781.7149835816398
 20
726.536108411195
 30
0.0
 11
735.1807886353508
 21
726.536108411195
 31
0.0
  0
CIRCLE
  5
1FA7
330
31C0
100
AcDbEntity
  8
0
  6
Continuous
 62
     7
100
AcDbCircle
 10
702.2149149170887
 20
721.0361236699831
 30
0.0
 40
4.500000134110448
  0
LINE
  5
1FAF
330
31C0
100
AcDbEntity
  8
0
  6
Continuous
 62
     7
100
AcDbLine
 10
681.9232649453695
 20
743.5361236699836
 30
0.0
 11
669.2149149170898
 21
743.5361236699836
 31
0.0
  0
LINE
  5
1FB7
330
31C0
100
AcDbEntity
  8
0
  6
Continuous
 62
     7
100
AcDbLine
 10
669.2149149170898
 20
743.5361236699836
 30
0.0
 11
669.2149149170884
 21
726.536108411195
 31
0.0
  0
LINE
  5
1FB8
330
31C0
100
AcDbEntity
  8
0
  6
Continuous
 62
     7
100
AcDbLine
 10
681.9233224714976
 20
726.536108411195
 30
0.0
 11
669.2149149170884
 21
726.536108411195
 31
0.0
  0
CIRCLE
  5
1FB9
330
31C0
100
AcDbEntity
  8
0
  6
Continuous
 62
     7
100
AcDbCircle
 10
702.2149149170887
 20
735.0361847051399
 30
0.0
 40
5.500000119209286
  0
CIRCLE
  5
1FBA
330
31C0
100
AcDbEntity
  8
0
  6
Continuous
 62
     7
100
AcDbCircle
 10
702.2149149170887
 20
749.0361084111937
 30
0.0
 40
4.500000134110448
  0
POINT
  5
1FBE
330
31C0
100
AcDbEntity
  8
0
  6
Continuous
 62
     7
100
AcDbPoint
 10
702.2149149170887
 20
749.0361084111952
 30
0.0
  0
POINT
  5
1FBF
330
31C0
100
AcDbEntity
  8
0
  6
Continuous
 62
     7
100
AcDbPoint
 10
702.2149149170887
 20
749.0361084111952
 30
0.0
  0
POINT
  5
1FC0
330
31C0
100
AcDbEntity
  8
0
  6
Continuous
 62
     7
100
AcDbPoint
 10
702.2149149170887
 20
749.0361084111952
 30
0.0
  0
POINT
  5
1FC4
330
31C0
100
AcDbEntity
  8
0
  6
Continuous
 62
     7
100
AcDbPoint
 10
702.2149149170887
 20
721.0361236699838
 30
0.0
  0
POINT
  5
1FC5
330
31C0
100
AcDbEntity
  8
0
  6
Continuous
 62
     7
100
AcDbPoint
 10
702.2149149170887
 20
721.0361236699838
 30
0.0
  0
ARC
  5
1FC6
330
31C0
100
AcDbEntity
  8
0
  6
Continuous
 62
     7
100
AcDbCircle
 10
735.1807657471669
 20
701.5361236699837
 30
0.0
 40
25.0000019073486
100
AcDbArc
 50
89.99997768819374
 51
134.5395593035806
  0
ARC
  5
1FC7
330
31C0
100
AcDbEntity
  8
0
  6
Continuous
 62
     7
100
AcDbCircle
 10
735.1807657471669
 20
768.5361084111952
 30
0.0
 40
25.0000019073486
100
AcDbArc
 50
225.4604149695246
 51
270.0
  0
CIRCLE
  5
1FC8
330
31C0
100
AcDbEntity
  8
0
  6
Continuous
 62
     7
100
AcDbCircle
 10
781.7148462525381
 20
735.0361847051399
 30
0.0
 40
8.499999761581419
  0
ARC
  5
1FCD
330
31C0
100
AcDbEntity
  8
0
  6
Continuous
100
AcDbCircle
 10
702.2149149170887
 20
735.0361847051399
 30
0.0
 40
45.75
100
AcDbArc
 50
10.70725381756502
 51
349.2925711485182
  0
LINE
  5
1FCF
330
31C0
100
AcDbEntity
  8
0
100
AcDbLine
 10
635.0649187738985
 20
760.2861847051399
 30
0.0
 11
637.3215387501519
 21
754.086172498108
 31
0.0
  0
LINE
  5
1FD0
330
31C0
100
AcDbEntity
  8
0
100
AcDbLine
 10
632.2148920289047
 20
760.2861847051399
 30
0.0
 11
635.0649187738985
 21
760.2861847051399
 31
0.0
  0
LINE
  5
1FD1
330
31C0
100
AcDbEntity
  8
0
100
AcDbLine
 10
635.064905778282
 20
709.7861847051399
 30
0.0
 11
637.3215257545346
 21
715.9861969121712
 31
0.0
  0
LINE
  5
1FD2
330
31C0
100
AcDbEntity
  8
0
100
AcDbLine
 10
632.2148920289047
 20
709.7861847051399
 30
0.0
 11
635.064905778282
 21
709.7861847051399
 31
0.0
  0
LINE
  5
1FD3
330
31C0
100
AcDbEntity
  8
0
100
AcDbLine
 10
632.2148920289047
 20
709.7861847051399
 30
0.0
 11
632.2148920289047
 21
760.2861847051399
 31
0.0
  0
LINE
  5
1FD4
330
31C0
100
AcDbEntity
  8
0
  6
Continuous
100
AcDbLine
 10
637.3215257545346
 20
715.9861969121712
 30
0.0
 11
637.3215387501519
 21
754.086172498108
 31
0.0
  0
LINE
  5
1FD5
330
31C0
100
AcDbEntity
  8
0
100
AcDbLine
 10
637.3215257545346
 20
715.9861969121712
 30
0.0
 11
660.6197172965967
 21
715.9861969121712
 31
0.0
  0
LINE
  5
1FD6
330
31C0
100
AcDbEntity
  8
0
100
AcDbLine
 10
637.3215387501519
 20
754.086172498108
 30
0.0
 11
660.6197172965967
 21
754.086172498108
 31
0.0
  0
LINE
  5
2555
330
31C0
100
AcDbEntity
  8
0
  6
Continuous
100
AcDbLine
 10
733.4649225464827
 20
388.3642035907407
 30
0.0
 11
733.4649225464827
 21
373.8642035907407
 31
0.0
  0
LINE
  5
2556
330
31C0
100
AcDbEntity
  8
0
  6
Continuous
100
AcDbLine
 10
670.9649225464827
 20
388.3642035907407
 30
0.0
 11
670.9649225464827
 21
373.8642035907407
 31
0.0
  0
LINE
  5
255F
330
31C0
100
AcDbEntity
  8
0
  6
Continuous
100
AcDbLine
 10
637.3215453035944
 20
364.3141547626156
 30
0.0
 11
682.6149469605447
 21
364.3141547626156
 31
0.0
  0
LINE
  5
2560
330
31C0
100
AcDbEntity
  8
0
  6
Continuous
100
AcDbLine
 10
637.3215547860641
 20
326.2141486591001
 30
0.0
 11
682.6149469605447
 21
326.2141486591001
 31
0.0
  0
LINE
  5
25D0
330
31C0
100
AcDbEntity
  8
0
  6
Continuous
100
AcDbLine
 10
721.8148981324209
 20
283.8641730731628
 30
0.0
 11
721.8148981324209
 21
373.8642035907407
 31
0.0
  0
LINE
  5
25D6
330
31C0
100
AcDbEntity
  8
0
  6
Continuous
100
AcDbLine
 10
682.6149469605447
 20
283.8641730731628
 30
0.0
 11
682.6149469605447
 21
373.8642035907407
 31
0.0
  0
LINE
  5
2605
330
31C0
100
AcDbEntity
  8
0
  6
Continuous
100
AcDbLine
 10
733.4649225464827
 20
373.8642035907407
 30
0.0
 11
670.9649225464827
 21
373.8642035907407
 31
0.0
  0
LINE
  5
2613
330
31C0
100
AcDbEntity
  8
0
  6
Continuous
100
AcDbLine
 10
632.2149378052718
 20
320.0141669696471
 30
0.0
 11
632.2149378052718
 21
370.5141364520688
 31
0.0
  0
LINE
  5
2615
330
31C0
100
AcDbEntity
  8
0
  6
Continuous
100
AcDbLine
 10
635.0649459173024
 20
320.0141669696471
 30
0.0
 11
637.3215547860641
 21
326.2141486591001
 31
0.0
  0
LINE
  5
2618
330
31C0
100
AcDbEntity
  8
0
  6
Continuous
100
AcDbLine
 10
632.2149378052718
 20
320.0141669696471
 30
0.0
 11
635.0649459173024
 21
320.0141669696471
 31
0.0
  0
LINE
  5
2620
330
31C0
100
AcDbEntity
  8
0
  6
Continuous
100
AcDbLine
 10
635.0649364348314
 20
370.5141364520688
 30
0.0
 11
637.3215453035944
 21
364.3141547626156
 31
0.0
  0
LINE
  5
2629
330
31C0
100
AcDbEntity
  8
0
  6
Continuous
100
AcDbLine
 10
632.2149378052718
 20
370.5141364520688
 30
0.0
 11
635.0649364348314
 21
370.5141364520688
 31
0.0
  0
LINE
  5
2649
330
31C0
100
AcDbEntity
  8
0
  6
Continuous
100
AcDbLine
 10
733.4649225464827
 20
388.3642035907407
 30
0.0
 11
670.9649225464827
 21
388.3642035907407
 31
0.0
  0
LINE
  5
2653
330
31C0
100
AcDbEntity
  8
0
  6
Continuous
100
AcDbLine
 10
637.3215547860641
 20
326.2141486591001
 30
0.0
 11
637.3215453035944
 21
364.3141547626156
 31
0.0
  0
TEXT
  5
3157
330
31C0
100
AcDbEntity
  8
0
  6
Continuous
100
AcDbText
 10
439.6625542654824
 20
928.3734077682892
 30
0.0
 40
48.000002
  1
WFM__ 1.5S
 41
1.32095
100
AcDbText
  0
LINE
  5
321B
330
31C0
100
AcDbEntity
  8
0
  6
CENTER
100
AcDbLine
 10
609.3486763004721
 20
735.0361847051399
 30
0.0
 11
808.6989633179037
 21
735.0361847051399
 31
0.0
  0
LINE
  5
321C
330
31C0
100
AcDbEntity
  8
0
  6
CENTER
100
AcDbLine
 10
702.2149149170887
 20
678.2565408498378
 30
0.0
 11
702.2149149170887
 21
791.815828560442
 31
0.0
  0
LINE
  5
321D
330
31C0
100
AcDbEntity
  8
0
  6
CENTER
100
AcDbLine
 10
702.2148996582998
 20
159.3055374776799
 30
0.0
 11
702.2148996582998
 21
505.7994774255489
 31
0.0
  0
LINE
  5
321E
330
31C0
100
AcDbEntity
  8
0
  6
CENTER
100
AcDbLine
 10
601.5754088682033
 20
345.2641517108579
 30
0.0
 11
702.2145410767568
 21
345.2641517108579
 31
0.0
  0
LINE
  5
321F
330
31C0
100
AcDbEntity
  8
0
  6
CENTER
100
AcDbLine
 10
601.5753630918363
 20
245.2641364520674
 30
0.0
 11
702.2144953003897
 21
245.2641364520674
 31
0.0
  0
ENDSEC
  0
SECTION
  2
OBJECTS
  0
DICTIONARY
  5
31AE
330
0
100
AcDbDictionary
281
     1
  3
ACAD_GROUP
350
31AF
  3
ACAD_LAYOUT
350
31BB
  3
ACAD_MLINESTYLE
350
31B8
  3
ACAD_PLOTSETTINGS
350
31BA
  3
ACAD_PLOTSTYLENAME
350
31B0
  3
AcDbVariableDictionary
350
3206
  0
DICTIONARY
  5
320D
330
31A4
100
AcDbDictionary
280
     1
281
     1
  3
ACAD_LAYERSTATES
360
320E
  0
DICTIONARY
  5
31D2
330
31C0
100
AcDbDictionary
280
     1
281
     1
  3
ACAD_LAYOUTSELFREF
360
3201
  0
DICTIONARY
  5
31D4
330
31BC
100
AcDbDictionary
280
     1
281
     1
  3
ACAD_LAYOUTSELFREF
360
3200
  0
DICTIONARY
  5
31AF
102
{ACAD_REACTORS
330
31AE
102
}
330
31AE
100
AcDbDictionary
281
     1
  0
DICTIONARY
  5
31BB
102
{ACAD_REACTORS
330
31AE
102
}
330
31AE
100
AcDbDictionary
281
     1
  3
Model
350
31C3
  3
ﾚｲｱｳﾄ1
350
31BF
  0
DICTIONARY
  5
31B8
102
{ACAD_REACTORS
330
31AE
102
}
330
31AE
100
AcDbDictionary
281
     1
  3
Standard
350
31B9
  0
DICTIONARY
  5
31BA
102
{ACAD_REACTORS
330
31AE
102
}
330
31AE
100
AcDbDictionary
281
     1
  0
ACDBDICTIONARYWDFLT
  5
31B0
102
{ACAD_REACTORS
330
31AE
102
}
330
31AE
100
AcDbDictionary
281
     1
  3
Normal
350
31B1
100
AcDbDictionaryWithDefault
340
31B1
  0
DICTIONARY
  5
3206
102
{ACAD_REACTORS
330
31AE
102
}
330
31AE
100
AcDbDictionary
281
     1
  3
DIMASSOC
350
3207
  0
DICTIONARY
  5
320E
102
{ACAD_REACTORS
330
320D
102
}
330
320D
100
AcDbDictionary
281
     1
  0
XRECORD
  5
3201
102
{ACAD_REACTORS
330
31D2
102
}
330
31D2
100
AcDbXrecord
280
     1
340
31C0
  0
XRECORD
  5
3200
102
{ACAD_REACTORS
330
31D4
102
}
330
31D4
100
AcDbXrecord
280
     1
340
31BC
  0
LAYOUT
  5
31C3
102
{ACAD_REACTORS
330
31BB
102
}
330
31BB
100
AcDbPlotSettings
  1

  2
SII LP-2150 (D-SCAN C2)
  4

  6

 40
0.0
 41
0.0
 42
0.0
 43
0.0
 44
0.0
 45
0.0
 46
0.0
 47
0.0
 48
0.0
 49
0.0
140
0.0
141
0.0
142
1.0
143
1.0
 70
  1712
 72
     0
 73
     0
 74
     0
  7

 75
     0
147
1.0
148
0.0
149
0.0
100
AcDbLayout
  1
Model
 70
     1
 71
     0
 10
0.0
 20
0.0
 11
12.0
 21
9.0
 12
0.0
 22
0.0
 32
0.0
 14
0.0
 24
0.0
 34
0.0
 15
0.0
 25
0.0
 35
0.0
146
0.0
 13
0.0
 23
0.0
 33
0.0
 16
1.0
 26
0.0
 36
0.0
 17
0.0
 27
1.0
 37
0.0
 76
     0
330
31C0
  0
LAYOUT
  5
31BF
102
{ACAD_REACTORS
330
31BB
102
}
330
31BB
100
AcDbPlotSettings
  1

  2
SII LP-2150 (D-SCAN C2)
  4

  6

 40
0.0
 41
0.0
 42
0.0
 43
0.0
 44
0.0
 45
0.0
 46
0.0
 47
0.0
 48
0.0
 49
0.0
140
0.0
141
0.0
142
1.0
143
1.0
 70
   688
 72
     0
 73
     0
 74
     5
  7

 75
    16
147
1.0
148
0.0
149
0.0
100
AcDbLayout
  1
ﾚｲｱｳﾄ1
 70
     1
 71
     1
 10
-580.5701293945312
 20
0.0
 11
0.0
 21
407.8999938964844
 12
0.0
 22
0.0
 32
0.0
 14
-580.5701293945312
 24
0.0
 34
0.0
 15
0.0
 25
407.8999938964844
 35
0.0
146
0.0
 13
0.0
 23
0.0
 33
0.0
 16
1.0
 26
0.0
 36
0.0
 17
0.0
 27
1.0
 37
0.0
 76
     0
330
31BC
  0
MLINESTYLE
  5
31B9
102
{ACAD_REACTORS
330
31B8
102
}
330
31B8
100
AcDbMlineStyle
  2
STANDARD
 70
     0
  3

 62
   256
 51
90.0
 52
90.0
 71
     2
 49
0.5
 62
   256
  6
BYLAYER
 49
-0.5
 62
   256
  6
BYLAYER
  0
ACDBPLACEHOLDER
  5
31B1
102
{ACAD_REACTORS
330
31B0
102
}
330
31B0
  0
DICTIONARYVAR
  5
3207
102
{ACAD_REACTORS
330
3206
102
}
330
3206
100
DictionaryVariables
280
     0
  1
1
  0
ENDSEC
  0
EOF
