  0
SECTION
  2
HEADER
  9
$ACADVER
  1
AC1015
  9
$ACADMAINTVER
 70
    14
  9
$DWGCODEPAGE
  3
ANSI_932
  9
$INSBASE
 10
0.0
 20
0.0
 30
0.0
  9
$EXTMIN
 10
551.8124978525157
 20
60.05606938316259
 30
-0.0000000349181948
  9
$EXTMAX
 10
1012.75917774163
 20
876.9952196962508
 30
0.0000000814935746
  9
$LIMMIN
 10
-580.5701293945312
 20
0.0
  9
$LIMMAX
 10
0.0
 20
407.8999938964844
  9
$ORTHOMODE
 70
     0
  9
$REGENMODE
 70
     1
  9
$FILLMODE
 70
     1
  9
$QTEXTMODE
 70
     0
  9
$MIRRTEXT
 70
     1
  9
$LTSCALE
 40
1.0
  9
$ATTMODE
 70
     1
  9
$TEXTSIZE
 40
0.2
  9
$TRACEWID
 40
0.05
  9
$TEXTSTYLE
  7
STANDARD
  9
$CLAYER
  8
0
  9
$CELTYPE
  6
CONTINUOUS
  9
$CECOLOR
 62
   256
  9
$CELTSCALE
 40
1.0
  9
$DISPSILH
 70
     0
  9
$DIMSCALE
 40
1.0
  9
$DIMASZ
 40
1.0
  9
$DIMEXO
 40
2.54
  9
$DIMDLI
 40
0.38
  9
$DIMRND
 40
0.0
  9
$DIMDLE
 40
0.0
  9
$DIMEXE
 40
2.54
  9
$DIMTP
 40
0.0
  9
$DIMTM
 40
0.0
  9
$DIMTXT
 40
3.200000047683714
  9
$DIMCEN
 40
0.09
  9
$DIMTSZ
 40
0.0
  9
$DIMTOL
 70
     0
  9
$DIMLIM
 70
     0
  9
$DIMTIH
 70
     0
  9
$DIMTOH
 70
     0
  9
$DIMSE1
 70
     0
  9
$DIMSE2
 70
     0
  9
$DIMTAD
 70
     1
  9
$DIMZIN
 70
     0
  9
$DIMBLK
  1

  9
$DIMASO
 70
     1
  9
$DIMSHO
 70
     0
  9
$DIMPOST
  1

  9
$DIMAPOST
  1

  9
$DIMALT
 70
     0
  9
$DIMALTD
 70
     2
  9
$DIMALTF
 40
25.4
  9
$DIMLFAC
 40
1.0
  9
$DIMTOFL
 70
     0
  9
$DIMTVP
 40
1.0
  9
$DIMTIX
 70
     0
  9
$DIMSOXD
 70
     0
  9
$DIMSAH
 70
     1
  9
$DIMBLK1
  1

  9
$DIMBLK2
  1

  9
$DIMSTYLE
  2
STANDARD
  9
$DIMCLRD
 70
     0
  9
$DIMCLRE
 70
     0
  9
$DIMCLRT
 70
     0
  9
$DIMTFAC
 40
1.0
  9
$DIMGAP
 40
1.600000023841857
  9
$DIMJUST
 70
     0
  9
$DIMSD1
 70
     0
  9
$DIMSD2
 70
     0
  9
$DIMTOLJ
 70
     1
  9
$DIMTZIN
 70
     0
  9
$DIMALTZ
 70
     0
  9
$DIMALTTZ
 70
     0
  9
$DIMUPT
 70
     0
  9
$DIMDEC
 70
     4
  9
$DIMTDEC
 70
     4
  9
$DIMALTU
 70
     2
  9
$DIMALTTD
 70
     2
  9
$DIMTXSTY
  7
STANDARD
  9
$DIMAUNIT
 70
     0
  9
$DIMADEC
 70
     0
  9
$DIMALTRND
 40
0.0
  9
$DIMAZIN
 70
     0
  9
$DIMDSEP
 70
    46
  9
$DIMATFIT
 70
     3
  9
$DIMFRAC
 70
     0
  9
$DIMLDRBLK
  1

  9
$DIMLUNIT
 70
     2
  9
$DIMLWD
 70
    -2
  9
$DIMLWE
 70
    -2
  9
$DIMTMOVE
 70
     0
  9
$LUNITS
 70
     2
  9
$LUPREC
 70
     4
  9
$SKETCHINC
 40
0.1
  9
$FILLETRAD
 40
0.0
  9
$AUNITS
 70
     0
  9
$AUPREC
 70
     0
  9
$MENU
  1
.
  9
$ELEVATION
 40
0.0
  9
$PELEVATION
 40
0.0
  9
$THICKNESS
 40
0.0
  9
$LIMCHECK
 70
     0
  9
$CHAMFERA
 40
0.0
  9
$CHAMFERB
 40
0.0
  9
$CHAMFERC
 40
0.0
  9
$CHAMFERD
 40
0.0
  9
$SKPOLY
 70
     0
  9
$TDCREATE
 40
2452717.604314595
  9
$TDUCREATE
 40
2452717.229314595
  9
$TDUPDATE
 40
2456899.681411157
  9
$TDUUPDATE
 40
2456899.306411157
  9
$TDINDWG
 40
0.1620309606
  9
$TDUSRTIMER
 40
0.1620306019
  9
$USRTIMER
 70
     1
  9
$ANGBASE
 50
0.0
  9
$ANGDIR
 70
     0
  9
$PDMODE
 70
     0
  9
$PDSIZE
 40
0.0
  9
$PLINEWID
 40
0.0
  9
$SPLFRAME
 70
     0
  9
$SPLINETYPE
 70
     6
  9
$SPLINESEGS
 70
     8
  9
$HANDSEED
  5
3237
  9
$SURFTAB1
 70
     6
  9
$SURFTAB2
 70
     6
  9
$SURFTYPE
 70
     6
  9
$SURFU
 70
     6
  9
$SURFV
 70
     6
  9
$UCSBASE
  2

  9
$UCSNAME
  2

  9
$UCSORG
 10
0.0
 20
0.0
 30
0.0
  9
$UCSXDIR
 10
1.0
 20
0.0
 30
0.0
  9
$UCSYDIR
 10
0.0
 20
1.0
 30
0.0
  9
$UCSORTHOREF
  2

  9
$UCSORTHOVIEW
 70
     0
  9
$UCSORGTOP
 10
0.0
 20
0.0
 30
0.0
  9
$UCSORGBOTTOM
 10
0.0
 20
0.0
 30
0.0
  9
$UCSORGLEFT
 10
0.0
 20
0.0
 30
0.0
  9
$UCSORGRIGHT
 10
0.0
 20
0.0
 30
0.0
  9
$UCSORGFRONT
 10
0.0
 20
0.0
 30
0.0
  9
$UCSORGBACK
 10
0.0
 20
0.0
 30
0.0
  9
$PUCSBASE
  2

  9
$PUCSNAME
  2

  9
$PUCSORG
 10
0.0
 20
0.0
 30
0.0
  9
$PUCSXDIR
 10
1.0
 20
0.0
 30
0.0
  9
$PUCSYDIR
 10
0.0
 20
1.0
 30
0.0
  9
$PUCSORTHOREF
  2

  9
$PUCSORTHOVIEW
 70
     0
  9
$PUCSORGTOP
 10
0.0
 20
0.0
 30
0.0
  9
$PUCSORGBOTTOM
 10
0.0
 20
0.0
 30
0.0
  9
$PUCSORGLEFT
 10
0.0
 20
0.0
 30
0.0
  9
$PUCSORGRIGHT
 10
0.0
 20
0.0
 30
0.0
  9
$PUCSORGFRONT
 10
0.0
 20
0.0
 30
0.0
  9
$PUCSORGBACK
 10
0.0
 20
0.0
 30
0.0
  9
$USERI1
 70
     0
  9
$USERI2
 70
     0
  9
$USERI3
 70
     0
  9
$USERI4
 70
     0
  9
$USERI5
 70
     0
  9
$USERR1
 40
0.0
  9
$USERR2
 40
0.0
  9
$USERR3
 40
0.0
  9
$USERR4
 40
0.0
  9
$USERR5
 40
0.0
  9
$WORLDVIEW
 70
     1
  9
$SHADEDGE
 70
     3
  9
$SHADEDIF
 70
    70
  9
$TILEMODE
 70
     1
  9
$MAXACTVP
 70
    48
  9
$PINSBASE
 10
0.0
 20
0.0
 30
0.0
  9
$PLIMCHECK
 70
     0
  9
$PEXTMIN
 10
-580.5701293945312
 20
0.0
 30
0.0
  9
$PEXTMAX
 10
0.0
 20
407.8999938964844
 30
0.0
  9
$PLIMMIN
 10
-580.5701293945312
 20
0.0
  9
$PLIMMAX
 10
0.0
 20
407.8999938964844
  9
$UNITMODE
 70
     0
  9
$VISRETAIN
 70
     1
  9
$PLINEGEN
 70
     0
  9
$PSLTSCALE
 70
     1
  9
$TREEDEPTH
 70
  3020
  9
$CMLSTYLE
  2
Standard
  9
$CMLJUST
 70
     0
  9
$CMLSCALE
 40
1.0
  9
$PROXYGRAPHICS
 70
     1
  9
$MEASUREMENT
 70
     0
  9
$CELWEIGHT
370
    -1
  9
$ENDCAPS
280
     0
  9
$JOINSTYLE
280
     0
  9
$LWDISPLAY
290
     0
  9
$INSUNITS
 70
     0
  9
$HYPERLINKBASE
  1

  9
$STYLESHEET
  1

  9
$XEDIT
290
     1
  9
$CEPSNTYPE
380
     0
  9
$PSTYLEMODE
290
     1
  9
$FINGERPRINTGUID
  2
{F7549164-051F-4BD5-BD15-34C66F796479}
  9
$VERSIONGUID
  2
{8DB1FE72-3BBA-4613-99EF-5948736F9D8B}
  9
$EXTNAMES
290
     1
  9
$PSVPSCALE
 40
0.0
  9
$OLESTARTUP
290
     0
  0
ENDSEC
  0
SECTION
  2
CLASSES
  0
CLASS
  1
ACDBDICTIONARYWDFLT
  2
AcDbDictionaryWithDefault
  3
AutoCAD 2000
 90
        0
280
     0
281
     0
  0
CLASS
  1
ACDBPLACEHOLDER
  2
AcDbPlaceHolder
  3
AutoCAD 2000
 90
        0
280
     0
281
     0
  0
CLASS
  1
LAYOUT
  2
AcDbLayout
  3
AutoCAD 2000
 90
        0
280
     0
281
     0
  0
CLASS
  1
DICTIONARYVAR
  2
AcDbDictionaryVar
  3
AutoCAD 2000
 90
        0
280
     0
281
     0
  0
CLASS
  1
LONG_TRANSACTION
  2
AcDbLongTransaction
  3
AutoCAD 2000
 90
    32768
280
     0
281
     0
  0
CLASS
  1
LWPOLYLINE
  2
AcDbPolyline
  3
AutoCAD 2000
 90
    32768
280
     0
281
     1
  0
CLASS
  1
HATCH
  2
AcDbHatch
  3
AutoCAD 2000
 90
    32768
280
     0
281
     1
  0
CLASS
  1
XRECORD
  2
AcDbXrecord
  3
AutoCAD 2000
 90
    32768
280
     0
281
     0
  0
ENDSEC
  0
SECTION
  2
TABLES
  0
TABLE
  2
VPORT
  5
31AA
330
0
100
AcDbSymbolTable
 70
     2
  0
VPORT
  5
3236
330
31AA
100
AcDbSymbolTableRecord
100
AcDbViewportTableRecord
  2
*Active
 70
     0
 10
0.0
 20
0.0
 11
1.0
 21
1.0
 12
782.2858377970732
 22
468.5256445397067
 13
0.0
 23
0.0
 14
1.0
 24
1.0
 15
0.0
 25
0.0
 16
0.0
 26
0.0
 36
1.0
 17
0.0
 27
0.0
 37
0.0
 40
822.1260655531715
 41
1.592161016949152
 42
50.0
 43
0.0
 44
0.0
 50
0.0
 51
0.0
 71
     0
 72
   100
 73
     1
 74
     3
 75
     0
 76
     0
 77
     0
 78
     0
281
     0
 65
     1
110
0.0
120
0.0
130
0.0
111
1.0
121
0.0
131
0.0
112
0.0
122
1.0
132
0.0
 79
     0
146
0.0
  0
ENDTAB
  0
TABLE
  2
LTYPE
  5
31A7
330
0
100
AcDbSymbolTable
 70
     2
  0
LTYPE
  5
31B5
330
31A7
100
AcDbSymbolTableRecord
100
AcDbLinetypeTableRecord
  2
ByBlock
 70
     0
  3

 72
    65
 73
     0
 40
0.0
  0
LTYPE
  5
31B6
330
31A7
100
AcDbSymbolTableRecord
100
AcDbLinetypeTableRecord
  2
ByLayer
 70
     0
  3

 72
    65
 73
     0
 40
0.0
  0
LTYPE
  5
31B7
330
31A7
100
AcDbSymbolTableRecord
100
AcDbLinetypeTableRecord
  2
CONTINUOUS
 70
     0
  3
Solid line
 72
    65
 73
     0
 40
0.0
  0
LTYPE
  5
320C
330
31A7
100
AcDbSymbolTableRecord
100
AcDbLinetypeTableRecord
  2
CENTER
 70
     0
  3
__ . __
 72
    65
 73
     4
 40
7.0
 49
4.0
 74
     0
 49
-1.0
 74
     0
 49
1.0
 74
     0
 49
-1.0
 74
     0
  0
ENDTAB
  0
TABLE
  2
LAYER
  5
31A4
102
{ACAD_XDICTIONARY
360
320D
102
}
330
0
100
AcDbSymbolTable
 70
     2
  0
LAYER
  5
31B2
330
31A4
100
AcDbSymbolTableRecord
100
AcDbLayerTableRecord
  2
0
 70
     0
 62
     7
  6
CONTINUOUS
370
    -3
390
31B1
  0
LAYER
  5
31C5
330
31A4
100
AcDbSymbolTableRecord
100
AcDbLayerTableRecord
  2
DEFPOINTS
 70
     0
 62
     7
  6
CONTINUOUS
290
     0
370
    -3
390
31B1
  0
ENDTAB
  0
TABLE
  2
STYLE
  5
31A5
330
0
100
AcDbSymbolTable
 70
     1
  0
STYLE
  5
31B3
330
31A5
100
AcDbSymbolTableRecord
100
AcDbTextStyleTableRecord
  2
STANDARD
 70
     0
 40
0.0
 41
1.0
 50
0.0
 71
     0
 42
0.2
  3
txt
  4
BIGFONT
  0
ENDTAB
  0
TABLE
  2
VIEW
  5
31A8
330
0
100
AcDbSymbolTable
 70
     0
  0
ENDTAB
  0
TABLE
  2
UCS
  5
31A9
330
0
100
AcDbSymbolTable
 70
     0
  0
ENDTAB
  0
TABLE
  2
APPID
  5
31AB
330
0
100
AcDbSymbolTable
 70
     4
  0
APPID
  5
31B4
330
31AB
100
AcDbSymbolTableRecord
100
AcDbRegAppTableRecord
  2
ACAD
 70
     0
  0
APPID
  5
31C6
330
31AB
100
AcDbSymbolTableRecord
100
AcDbRegAppTableRecord
  2
MCAD_NO_VIS
 70
     0
  0
APPID
  5
31C7
330
31AB
100
AcDbSymbolTableRecord
100
AcDbRegAppTableRecord
  2
ACAD_TEMP_GRAPHIC
 70
     0
  0
APPID
  5
31C8
330
31AB
100
AcDbSymbolTableRecord
100
AcDbRegAppTableRecord
  2
ACATTRIBSERVICES
 70
     0
  0
ENDTAB
  0
TABLE
  2
DIMSTYLE
  5
31AC
330
0
100
AcDbSymbolTable
 70
     1
100
AcDbDimStyleTable
 71
     0
  0
DIMSTYLE
105
31C9
330
31AC
100
AcDbSymbolTableRecord
100
AcDbDimStyleTableRecord
  2
STANDARD
 70
     0
279
     2
340
31B3
  0
ENDTAB
  0
TABLE
  2
BLOCK_RECORD
  5
31A3
330
0
100
AcDbSymbolTable
 70
     2
  0
BLOCK_RECORD
  5
31C0
102
{ACAD_XDICTIONARY
360
31D2
102
}
330
31A3
100
AcDbSymbolTableRecord
100
AcDbBlockTableRecord
  2
*Model_Space
340
31C3
  0
BLOCK_RECORD
  5
31BC
102
{ACAD_XDICTIONARY
360
31D4
102
}
330
31A3
100
AcDbSymbolTableRecord
100
AcDbBlockTableRecord
  2
*Paper_Space
340
31BF
  0
BLOCK_RECORD
  5
31CC
330
31A3
100
AcDbSymbolTableRecord
100
AcDbBlockTableRecord
  2
$MODEL_SPACE
340
0
  0
BLOCK_RECORD
  5
31CE
330
31A3
100
AcDbSymbolTableRecord
100
AcDbBlockTableRecord
  2
$PAPER_SPACE
340
0
  0
ENDTAB
  0
ENDSEC
  0
SECTION
  2
BLOCKS
  0
BLOCK
  5
31C1
330
31C0
100
AcDbEntity
  8
0
100
AcDbBlockBegin
  2
*Model_Space
 70
     0
 10
0.0
 20
0.0
 30
0.0
  3
*Model_Space
  1

  0
ENDBLK
  5
31C2
330
31C0
100
AcDbEntity
  8
0
100
AcDbBlockEnd
  0
BLOCK
  5
31BD
330
31BC
100
AcDbEntity
 67
     1
  8
0
100
AcDbBlockBegin
  2
*Paper_Space
 70
     0
 10
0.0
 20
0.0
 30
0.0
  3
*Paper_Space
  1

  0
ENDBLK
  5
31BE
330
31BC
100
AcDbEntity
 67
     1
  8
0
100
AcDbBlockEnd
  0
BLOCK
  5
31CD
330
31CC
100
AcDbEntity
  8
0
100
AcDbBlockBegin
  2
$MODEL_SPACE
 70
     0
 10
0.0
 20
0.0
 30
0.0
  3
$MODEL_SPACE
  1

  0
ENDBLK
  5
318D
330
31CC
100
AcDbEntity
  8
0
100
AcDbBlockEnd
  0
BLOCK
  5
31CF
330
31CE
100
AcDbEntity
  8
0
100
AcDbBlockBegin
  2
$PAPER_SPACE
 70
     0
 10
0.0
 20
0.0
 30
0.0
  3
$PAPER_SPACE
  1

  0
ENDBLK
  5
3189
330
31CE
100
AcDbEntity
  8
0
100
AcDbBlockEnd
  0
ENDSEC
  0
SECTION
  2
ENTITIES
  0
LINE
  5
C48
330
31C0
100
AcDbEntity
  8
0
100
AcDbLine
 10
710.5763350831921
 20
150.6139212857791
 30
0.0
 11
731.6585487284428
 21
150.6139212857791
 31
0.0
  0
LINE
  5
C49
330
31C0
100
AcDbEntity
  8
0
100
AcDbLine
 10
710.5763868276518
 20
125.2138968717174
 30
0.0
 11
731.6585487284428
 21
125.2138968717174
 31
0.0
  0
LINE
  5
C4A
330
31C0
100
AcDbEntity
  8
0
100
AcDbLine
 10
796.1585182108645
 20
170.6638785611714
 30
0.0
 11
720.1585182108646
 21
170.66387856117
 31
0.0
  0
LINE
  5
C4B
330
31C0
100
AcDbEntity
  8
0
100
AcDbLine
 10
796.1585182108645
 20
185.1639090787483
 30
0.0
 11
720.1585182108646
 21
185.1639090787483
 31
0.0
  0
LINE
  5
C4C
330
31C0
100
AcDbEntity
  8
0
100
AcDbLine
 10
731.6585487284428
 20
170.66387856117
 30
0.0
 11
731.6585487284428
 21
121.4139090787484
 31
0.0
  0
LINE
  5
C4D
330
31C0
100
AcDbEntity
  8
0
100
AcDbLine
 10
784.6585182108646
 20
170.66387856117
 30
0.0
 11
784.6585182108646
 21
121.4139090787484
 31
0.0
  0
LINE
  5
C4E
330
31C0
100
AcDbEntity
  8
0
  6
Continuous
100
AcDbLine
 10
745.4585212626225
 20
90.33170759333144
 30
0.0
 11
770.858545676685
 21
90.33173632557327
 31
0.0
  0
LINE
  5
C4F
330
31C0
100
AcDbEntity
  8
0
100
AcDbLine
 10
732.9085182108646
 20
82.9138785611701
 30
0.0
 11
783.4085487284428
 21
82.9138785611701
 31
0.0
  0
LINE
  5
C50
330
31C0
100
AcDbEntity
  8
0
100
AcDbLine
 10
731.6585487284428
 20
121.4139090787484
 30
0.0
 11
784.6585182108646
 21
121.4139090787484
 31
0.0
  0
LINE
  5
C51
330
31C0
100
AcDbEntity
  8
0
100
AcDbLine
 10
770.858545676685
 20
91.73214638343642
 30
0.0
 11
770.858545676685
 21
108.8638602506234
 31
0.0
  0
LINE
  5
C52
330
31C0
100
AcDbEntity
  8
0
100
AcDbLine
 10
770.858545676685
 20
90.33173632557327
 30
0.0
 11
770.858545676685
 21
117.1992239444692
 31
0.0
  0
LINE
  5
C53
330
31C0
100
AcDbEntity
  8
0
100
AcDbLine
 10
783.4085487284428
 20
85.7639086112174
 30
0.0
 11
770.858545676685
 21
90.33173632557327
 31
0.0
  0
LINE
  5
C54
330
31C0
100
AcDbEntity
  8
0
100
AcDbLine
 10
783.4085487284428
 20
82.9138785611701
 30
0.0
 11
783.4085487284428
 21
85.7639086112174
 31
0.0
  0
LINE
  5
C55
330
31C0
100
AcDbEntity
  8
0
100
AcDbLine
 10
770.858545676685
 20
117.1992239444692
 30
0.0
 11
777.4623994169868
 21
121.0119607475535
 31
0.0
  0
LINE
  5
C56
330
31C0
100
AcDbEntity
  8
0
100
AcDbLine
 10
745.4585212626225
 20
90.33170759333144
 30
0.0
 11
745.4585212626225
 21
117.1992443994861
 31
0.0
  0
LINE
  5
C57
330
31C0
100
AcDbEntity
  8
0
100
AcDbLine
 10
732.9085182108646
 20
85.76387987897554
 30
0.0
 11
745.4585212626225
 21
90.33170759333144
 31
0.0
  0
LINE
  5
C58
330
31C0
100
AcDbEntity
  8
0
100
AcDbLine
 10
732.9085182108646
 20
82.9138785611701
 30
0.0
 11
732.9085182108646
 21
85.76387987897554
 31
0.0
  0
LINE
  5
C59
330
31C0
100
AcDbEntity
  8
0
100
AcDbLine
 10
745.4585212626225
 20
117.1992443994861
 30
0.0
 11
738.8546866065214
 21
121.0119701843012
 31
0.0
  0
LINE
  5
C5A
330
31C0
100
AcDbEntity
  8
0
100
AcDbLine
 10
796.1585182108645
 20
170.6638785611714
 30
0.0
 11
796.1585182108645
 21
185.1639090787483
 31
0.0
  0
LINE
  5
C5B
330
31C0
100
AcDbEntity
  8
0
  6
Continuous
100
AcDbLine
 10
710.5763868276518
 20
125.2138968717174
 30
0.0
 11
710.5763350831921
 21
150.6139212857791
 31
0.0
  0
LINE
  5
C5C
330
31C0
100
AcDbEntity
  8
0
100
AcDbLine
 10
703.1585487284428
 20
163.16387856117
 30
0.0
 11
703.1585487284428
 21
112.6638480435924
 31
0.0
  0
LINE
  5
C5D
330
31C0
100
AcDbEntity
  8
0
100
AcDbLine
 10
706.00854245206
 20
112.6638480435924
 30
0.0
 11
710.5763868276518
 21
125.2138968717174
 31
0.0
  0
LINE
  5
C5E
330
31C0
100
AcDbEntity
  8
0
100
AcDbLine
 10
703.1585487284428
 20
112.6638480435924
 30
0.0
 11
706.00854245206
 21
112.6638480435924
 31
0.0
  0
LINE
  5
C5F
330
31C0
100
AcDbEntity
  8
0
100
AcDbLine
 10
720.1585182108646
 20
170.66387856117
 30
0.0
 11
720.1585182108646
 21
185.1639090787483
 31
0.0
  0
LINE
  5
C60
330
31C0
100
AcDbEntity
  8
0
100
AcDbLine
 10
706.0085240300714
 20
163.16387856117
 30
0.0
 11
710.5763350831921
 21
150.6139212857791
 31
0.0
  0
LINE
  5
C61
330
31C0
100
AcDbEntity
  8
0
100
AcDbLine
 10
703.1585487284428
 20
163.16387856117
 30
0.0
 11
706.0085240300714
 21
163.16387856117
 31
0.0
  0
LINE
  5
C62
330
31C0
100
AcDbEntity
  8
0
100
AcDbLine
 10
780.158586875415
 20
266.5140128385144
 30
0.0
 11
780.158586875415
 21
335.51916912637
 31
0.0
  0
LINE
  5
C63
330
31C0
100
AcDbEntity
  8
0
100
AcDbLine
 10
736.158586875415
 20
266.5140128385144
 30
0.0
 11
736.158586875415
 21
343.0140128385143
 31
0.0
  0
LINE
  5
C64
330
31C0
100
AcDbEntity
  8
0
100
AcDbLine
 10
780.158586875415
 20
266.5140128385144
 30
0.0
 11
736.158586875415
 21
266.5140128385144
 31
0.0
  0
LINE
  5
C65
330
31C0
100
AcDbEntity
  8
0
100
AcDbLine
 10
739.1585868754154
 20
255.1946769010144
 30
0.0
 11
739.1585868754154
 21
266.5140128385144
 31
0.0
  0
LINE
  5
C66
330
31C0
100
AcDbEntity
  8
0
100
AcDbLine
 10
777.158586875415
 20
255.1946769010144
 30
0.0
 11
777.158586875415
 21
266.5140128385144
 31
0.0
  0
LINE
  5
C67
330
31C0
100
AcDbEntity
  8
0
100
AcDbLine
 10
779.6585868754155
 20
345.5140128385144
 30
0.0
 11
736.6585868754155
 21
345.5140128385144
 31
0.0
  0
LINE
  5
C68
330
31C0
100
AcDbEntity
  8
0
100
AcDbLine
 10
836.6585868754155
 20
343.0140128385143
 30
0.0
 11
736.158586875415
 21
343.0140128385143
 31
0.0
  0
LINE
  5
C69
330
31C0
100
AcDbEntity
  8
0
100
AcDbLine
 10
725.1585868754155
 20
322.0140128385143
 30
0.0
 11
725.1585868754155
 21
337.0140128385143
 31
0.0
  0
LINE
  5
C6A
330
31C0
100
AcDbEntity
  8
0
100
AcDbLine
 10
720.6585868754155
 20
333.5140128385142
 30
0.0
 11
725.1585868754155
 21
333.5140128385142
 31
0.0
  0
LINE
  5
C6B
330
31C0
100
AcDbEntity
  8
0
100
AcDbLine
 10
720.6585868754155
 20
325.5140128385143
 30
0.0
 11
725.1585868754155
 21
325.5140128385143
 31
0.0
  0
LINE
  5
C6C
330
31C0
100
AcDbEntity
  8
0
100
AcDbLine
 10
720.6585868754155
 20
325.5140128385143
 30
0.0
 11
720.6585868754155
 21
333.5140128385142
 31
0.0
  0
LINE
  5
C6D
330
31C0
100
AcDbEntity
  8
0
100
AcDbLine
 10
736.158586875415
 20
322.0140128385143
 30
0.0
 11
725.1585868754155
 21
322.0140128385143
 31
0.0
  0
LINE
  5
C6E
330
31C0
100
AcDbEntity
  8
0
100
AcDbLine
 10
736.158586875415
 20
337.0140128385143
 30
0.0
 11
725.1585868754155
 21
337.0140128385143
 31
0.0
  0
LINE
  5
C6F
330
31C0
100
AcDbEntity
  8
0
100
AcDbLine
 10
736.6585868754155
 20
343.0140128385143
 30
0.0
 11
736.6585868754155
 21
345.5140128385144
 31
0.0
  0
LINE
  5
C70
330
31C0
100
AcDbEntity
  8
0
100
AcDbLine
 10
846.1585868754154
 20
336.0140128385143
 30
0.0
 11
846.1585868754154
 21
417.0140586148816
 31
0.0
  0
LINE
  5
C71
330
31C0
100
AcDbEntity
  8
0
100
AcDbLine
 10
829.1585868754154
 20
343.0140128385143
 30
0.0
 11
829.1585868754154
 21
417.0140586148816
 31
0.0
  0
LINE
  5
C72
330
31C0
100
AcDbEntity
  8
0
100
AcDbLine
 10
829.1586252498881
 20
336.0141190255366
 30
0.0
 11
780.158586875415
 21
335.51916912637
 31
0.0
  0
LINE
  5
C73
330
31C0
100
AcDbEntity
  8
0
100
AcDbLine
 10
750.1585868754155
 20
350.5140128385144
 30
0.0
 11
766.1585868754155
 21
350.5140128385144
 31
0.0
  0
LINE
  5
C74
330
31C0
100
AcDbEntity
  8
0
100
AcDbLine
 10
750.1585868754155
 20
345.5140128385144
 30
0.0
 11
750.1585868754155
 21
350.5140128385144
 31
0.0
  0
LINE
  5
C75
330
31C0
100
AcDbEntity
  8
0
100
AcDbLine
 10
766.1585868754155
 20
345.5140128385144
 30
0.0
 11
766.1585868754155
 21
350.5140128385144
 31
0.0
  0
LINE
  5
C76
330
31C0
100
AcDbEntity
  8
0
100
AcDbLine
 10
779.6585868754155
 20
343.0140128385143
 30
0.0
 11
779.6585868754155
 21
345.5140128385144
 31
0.0
  0
LINE
  5
C77
330
31C0
100
AcDbEntity
  8
0
100
AcDbLine
 10
846.1585868754154
 20
344.0140128385144
 30
0.0
 11
829.1585868754154
 21
344.0140128385144
 31
0.0
  0
LINE
  5
C78
330
31C0
100
AcDbEntity
  8
0
100
AcDbLine
 10
846.1585868754154
 20
336.0140128385143
 30
0.0
 11
829.1585868754154
 21
336.0140128385143
 31
0.0
  0
LINE
  5
C7B
330
31C0
100
AcDbEntity
  8
0
100
AcDbLine
 10
846.1585868754154
 20
417.0140586148816
 30
0.0
 11
829.1585868754154
 21
417.0140586148816
 31
0.0
  0
TEXT
  5
1104
330
31C0
100
AcDbEntity
  8
0
  6
Continuous
100
AcDbText
 10
551.9145464731832
 20
828.9416885226673
 30
0.0
 40
48.000002
  1
WFM__ 1S
 41
1.32095
100
AcDbText
  0
LINE
  5
2019
330
31C0
100
AcDbEntity
  8
0
  6
Continuous
 62
     7
100
AcDbLine
 10
837.6586021342045
 20
609.5472373640626
 30
0.0
 11
791.1244071879155
 21
609.5472373640626
 31
0.0
  0
LINE
  5
201A
330
31C0
100
AcDbEntity
  8
0
  6
Continuous
 62
     7
100
AcDbLine
 10
837.6586021342045
 20
626.5472526228514
 30
0.0
 11
791.1244071879155
 21
626.5472526228514
 31
0.0
  0
CIRCLE
  5
201B
330
31C0
100
AcDbEntity
  8
0
  6
Continuous
 62
     7
100
AcDbCircle
 10
837.658464805103
 20
618.0473136580074
 30
0.0
 40
8.499999761581419
  0
CIRCLE
  5
201C
330
31C0
100
AcDbEntity
  8
0
  6
Continuous
 62
     7
100
AcDbCircle
 10
758.1585334696534
 20
618.0473136580074
 30
0.0
 40
22.00000047683715
  0
CIRCLE
  5
201D
330
31C0
100
AcDbEntity
  8
0
  6
Continuous
 62
     7
100
AcDbCircle
 10
758.1585334696534
 20
632.0472373640617
 30
0.0
 40
4.500000134110448
  0
ARC
  5
201E
330
31C0
100
AcDbEntity
  8
0
  6
Continuous
 62
     7
100
AcDbCircle
 10
791.1243842997318
 20
651.5472373640617
 30
0.0
 40
25.0000019073486
100
AcDbArc
 50
225.4604149695246
 51
270.0
  0
ARC
  5
201F
330
31C0
100
AcDbEntity
  8
0
  6
Continuous
 62
     7
100
AcDbCircle
 10
791.1243842997318
 20
584.5472526228509
 30
0.0
 40
25.0000019073486
100
AcDbArc
 50
89.99997768819374
 51
134.5395593035806
  0
CIRCLE
  5
2020
330
31C0
100
AcDbEntity
  8
0
  6
Continuous
 62
     7
100
AcDbCircle
 10
758.1585334696534
 20
604.0472526228509
 30
0.0
 40
4.500000134110448
  0
CIRCLE
  5
2021
330
31C0
100
AcDbEntity
  8
0
  6
Continuous
 62
     7
100
AcDbCircle
 10
758.1585334696534
 20
618.0473136580074
 30
0.0
 40
5.500000119209286
  0
POINT
  5
2022
330
31C0
100
AcDbEntity
  8
0
  6
Continuous
 62
     7
100
AcDbPoint
 10
758.1585334696534
 20
632.0472373640626
 30
0.0
  0
POINT
  5
2023
330
31C0
100
AcDbEntity
  8
0
  6
Continuous
 62
     7
100
AcDbPoint
 10
758.1585334696534
 20
632.0472373640626
 30
0.0
  0
POINT
  5
2024
330
31C0
100
AcDbEntity
  8
0
  6
Continuous
 62
     7
100
AcDbPoint
 10
758.1585334696534
 20
632.0472373640626
 30
0.0
  0
POINT
  5
2025
330
31C0
100
AcDbEntity
  8
0
  6
Continuous
 62
     7
100
AcDbPoint
 10
758.1585334696534
 20
604.0472526228516
 30
0.0
  0
POINT
  5
2026
330
31C0
100
AcDbEntity
  8
0
  6
Continuous
 62
     7
100
AcDbPoint
 10
758.1585334696534
 20
604.0472526228516
 30
0.0
  0
LINE
  5
2027
330
31C0
100
AcDbEntity
  8
0
  6
Continuous
 62
     7
100
AcDbLine
 10
737.8669410240628
 20
609.5472373640626
 30
0.0
 11
725.1585334696534
 21
609.5472373640618
 31
0.0
  0
LINE
  5
2028
330
31C0
100
AcDbEntity
  8
0
  6
Continuous
 62
     7
100
AcDbLine
 10
737.8668834979347
 20
626.5472526228514
 30
0.0
 11
725.1585334696547
 21
626.5472526228514
 31
0.0
  0
LINE
  5
2029
330
31C0
100
AcDbEntity
  8
0
  6
Continuous
 62
     7
100
AcDbLine
 10
722.6585029520755
 20
622.0471152937501
 30
0.0
 11
722.6585029520755
 21
614.0471000349612
 31
0.0
  0
LINE
  5
202A
330
31C0
100
AcDbEntity
  8
0
  6
Continuous
 62
     7
100
AcDbLine
 10
725.1585334696547
 20
626.5472526228514
 30
0.0
 11
725.1585334696534
 21
609.5472373640618
 31
0.0
  0
LINE
  5
202B
330
31C0
100
AcDbEntity
  8
0
  6
Continuous
 62
     7
100
AcDbLine
 10
725.1585334696534
 20
614.0472373640626
 30
0.0
 11
722.6585029520755
 21
614.0472373640626
 31
0.0
  0
LINE
  5
202C
330
31C0
100
AcDbEntity
  8
0
  6
Continuous
 62
     7
100
AcDbLine
 10
725.1585334696534
 20
622.0472526228514
 30
0.0
 11
722.6585029520755
 21
622.0472526228514
 31
0.0
  0
ARC
  5
206D
330
31C0
100
AcDbEntity
  8
0
  6
Continuous
100
AcDbCircle
 10
758.1585334696534
 20
618.0473136580074
 30
0.0
 40
37.99998474121093
100
AcDbArc
 50
12.92542793325162
 51
347.0743596210559
  0
LINE
  5
2076
330
31C0
100
AcDbEntity
  8
0
100
AcDbLine
 10
703.1585487284428
 20
643.2973289167969
 30
0.0
 11
706.0085240300714
 21
643.2973289167969
 31
0.0
  0
LINE
  5
2077
330
31C0
100
AcDbEntity
  8
0
100
AcDbLine
 10
706.0085240300714
 20
643.2973289167969
 30
0.0
 11
710.5763350831921
 21
630.7473716414055
 31
0.0
  0
LINE
  5
2078
330
31C0
100
AcDbEntity
  8
0
100
AcDbLine
 10
703.1585487284428
 20
592.7972983992176
 30
0.0
 11
706.00854245206
 21
592.7972983992176
 31
0.0
  0
LINE
  5
2079
330
31C0
100
AcDbEntity
  8
0
100
AcDbLine
 10
706.00854245206
 20
592.7972983992176
 30
0.0
 11
710.5763868276522
 21
605.3473472273426
 31
0.0
  0
LINE
  5
207A
330
31C0
100
AcDbEntity
  8
0
100
AcDbLine
 10
703.1585487284428
 20
643.2973289167969
 30
0.0
 11
703.1585487284428
 21
592.7972983992176
 31
0.0
  0
LINE
  5
207B
330
31C0
100
AcDbEntity
  8
0
  6
Continuous
100
AcDbLine
 10
710.5763868276522
 20
605.3473472273426
 30
0.0
 11
710.5763350831921
 21
630.7473716414055
 31
0.0
  0
LINE
  5
207C
330
31C0
100
AcDbEntity
  8
0
100
AcDbLine
 10
710.5763868276522
 20
605.3473472273426
 30
0.0
 11
722.3435967393974
 21
605.3473472273426
 31
0.0
  0
LINE
  5
207D
330
31C0
100
AcDbEntity
  8
0
100
AcDbLine
 10
710.5763350831921
 20
630.7473716414055
 30
0.0
 11
722.3436292041027
 21
630.7473716414055
 31
0.0
  0
LINE
  5
22D4
330
31C0
100
AcDbEntity
  8
0
100
AcDbLine
 10
703.1581901468999
 20
243.1641959439834
 30
0.0
 11
703.1581901468999
 21
192.6639212857801
 31
0.0
  0
LINE
  5
22D5
330
31C0
100
AcDbEntity
  8
0
100
AcDbLine
 10
706.0082506138747
 20
192.6639212857801
 30
0.0
 11
710.5761172044472
 21
205.2140311490613
 31
0.0
  0
LINE
  5
22D9
330
31C0
100
AcDbEntity
  8
0
100
AcDbLine
 10
703.1581901468999
 20
192.6639212857801
 30
0.0
 11
706.0082506138747
 21
192.6639212857801
 31
0.0
  0
LINE
  5
22E3
330
31C0
100
AcDbEntity
  8
0
100
AcDbLine
 10
710.5761172044472
 20
205.2140311490613
 30
0.0
 11
741.6584953226811
 21
205.2140311490613
 31
0.0
  0
LINE
  5
22E4
330
31C0
100
AcDbEntity
  8
0
100
AcDbLine
 10
710.5761078481776
 20
230.6140860807011
 30
0.0
 11
741.6584953226811
 21
230.6140860807011
 31
0.0
  0
LINE
  5
22E8
330
31C0
100
AcDbEntity
  8
0
100
AcDbLine
 10
706.0082412576049
 20
243.1641959439834
 30
0.0
 11
710.5761078481776
 21
230.6140860807011
 31
0.0
  0
LINE
  5
22EB
330
31C0
100
AcDbEntity
  8
0
100
AcDbLine
 10
703.1581901468999
 20
243.1641959439834
 30
0.0
 11
706.0082412576049
 21
243.1641959439834
 31
0.0
  0
LINE
  5
22FA
330
31C0
100
AcDbEntity
  8
0
100
AcDbLine
 10
789.4087394633061
 20
255.1946769010144
 30
0.0
 11
789.4087394633061
 21
240.6945853482793
 31
0.0
  0
LINE
  5
22FB
330
31C0
100
AcDbEntity
  8
0
100
AcDbLine
 10
726.9084342875245
 20
255.1946769010144
 30
0.0
 11
726.9084342875245
 21
240.6945853482793
 31
0.0
  0
LINE
  5
2307
330
31C0
100
AcDbEntity
  8
0
100
AcDbLine
 10
774.6586631693608
 20
185.1639090787483
 30
0.0
 11
774.6586631693608
 21
240.4390616666393
 31
0.0
  0
LINE
  5
2332
330
31C0
100
AcDbEntity
  8
0
100
AcDbLine
 10
789.4087394633061
 20
240.6945853482793
 30
0.0
 11
726.9084342875245
 21
240.6945853482793
 31
0.0
  0
LINE
  5
2362
330
31C0
100
AcDbEntity
  8
0
100
AcDbLine
 10
741.6584953226811
 20
185.1639090787483
 30
0.0
 11
741.6584953226811
 21
240.6945853482793
 31
0.0
  0
LINE
  5
23A8
330
31C0
100
AcDbEntity
  8
0
100
AcDbLine
 10
789.4087394633061
 20
255.1946769010144
 30
0.0
 11
726.9084342875245
 21
255.1946769010144
 31
0.0
  0
LINE
  5
2432
330
31C0
100
AcDbEntity
  8
0
  6
Continuous
100
AcDbLine
 10
710.5761078481776
 20
230.6140860807011
 30
0.0
 11
710.5761172044472
 21
205.2140311490613
 31
0.0
  0
LINE
  5
3218
330
31C0
100
AcDbEntity
  8
0
  6
CENTER
100
AcDbLine
 10
689.7161321456487
 20
618.0473136580074
 30
0.0
 11
864.6425818704683
 21
618.0473136580074
 31
0.0
  0
LINE
  5
3219
330
31C0
100
AcDbEntity
  8
0
  6
CENTER
100
AcDbLine
 10
758.1585334696534
 20
561.2676698027053
 30
0.0
 11
758.1585334696534
 21
674.8269575133094
 31
0.0
  0
LINE
  5
321A
330
31C0
100
AcDbEntity
  8
0
  6
CENTER
100
AcDbLine
 10
758.1585182108645
 20
60.08890204757654
 30
0.0
 11
758.1585182108645
 21
366.7614132436751
 31
0.0
  0
LINE
  5
321B
330
31C0
100
AcDbEntity
  8
0
  6
CENTER
100
AcDbLine
 10
689.7161321456487
 20
137.9138633023811
 30
0.0
 11
758.1585334696534
 21
137.9138633023811
 31
0.0
  0
LINE
  5
321C
330
31C0
100
AcDbEntity
  8
0
  6
CENTER
100
AcDbLine
 10
689.7154149825629
 20
217.9140586148817
 30
0.0
 11
758.1581596293215
 21
217.9140586148817
 31
0.0
  0
ENDSEC
  0
SECTION
  2
OBJECTS
  0
DICTIONARY
  5
31AE
330
0
100
AcDbDictionary
281
     1
  3
ACAD_GROUP
350
31AF
  3
ACAD_LAYOUT
350
31BB
  3
ACAD_MLINESTYLE
350
31B8
  3
ACAD_PLOTSETTINGS
350
31BA
  3
ACAD_PLOTSTYLENAME
350
31B0
  3
AcDbVariableDictionary
350
3206
  0
DICTIONARY
  5
320D
330
31A4
100
AcDbDictionary
280
     1
281
     1
  3
ACAD_LAYERSTATES
360
320E
  0
DICTIONARY
  5
31D2
330
31C0
100
AcDbDictionary
280
     1
281
     1
  3
ACAD_LAYOUTSELFREF
360
3201
  0
DICTIONARY
  5
31D4
330
31BC
100
AcDbDictionary
280
     1
281
     1
  3
ACAD_LAYOUTSELFREF
360
3200
  0
DICTIONARY
  5
31AF
102
{ACAD_REACTORS
330
31AE
102
}
330
31AE
100
AcDbDictionary
281
     1
  0
DICTIONARY
  5
31BB
102
{ACAD_REACTORS
330
31AE
102
}
330
31AE
100
AcDbDictionary
281
     1
  3
Model
350
31C3
  3
ﾚｲｱｳﾄ1
350
31BF
  0
DICTIONARY
  5
31B8
102
{ACAD_REACTORS
330
31AE
102
}
330
31AE
100
AcDbDictionary
281
     1
  3
Standard
350
31B9
  0
DICTIONARY
  5
31BA
102
{ACAD_REACTORS
330
31AE
102
}
330
31AE
100
AcDbDictionary
281
     1
  0
ACDBDICTIONARYWDFLT
  5
31B0
102
{ACAD_REACTORS
330
31AE
102
}
330
31AE
100
AcDbDictionary
281
     1
  3
Normal
350
31B1
100
AcDbDictionaryWithDefault
340
31B1
  0
DICTIONARY
  5
3206
102
{ACAD_REACTORS
330
31AE
102
}
330
31AE
100
AcDbDictionary
281
     1
  3
DIMASSOC
350
3207
  0
DICTIONARY
  5
320E
102
{ACAD_REACTORS
330
320D
102
}
330
320D
100
AcDbDictionary
281
     1
  0
XRECORD
  5
3201
102
{ACAD_REACTORS
330
31D2
102
}
330
31D2
100
AcDbXrecord
280
     1
340
31C0
  0
XRECORD
  5
3200
102
{ACAD_REACTORS
330
31D4
102
}
330
31D4
100
AcDbXrecord
280
     1
340
31BC
  0
LAYOUT
  5
31C3
102
{ACAD_REACTORS
330
31BB
102
}
330
31BB
100
AcDbPlotSettings
  1

  2
SII LP-2150 (D-SCAN C2)
  4

  6

 40
0.0
 41
0.0
 42
0.0
 43
0.0
 44
0.0
 45
0.0
 46
0.0
 47
0.0
 48
0.0
 49
0.0
140
0.0
141
0.0
142
1.0
143
1.0
 70
  1712
 72
     0
 73
     0
 74
     0
  7

 75
     0
147
1.0
148
0.0
149
0.0
100
AcDbLayout
  1
Model
 70
     1
 71
     0
 10
0.0
 20
0.0
 11
12.0
 21
9.0
 12
0.0
 22
0.0
 32
0.0
 14
0.0
 24
0.0
 34
0.0
 15
0.0
 25
0.0
 35
0.0
146
0.0
 13
0.0
 23
0.0
 33
0.0
 16
1.0
 26
0.0
 36
0.0
 17
0.0
 27
1.0
 37
0.0
 76
     0
330
31C0
  0
LAYOUT
  5
31BF
102
{ACAD_REACTORS
330
31BB
102
}
330
31BB
100
AcDbPlotSettings
  1

  2
SII LP-2150 (D-SCAN C2)
  4

  6

 40
0.0
 41
0.0
 42
0.0
 43
0.0
 44
0.0
 45
0.0
 46
0.0
 47
0.0
 48
0.0
 49
0.0
140
0.0
141
0.0
142
1.0
143
1.0
 70
   688
 72
     0
 73
     0
 74
     5
  7

 75
    16
147
1.0
148
0.0
149
0.0
100
AcDbLayout
  1
ﾚｲｱｳﾄ1
 70
     1
 71
     1
 10
-580.5701293945312
 20
0.0
 11
0.0
 21
407.8999938964844
 12
0.0
 22
0.0
 32
0.0
 14
-580.5701293945312
 24
0.0
 34
0.0
 15
0.0
 25
407.8999938964844
 35
0.0
146
0.0
 13
0.0
 23
0.0
 33
0.0
 16
1.0
 26
0.0
 36
0.0
 17
0.0
 27
1.0
 37
0.0
 76
     0
330
31BC
  0
MLINESTYLE
  5
31B9
102
{ACAD_REACTORS
330
31B8
102
}
330
31B8
100
AcDbMlineStyle
  2
STANDARD
 70
     0
  3

 62
   256
 51
90.0
 52
90.0
 71
     2
 49
0.5
 62
   256
  6
BYLAYER
 49
-0.5
 62
   256
  6
BYLAYER
  0
ACDBPLACEHOLDER
  5
31B1
102
{ACAD_REACTORS
330
31B0
102
}
330
31B0
  0
DICTIONARYVAR
  5
3207
102
{ACAD_REACTORS
330
3206
102
}
330
3206
100
DictionaryVariables
280
     0
  1
1
  0
ENDSEC
  0
EOF
