  0
SECTION
  2
HEADER
  9
$ACADVER
  1
AC1015
  9
$ACADMAINTVER
 70
    14
  9
$DWGCODEPAGE
  3
ANSI_932
  9
$INSBASE
 10
0.0
 20
0.0
 30
0.0
  9
$EXTMIN
 10
586.6876263943749
 20
99.95936035258729
 30
-0.0000000349181948
  9
$EXTMAX
 10
1449.246750732368
 20
1287.566110445589
 30
0.0000000814935746
  9
$LIMMIN
 10
-580.5701293945312
 20
0.0
  9
$LIMMAX
 10
0.0
 20
407.8999938964844
  9
$ORTHOMODE
 70
     0
  9
$REGENMODE
 70
     1
  9
$FILLMODE
 70
     1
  9
$QTEXTMODE
 70
     0
  9
$MIRRTEXT
 70
     1
  9
$LTSCALE
 40
1.0
  9
$ATTMODE
 70
     1
  9
$TEXTSIZE
 40
0.2
  9
$TRACEWID
 40
0.05
  9
$TEXTSTYLE
  7
STANDARD
  9
$CLAYER
  8
0
  9
$CELTYPE
  6
CONTINUOUS
  9
$CECOLOR
 62
   256
  9
$CELTSCALE
 40
1.0
  9
$DISPSILH
 70
     0
  9
$DIMSCALE
 40
1.0
  9
$DIMASZ
 40
1.0
  9
$DIMEXO
 40
2.54
  9
$DIMDLI
 40
0.38
  9
$DIMRND
 40
0.0
  9
$DIMDLE
 40
0.0
  9
$DIMEXE
 40
2.54
  9
$DIMTP
 40
0.0
  9
$DIMTM
 40
0.0
  9
$DIMTXT
 40
3.200000047683714
  9
$DIMCEN
 40
0.09
  9
$DIMTSZ
 40
0.0
  9
$DIMTOL
 70
     0
  9
$DIMLIM
 70
     0
  9
$DIMTIH
 70
     0
  9
$DIMTOH
 70
     0
  9
$DIMSE1
 70
     0
  9
$DIMSE2
 70
     0
  9
$DIMTAD
 70
     1
  9
$DIMZIN
 70
     0
  9
$DIMBLK
  1

  9
$DIMASO
 70
     1
  9
$DIMSHO
 70
     0
  9
$DIMPOST
  1

  9
$DIMAPOST
  1

  9
$DIMALT
 70
     0
  9
$DIMALTD
 70
     2
  9
$DIMALTF
 40
25.4
  9
$DIMLFAC
 40
1.0
  9
$DIMTOFL
 70
     0
  9
$DIMTVP
 40
1.0
  9
$DIMTIX
 70
     0
  9
$DIMSOXD
 70
     0
  9
$DIMSAH
 70
     1
  9
$DIMBLK1
  1

  9
$DIMBLK2
  1

  9
$DIMSTYLE
  2
STANDARD
  9
$DIMCLRD
 70
     0
  9
$DIMCLRE
 70
     0
  9
$DIMCLRT
 70
     0
  9
$DIMTFAC
 40
1.0
  9
$DIMGAP
 40
1.600000023841857
  9
$DIMJUST
 70
     0
  9
$DIMSD1
 70
     0
  9
$DIMSD2
 70
     0
  9
$DIMTOLJ
 70
     1
  9
$DIMTZIN
 70
     0
  9
$DIMALTZ
 70
     0
  9
$DIMALTTZ
 70
     0
  9
$DIMUPT
 70
     0
  9
$DIMDEC
 70
     4
  9
$DIMTDEC
 70
     4
  9
$DIMALTU
 70
     2
  9
$DIMALTTD
 70
     2
  9
$DIMTXSTY
  7
STANDARD
  9
$DIMAUNIT
 70
     0
  9
$DIMADEC
 70
     0
  9
$DIMALTRND
 40
0.0
  9
$DIMAZIN
 70
     0
  9
$DIMDSEP
 70
    46
  9
$DIMATFIT
 70
     3
  9
$DIMFRAC
 70
     0
  9
$DIMLDRBLK
  1

  9
$DIMLUNIT
 70
     2
  9
$DIMLWD
 70
    -2
  9
$DIMLWE
 70
    -2
  9
$DIMTMOVE
 70
     0
  9
$LUNITS
 70
     2
  9
$LUPREC
 70
     4
  9
$SKETCHINC
 40
0.1
  9
$FILLETRAD
 40
0.0
  9
$AUNITS
 70
     0
  9
$AUPREC
 70
     0
  9
$MENU
  1
.
  9
$ELEVATION
 40
0.0
  9
$PELEVATION
 40
0.0
  9
$THICKNESS
 40
0.0
  9
$LIMCHECK
 70
     0
  9
$CHAMFERA
 40
0.0
  9
$CHAMFERB
 40
0.0
  9
$CHAMFERC
 40
0.0
  9
$CHAMFERD
 40
0.0
  9
$SKPOLY
 70
     0
  9
$TDCREATE
 40
2452717.604314595
  9
$TDUCREATE
 40
2452717.229314595
  9
$TDUPDATE
 40
2456899.681266134
  9
$TDUUPDATE
 40
2456899.306266134
  9
$TDINDWG
 40
0.1617437037
  9
$TDUSRTIMER
 40
0.1617437037
  9
$USRTIMER
 70
     1
  9
$ANGBASE
 50
0.0
  9
$ANGDIR
 70
     0
  9
$PDMODE
 70
     0
  9
$PDSIZE
 40
0.0
  9
$PLINEWID
 40
0.0
  9
$SPLFRAME
 70
     0
  9
$SPLINETYPE
 70
     6
  9
$SPLINESEGS
 70
     8
  9
$HANDSEED
  5
3261
  9
$SURFTAB1
 70
     6
  9
$SURFTAB2
 70
     6
  9
$SURFTYPE
 70
     6
  9
$SURFU
 70
     6
  9
$SURFV
 70
     6
  9
$UCSBASE
  2

  9
$UCSNAME
  2

  9
$UCSORG
 10
0.0
 20
0.0
 30
0.0
  9
$UCSXDIR
 10
1.0
 20
0.0
 30
0.0
  9
$UCSYDIR
 10
0.0
 20
1.0
 30
0.0
  9
$UCSORTHOREF
  2

  9
$UCSORTHOVIEW
 70
     0
  9
$UCSORGTOP
 10
0.0
 20
0.0
 30
0.0
  9
$UCSORGBOTTOM
 10
0.0
 20
0.0
 30
0.0
  9
$UCSORGLEFT
 10
0.0
 20
0.0
 30
0.0
  9
$UCSORGRIGHT
 10
0.0
 20
0.0
 30
0.0
  9
$UCSORGFRONT
 10
0.0
 20
0.0
 30
0.0
  9
$UCSORGBACK
 10
0.0
 20
0.0
 30
0.0
  9
$PUCSBASE
  2

  9
$PUCSNAME
  2

  9
$PUCSORG
 10
0.0
 20
0.0
 30
0.0
  9
$PUCSXDIR
 10
1.0
 20
0.0
 30
0.0
  9
$PUCSYDIR
 10
0.0
 20
1.0
 30
0.0
  9
$PUCSORTHOREF
  2

  9
$PUCSORTHOVIEW
 70
     0
  9
$PUCSORGTOP
 10
0.0
 20
0.0
 30
0.0
  9
$PUCSORGBOTTOM
 10
0.0
 20
0.0
 30
0.0
  9
$PUCSORGLEFT
 10
0.0
 20
0.0
 30
0.0
  9
$PUCSORGRIGHT
 10
0.0
 20
0.0
 30
0.0
  9
$PUCSORGFRONT
 10
0.0
 20
0.0
 30
0.0
  9
$PUCSORGBACK
 10
0.0
 20
0.0
 30
0.0
  9
$USERI1
 70
     0
  9
$USERI2
 70
     0
  9
$USERI3
 70
     0
  9
$USERI4
 70
     0
  9
$USERI5
 70
     0
  9
$USERR1
 40
0.0
  9
$USERR2
 40
0.0
  9
$USERR3
 40
0.0
  9
$USERR4
 40
0.0
  9
$USERR5
 40
0.0
  9
$WORLDVIEW
 70
     1
  9
$SHADEDGE
 70
     3
  9
$SHADEDIF
 70
    70
  9
$TILEMODE
 70
     1
  9
$MAXACTVP
 70
    48
  9
$PINSBASE
 10
0.0
 20
0.0
 30
0.0
  9
$PLIMCHECK
 70
     0
  9
$PEXTMIN
 10
-580.5701293945312
 20
0.0
 30
0.0
  9
$PEXTMAX
 10
0.0
 20
407.8999938964844
 30
0.0
  9
$PLIMMIN
 10
-580.5701293945312
 20
0.0
  9
$PLIMMAX
 10
0.0
 20
407.8999938964844
  9
$UNITMODE
 70
     0
  9
$VISRETAIN
 70
     1
  9
$PLINEGEN
 70
     0
  9
$PSLTSCALE
 70
     1
  9
$TREEDEPTH
 70
  3020
  9
$CMLSTYLE
  2
Standard
  9
$CMLJUST
 70
     0
  9
$CMLSCALE
 40
1.0
  9
$PROXYGRAPHICS
 70
     1
  9
$MEASUREMENT
 70
     0
  9
$CELWEIGHT
370
    -1
  9
$ENDCAPS
280
     0
  9
$JOINSTYLE
280
     0
  9
$LWDISPLAY
290
     0
  9
$INSUNITS
 70
     0
  9
$HYPERLINKBASE
  1

  9
$STYLESHEET
  1

  9
$XEDIT
290
     1
  9
$CEPSNTYPE
380
     0
  9
$PSTYLEMODE
290
     1
  9
$FINGERPRINTGUID
  2
{496C80CD-6314-43D2-9437-06DED6341D45}
  9
$VERSIONGUID
  2
{BF7AB6C2-3CCE-4375-BD2E-D202923AC3C8}
  9
$EXTNAMES
290
     1
  9
$PSVPSCALE
 40
0.0
  9
$OLESTARTUP
290
     0
  0
ENDSEC
  0
SECTION
  2
CLASSES
  0
CLASS
  1
ACDBDICTIONARYWDFLT
  2
AcDbDictionaryWithDefault
  3
AutoCAD 2000
 90
        0
280
     0
281
     0
  0
CLASS
  1
ACDBPLACEHOLDER
  2
AcDbPlaceHolder
  3
AutoCAD 2000
 90
        0
280
     0
281
     0
  0
CLASS
  1
LAYOUT
  2
AcDbLayout
  3
AutoCAD 2000
 90
        0
280
     0
281
     0
  0
CLASS
  1
DICTIONARYVAR
  2
AcDbDictionaryVar
  3
AutoCAD 2000
 90
        0
280
     0
281
     0
  0
CLASS
  1
LONG_TRANSACTION
  2
AcDbLongTransaction
  3
AutoCAD 2000
 90
    32768
280
     0
281
     0
  0
CLASS
  1
LWPOLYLINE
  2
AcDbPolyline
  3
AutoCAD 2000
 90
    32768
280
     0
281
     1
  0
CLASS
  1
HATCH
  2
AcDbHatch
  3
AutoCAD 2000
 90
    32768
280
     0
281
     1
  0
CLASS
  1
XRECORD
  2
AcDbXrecord
  3
AutoCAD 2000
 90
    32768
280
     0
281
     0
  0
ENDSEC
  0
SECTION
  2
TABLES
  0
TABLE
  2
VPORT
  5
31EB
330
0
100
AcDbSymbolTable
 70
     2
  0
VPORT
  5
3260
330
31EB
100
AcDbSymbolTableRecord
100
AcDbViewportTableRecord
  2
*Active
 70
     0
 10
0.0
 20
0.0
 11
1.0
 21
1.0
 12
1017.967188563371
 22
693.7627353990881
 13
0.0
 23
0.0
 14
1.0
 24
1.0
 15
0.0
 25
0.0
 16
0.0
 26
0.0
 36
1.0
 17
0.0
 27
0.0
 37
0.0
 40
1195.147110411052
 41
1.592161016949152
 42
50.0
 43
0.0
 44
0.0
 50
0.0
 51
0.0
 71
     0
 72
   100
 73
     1
 74
     3
 75
     0
 76
     0
 77
     0
 78
     0
281
     0
 65
     1
110
0.0
120
0.0
130
0.0
111
1.0
121
0.0
131
0.0
112
0.0
122
1.0
132
0.0
 79
     0
146
0.0
  0
ENDTAB
  0
TABLE
  2
LTYPE
  5
31E8
330
0
100
AcDbSymbolTable
 70
     2
  0
LTYPE
  5
31F6
330
31E8
100
AcDbSymbolTableRecord
100
AcDbLinetypeTableRecord
  2
ByBlock
 70
     0
  3

 72
    65
 73
     0
 40
0.0
  0
LTYPE
  5
31F7
330
31E8
100
AcDbSymbolTableRecord
100
AcDbLinetypeTableRecord
  2
ByLayer
 70
     0
  3

 72
    65
 73
     0
 40
0.0
  0
LTYPE
  5
31F8
330
31E8
100
AcDbSymbolTableRecord
100
AcDbLinetypeTableRecord
  2
CONTINUOUS
 70
     0
  3
Solid line
 72
    65
 73
     0
 40
0.0
  0
LTYPE
  5
324D
330
31E8
100
AcDbSymbolTableRecord
100
AcDbLinetypeTableRecord
  2
CENTER
 70
     0
  3
__ . __
 72
    65
 73
     4
 40
7.0
 49
4.0
 74
     0
 49
-1.0
 74
     0
 49
1.0
 74
     0
 49
-1.0
 74
     0
  0
ENDTAB
  0
TABLE
  2
LAYER
  5
31E5
102
{ACAD_XDICTIONARY
360
324E
102
}
330
0
100
AcDbSymbolTable
 70
     2
  0
LAYER
  5
31F3
330
31E5
100
AcDbSymbolTableRecord
100
AcDbLayerTableRecord
  2
0
 70
     0
 62
     7
  6
CONTINUOUS
370
    -3
390
31F2
  0
LAYER
  5
3206
330
31E5
100
AcDbSymbolTableRecord
100
AcDbLayerTableRecord
  2
DEFPOINTS
 70
     0
 62
     7
  6
CONTINUOUS
290
     0
370
    -3
390
31F2
  0
ENDTAB
  0
TABLE
  2
STYLE
  5
31E6
330
0
100
AcDbSymbolTable
 70
     1
  0
STYLE
  5
31F4
330
31E6
100
AcDbSymbolTableRecord
100
AcDbTextStyleTableRecord
  2
STANDARD
 70
     0
 40
0.0
 41
1.0
 50
0.0
 71
     0
 42
0.2
  3
txt
  4
BIGFONT
  0
ENDTAB
  0
TABLE
  2
VIEW
  5
31E9
330
0
100
AcDbSymbolTable
 70
     0
  0
ENDTAB
  0
TABLE
  2
UCS
  5
31EA
330
0
100
AcDbSymbolTable
 70
     0
  0
ENDTAB
  0
TABLE
  2
APPID
  5
31EC
330
0
100
AcDbSymbolTable
 70
     4
  0
APPID
  5
31F5
330
31EC
100
AcDbSymbolTableRecord
100
AcDbRegAppTableRecord
  2
ACAD
 70
     0
  0
APPID
  5
3207
330
31EC
100
AcDbSymbolTableRecord
100
AcDbRegAppTableRecord
  2
MCAD_NO_VIS
 70
     0
  0
APPID
  5
3208
330
31EC
100
AcDbSymbolTableRecord
100
AcDbRegAppTableRecord
  2
ACAD_TEMP_GRAPHIC
 70
     0
  0
APPID
  5
3209
330
31EC
100
AcDbSymbolTableRecord
100
AcDbRegAppTableRecord
  2
ACATTRIBSERVICES
 70
     0
  0
ENDTAB
  0
TABLE
  2
DIMSTYLE
  5
31ED
330
0
100
AcDbSymbolTable
 70
     1
100
AcDbDimStyleTable
 71
     0
  0
DIMSTYLE
105
320A
330
31ED
100
AcDbSymbolTableRecord
100
AcDbDimStyleTableRecord
  2
STANDARD
 70
     0
279
     2
340
31F4
  0
ENDTAB
  0
TABLE
  2
BLOCK_RECORD
  5
31E4
330
0
100
AcDbSymbolTable
 70
     2
  0
BLOCK_RECORD
  5
3201
102
{ACAD_XDICTIONARY
360
3213
102
}
330
31E4
100
AcDbSymbolTableRecord
100
AcDbBlockTableRecord
  2
*Model_Space
340
3204
  0
BLOCK_RECORD
  5
31FD
102
{ACAD_XDICTIONARY
360
3215
102
}
330
31E4
100
AcDbSymbolTableRecord
100
AcDbBlockTableRecord
  2
*Paper_Space
340
3200
  0
BLOCK_RECORD
  5
320D
330
31E4
100
AcDbSymbolTableRecord
100
AcDbBlockTableRecord
  2
$MODEL_SPACE
340
0
  0
BLOCK_RECORD
  5
320F
330
31E4
100
AcDbSymbolTableRecord
100
AcDbBlockTableRecord
  2
$PAPER_SPACE
340
0
  0
ENDTAB
  0
ENDSEC
  0
SECTION
  2
BLOCKS
  0
BLOCK
  5
3202
330
3201
100
AcDbEntity
  8
0
100
AcDbBlockBegin
  2
*Model_Space
 70
     0
 10
0.0
 20
0.0
 30
0.0
  3
*Model_Space
  1

  0
ENDBLK
  5
3203
330
3201
100
AcDbEntity
  8
0
100
AcDbBlockEnd
  0
BLOCK
  5
31FE
330
31FD
100
AcDbEntity
 67
     1
  8
0
100
AcDbBlockBegin
  2
*Paper_Space
 70
     0
 10
0.0
 20
0.0
 30
0.0
  3
*Paper_Space
  1

  0
ENDBLK
  5
31FF
330
31FD
100
AcDbEntity
 67
     1
  8
0
100
AcDbBlockEnd
  0
BLOCK
  5
320E
330
320D
100
AcDbEntity
  8
0
100
AcDbBlockBegin
  2
$MODEL_SPACE
 70
     0
 10
0.0
 20
0.0
 30
0.0
  3
$MODEL_SPACE
  1

  0
ENDBLK
  5
31CE
330
320D
100
AcDbEntity
  8
0
100
AcDbBlockEnd
  0
BLOCK
  5
3210
330
320F
100
AcDbEntity
  8
0
100
AcDbBlockBegin
  2
$PAPER_SPACE
 70
     0
 10
0.0
 20
0.0
 30
0.0
  3
$PAPER_SPACE
  1

  0
ENDBLK
  5
31CA
330
320F
100
AcDbEntity
  8
0
100
AcDbBlockEnd
  0
ENDSEC
  0
SECTION
  2
ENTITIES
  0
LINE
  5
20BA
330
3201
100
AcDbEntity
  8
0
100
AcDbLine
 10
1062.635671042045
 20
298.9243457456787
 30
0.0
 11
1062.635671042045
 21
215.8743274351321
 31
0.0
  0
LINE
  5
20BB
330
3201
100
AcDbEntity
  8
0
  6
Continuous
100
AcDbLine
 10
905.6608695690824
 20
220.8743274351316
 30
0.0
 11
905.6608384457511
 21
297.174345745678
 31
0.0
  0
LINE
  5
20BC
330
3201
100
AcDbEntity
  8
0
100
AcDbLine
 10
957.635701559624
 20
298.9243457456787
 30
0.0
 11
957.6357015596236
 21
215.8743274351308
 31
0.0
  0
LINE
  5
20BD
330
3201
100
AcDbEntity
  8
0
100
AcDbLine
 10
900.1357015596241
 20
213.5243213316161
 30
0.0
 11
900.1357015596241
 21
304.5243213316159
 31
0.0
  0
LINE
  5
20BE
330
3201
100
AcDbEntity
  8
0
100
AcDbLine
 10
1062.635671042045
 20
215.8743274351321
 30
0.0
 11
957.6357015596236
 21
215.8743274351308
 31
0.0
  0
LINE
  5
20BF
330
3201
100
AcDbEntity
  8
0
100
AcDbLine
 10
905.6608695690824
 20
220.8743274351316
 30
0.0
 11
957.635701559624
 21
220.8743274351316
 31
0.0
  0
LINE
  5
20C0
330
3201
100
AcDbEntity
  8
0
100
AcDbLine
 10
900.1357015596241
 20
213.5243213316161
 30
0.0
 11
902.985686029933
 21
213.5243213316161
 31
0.0
  0
LINE
  5
20C1
330
3201
100
AcDbEntity
  8
0
100
AcDbLine
 10
902.985686029933
 20
213.5243213316161
 30
0.0
 11
905.6608695690824
 21
220.8743274351316
 31
0.0
  0
LINE
  5
20C2
330
3201
100
AcDbEntity
  8
0
  6
Continuous
100
AcDbLine
 10
971.9857076631392
 20
154.5495065330114
 30
0.0
 11
1048.285695456108
 21
154.5495090224915
 31
0.0
  0
LINE
  5
20C3
330
3201
100
AcDbEntity
  8
0
100
AcDbLine
 10
964.635701559624
 20
149.0243213316162
 30
0.0
 11
1055.635671042046
 21
149.0243213316162
 31
0.0
  0
LINE
  5
20C4
330
3201
100
AcDbEntity
  8
0
100
AcDbLine
 10
971.9857076631392
 20
154.5495065330114
 30
0.0
 11
971.9857076631397
 21
211.9194748202234
 31
0.0
  0
LINE
  5
20C5
330
3201
100
AcDbEntity
  8
0
100
AcDbLine
 10
964.6357015596246
 20
151.8743229938629
 30
0.0
 11
971.9857076631392
 21
154.5495065330114
 31
0.0
  0
LINE
  5
20C6
330
3201
100
AcDbEntity
  8
0
100
AcDbLine
 10
964.635701559624
 20
149.0243213316162
 30
0.0
 11
964.6357015596246
 21
151.8743229938629
 31
0.0
  0
LINE
  5
20C7
330
3201
100
AcDbEntity
  8
0
100
AcDbLine
 10
965.1357021206177
 20
215.8743274351312
 30
0.0
 11
971.9857076631397
 21
211.9194748202234
 31
0.0
  0
LINE
  5
20C8
330
3201
100
AcDbEntity
  8
0
100
AcDbLine
 10
1048.285695456108
 20
154.5495090224915
 30
0.0
 11
1048.285695456108
 21
211.9194725240135
 31
0.0
  0
LINE
  5
20C9
330
3201
100
AcDbEntity
  8
0
100
AcDbLine
 10
1055.635671042046
 20
149.0243213316162
 30
0.0
 11
1055.635671042046
 21
151.8743365908339
 31
0.0
  0
LINE
  5
20CA
330
3201
100
AcDbEntity
  8
0
100
AcDbLine
 10
1055.635671042046
 20
151.8743365908339
 30
0.0
 11
1048.285695456108
 21
154.5495090224915
 31
0.0
  0
LINE
  5
20CB
330
3201
100
AcDbEntity
  8
0
100
AcDbLine
 10
1055.135704975778
 20
215.8743274351321
 30
0.0
 11
1048.285695456108
 21
211.9194725240135
 31
0.0
  0
LINE
  5
20CC
330
3201
100
AcDbEntity
  8
0
100
AcDbLine
 10
1077.635671042046
 20
298.9243457456788
 30
0.0
 11
942.635671042046
 21
298.9243457456787
 31
0.0
  0
LINE
  5
20CD
330
3201
100
AcDbEntity
  8
0
100
AcDbLine
 10
1077.635671042046
 20
317.4243457456789
 30
0.0
 11
942.635671042046
 21
317.4243457456784
 31
0.0
  0
LINE
  5
20CE
330
3201
100
AcDbEntity
  8
0
100
AcDbLine
 10
942.635671042046
 20
317.4243457456784
 30
0.0
 11
942.635671042046
 21
298.9243457456787
 31
0.0
  0
LINE
  5
20CF
330
3201
100
AcDbEntity
  8
0
100
AcDbLine
 10
905.6608384457511
 20
297.174345745678
 30
0.0
 11
957.635701559624
 21
297.1743457456787
 31
0.0
  0
LINE
  5
20D0
330
3201
100
AcDbEntity
  8
0
100
AcDbLine
 10
900.1357015596241
 20
304.5243213316159
 30
0.0
 11
902.9856660140936
 21
304.5243213316159
 31
0.0
  0
LINE
  5
20D1
330
3201
100
AcDbEntity
  8
0
100
AcDbLine
 10
902.9856660140936
 20
304.5243213316159
 30
0.0
 11
905.6608384457511
 21
297.174345745678
 31
0.0
  0
LINE
  5
20D4
330
3201
100
AcDbEntity
  8
0
100
AcDbLine
 10
1077.635671042046
 20
317.4243457456789
 30
0.0
 11
1077.635671042046
 21
298.9243457456788
 31
0.0
  0
LINE
  5
20D5
330
3201
100
AcDbEntity
  8
0
100
AcDbLine
 10
1050.135655783257
 20
528.1743149747812
 30
0.0
 11
1050.135655783257
 21
471.6743152281006
 31
0.0
  0
LINE
  5
20D6
330
3201
100
AcDbEntity
  8
0
100
AcDbLine
 10
970.1356634126515
 20
471.6743152281006
 30
0.0
 11
970.1356634126515
 21
528.1743149747812
 31
0.0
  0
CIRCLE
  5
20D7
330
3201
100
AcDbEntity
  8
0
  6
Continuous
100
AcDbCircle
 10
1010.135659597952
 20
1094.719164719547
 30
0.0
 40
67.74999618530364
  0
LINE
  5
20D8
330
3201
100
AcDbEntity
  8
0
100
AcDbLine
 10
942.3856634126515
 20
550.1743610044677
 30
0.0
 11
1077.885655783257
 21
550.1743610044677
 31
0.0
  0
LINE
  5
20D9
330
3201
100
AcDbEntity
  8
0
100
AcDbLine
 10
942.3856634126515
 20
752.1743457456786
 30
0.0
 11
1077.885655783258
 21
752.1743457456786
 31
0.0
  0
LINE
  5
20DA
330
3201
100
AcDbEntity
  8
0
100
AcDbLine
 10
942.3856634126515
 20
550.4743793150145
 30
0.0
 11
942.3856634126515
 21
752.1743457456786
 31
0.0
  0
LINE
  5
20DB
330
3201
100
AcDbEntity
  8
0
100
AcDbLine
 10
957.6356694774242
 20
528.1743149747812
 30
0.0
 11
1062.635672606667
 21
528.1743149747812
 31
0.0
  0
LINE
  5
20DC
330
3201
100
AcDbEntity
  8
0
100
AcDbLine
 10
957.6356694774242
 20
545.1743154814201
 30
0.0
 11
1062.635672606667
 21
545.1743154814201
 31
0.0
  0
LINE
  5
20DD
330
3201
100
AcDbEntity
  8
0
100
AcDbLine
 10
970.1356634126515
 20
545.1743154814201
 30
0.0
 11
970.1356634126515
 21
550.4743793150145
 31
0.0
  0
LINE
  5
20DE
330
3201
100
AcDbEntity
  8
0
100
AcDbLine
 10
957.6356694774242
 20
528.1743149747812
 30
0.0
 11
957.6356694774242
 21
545.1743154814201
 31
0.0
  0
LINE
  5
20DF
330
3201
100
AcDbEntity
  8
0
100
AcDbLine
 10
1062.635672606667
 20
528.1743149747812
 30
0.0
 11
1062.635672606667
 21
545.1743154814201
 31
0.0
  0
LINE
  5
20E0
330
3201
100
AcDbEntity
  8
0
100
AcDbLine
 10
1050.135655783257
 20
550.1743610044677
 30
0.0
 11
1050.135655783257
 21
545.1743154814201
 31
0.0
  0
LINE
  5
20E8
330
3201
100
AcDbEntity
  8
0
100
AcDbLine
 10
1077.885655783257
 20
550.1743610044677
 30
0.0
 11
1077.885655783258
 21
752.1743457456786
 31
0.0
  0
LINE
  5
212C
330
3201
100
AcDbEntity
  8
0
100
AcDbLine
 10
900.135690115532
 20
1049.219164719547
 30
0.0
 11
900.135690115532
 21
1140.219164719547
 31
0.0
  0
LINE
  5
212D
330
3201
100
AcDbEntity
  8
0
  6
Continuous
100
AcDbLine
 10
905.6608581249907
 20
1056.569170823062
 30
0.0
 11
905.6608270016594
 21
1132.869189133609
 31
0.0
  0
LINE
  5
212E
330
3201
100
AcDbEntity
  8
0
100
AcDbLine
 10
905.6608581249907
 20
1056.569170823062
 30
0.0
 11
954.1478042290716
 21
1056.569170823062
 31
0.0
  0
LINE
  5
212F
330
3201
100
AcDbEntity
  8
0
100
AcDbLine
 10
902.9856745858417
 20
1049.219164719547
 30
0.0
 11
905.6608581249907
 21
1056.569170823062
 31
0.0
  0
LINE
  5
2130
330
3201
100
AcDbEntity
  8
0
100
AcDbLine
 10
900.135690115532
 20
1049.219164719547
 30
0.0
 11
902.9856745858417
 21
1049.219164719547
 31
0.0
  0
LINE
  5
2132
330
3201
100
AcDbEntity
  8
0
100
AcDbLine
 10
905.6608270016594
 20
1132.869189133609
 30
0.0
 11
954.1478250236902
 21
1132.86918913361
 31
0.0
  0
LINE
  5
2133
330
3201
100
AcDbEntity
  8
0
100
AcDbLine
 10
902.9856545700017
 20
1140.219164719547
 30
0.0
 11
905.6608270016594
 21
1132.869189133609
 31
0.0
  0
LINE
  5
2134
330
3201
100
AcDbEntity
  8
0
100
AcDbLine
 10
900.135690115532
 20
1140.219164719547
 30
0.0
 11
902.9856545700017
 21
1140.219164719547
 31
0.0
  0
LINE
  5
2DBF
330
3201
100
AcDbEntity
  8
0
  6
Continuous
100
AcDbLine
 10
905.6608753234414
 20
447.1743457456791
 30
0.0
 11
905.6608979130679
 21
370.8743579527102
 31
0.0
  0
LINE
  5
2DC0
330
3201
100
AcDbEntity
  8
0
  6
Continuous
100
AcDbLine
 10
900.1356710420459
 20
454.5243518491944
 30
0.0
 11
900.1356710420459
 21
363.5243518491944
 31
0.0
  0
LINE
  5
2DC1
330
3201
100
AcDbEntity
  8
0
  6
Continuous
100
AcDbLine
 10
905.6608979130679
 20
370.8743579527102
 30
0.0
 11
971.4856466279835
 21
370.8743579527102
 31
0.0
  0
LINE
  5
2DC2
330
3201
100
AcDbEntity
  8
0
  6
Continuous
100
AcDbLine
 10
900.1356710420459
 20
363.5243518491944
 30
0.0
 11
902.9857143739183
 21
363.5243518491944
 31
0.0
  0
LINE
  5
2DC3
330
3201
100
AcDbEntity
  8
0
  6
Continuous
100
AcDbLine
 10
902.9857143739183
 20
363.5243518491944
 30
0.0
 11
905.6608979130679
 21
370.8743579527102
 31
0.0
  0
LINE
  5
2DC4
330
3201
100
AcDbEntity
  8
0
  6
Continuous
100
AcDbLine
 10
1062.635671042045
 20
454.6743152281006
 30
0.0
 11
957.6356710420455
 21
454.6743152281006
 31
0.0
  0
LINE
  5
2DC5
330
3201
100
AcDbEntity
  8
0
  6
Continuous
100
AcDbLine
 10
957.6356710420455
 20
471.6743152281006
 30
0.0
 11
1062.635671042045
 21
471.6743152281006
 31
0.0
  0
LINE
  5
2DC6
330
3201
100
AcDbEntity
  8
0
  6
Continuous
100
AcDbLine
 10
905.6608753234414
 20
447.1743457456791
 30
0.0
 11
971.4856466279835
 21
447.1743457456788
 31
0.0
  0
LINE
  5
2DC7
330
3201
100
AcDbEntity
  8
0
  6
Continuous
100
AcDbLine
 10
902.9856917842927
 20
454.5243518491944
 30
0.0
 11
905.6608753234414
 21
447.1743457456791
 31
0.0
  0
LINE
  5
2DC8
330
3201
100
AcDbEntity
  8
0
  6
Continuous
100
AcDbLine
 10
900.1356710420459
 20
454.5243518491944
 30
0.0
 11
902.9856917842927
 21
454.5243518491944
 31
0.0
  0
LINE
  5
2DC9
330
3201
100
AcDbEntity
  8
0
  6
Continuous
100
AcDbLine
 10
957.6356710420455
 20
471.6743152281006
 30
0.0
 11
957.6356710420455
 21
454.6743152281006
 31
0.0
  0
LINE
  5
2DCA
330
3201
100
AcDbEntity
  8
0
  6
Continuous
100
AcDbLine
 10
1062.635671042045
 20
471.6743152281006
 30
0.0
 11
1062.635671042045
 21
454.6743152281006
 31
0.0
  0
LINE
  5
2DCB
330
3201
100
AcDbEntity
  8
0
  6
Continuous
100
AcDbLine
 10
1048.785695456108
 20
454.6743152281006
 30
0.0
 11
1048.785695456108
 21
317.4243457456788
 31
0.0
  0
LINE
  5
2DCC
330
3201
100
AcDbEntity
  8
0
  6
Continuous
100
AcDbLine
 10
971.4856466279835
 20
454.6743152281006
 30
0.0
 11
971.4856466279835
 21
317.4243457456788
 31
0.0
  0
TEXT
  5
315A
330
3201
100
AcDbEntity
  8
0
  6
Continuous
100
AcDbText
 10
586.8066608317499
 20
1239.487519248888
 30
0.0
 40
48.000002
  1
WFC__13MA100 3S
 41
1.32095
100
AcDbText
  0
LINE
  5
317D
330
3201
100
AcDbEntity
  8
0
100
AcDbLine
 10
1064.135661597954
 20
805.1743457456787
 30
0.0
 11
1064.135661597954
 21
772.0929457456782
 31
0.0
  0
LINE
  5
317E
330
3201
100
AcDbEntity
  8
0
100
AcDbLine
 10
956.1356615979548
 20
805.1743457456787
 30
0.0
 11
956.1356615979548
 21
772.0929457456782
 31
0.0
  0
LINE
  5
317F
330
3201
100
AcDbEntity
  8
0
100
AcDbLine
 10
1052.635657597954
 20
752.1743457456786
 30
0.0
 11
967.6356615979553
 21
752.1743457456786
 31
0.0
  0
LINE
  5
3180
330
3201
100
AcDbEntity
  8
0
100
AcDbLine
 10
956.1356605979549
 20
772.0929467456785
 30
0.0
 11
967.6356675979546
 21
752.1743491282425
 31
0.0
  0
LINE
  5
3181
330
3201
100
AcDbEntity
  8
0
100
AcDbLine
 10
1064.135662597954
 20
772.0929467456785
 30
0.0
 11
1052.635656597952
 21
752.1743507800545
 31
0.0
  0
LINE
  5
3182
330
3201
100
AcDbEntity
  8
0
100
AcDbLine
 10
1059.550776597953
 20
870.7412657456783
 30
0.0
 11
1064.135661597954
 21
805.1743467456786
 31
0.0
  0
LINE
  5
3183
330
3201
100
AcDbEntity
  8
0
100
AcDbLine
 10
960.7205465979543
 20
870.7412657456783
 30
0.0
 11
956.1356615979548
 21
805.1743467456786
 31
0.0
  0
LINE
  5
3184
330
3201
100
AcDbEntity
  8
0
100
AcDbLine
 10
1023.635661597954
 20
873.8834257456785
 30
0.0
 11
996.6356615979552
 21
873.8834257456785
 31
0.0
  0
LINE
  5
3185
330
3201
100
AcDbEntity
  8
0
100
AcDbLine
 10
1023.635661597954
 20
880.1743457456787
 30
0.0
 11
996.6356615979552
 21
880.1743457456787
 31
0.0
  0
LINE
  5
3186
330
3201
100
AcDbEntity
  8
0
100
AcDbLine
 10
1000.135662597954
 20
913.1743457456787
 30
0.0
 11
1020.135663597955
 21
913.1743457456787
 31
0.0
  0
LINE
  5
3187
330
3201
100
AcDbEntity
  8
0
100
AcDbLine
 10
1000.135662597954
 20
880.1743457456787
 30
0.0
 11
1000.135662597954
 21
913.1743457456787
 31
0.0
  0
LINE
  5
3188
330
3201
100
AcDbEntity
  8
0
100
AcDbLine
 10
996.6356615979552
 20
873.8834257456785
 30
0.0
 11
960.7205475979549
 21
870.7412557456787
 31
0.0
  0
LINE
  5
3189
330
3201
100
AcDbEntity
  8
0
100
AcDbLine
 10
996.6356615979552
 20
879.1743357456788
 30
0.0
 11
996.6356615979552
 21
878.3119557456787
 31
0.0
  0
LINE
  5
318A
330
3201
100
AcDbEntity
  8
0
100
AcDbLine
 10
996.6356615979552
 20
880.1743457456787
 30
0.0
 11
996.6356615979552
 21
873.8834257456785
 31
0.0
  0
LINE
  5
318B
330
3201
100
AcDbEntity
  8
0
100
AcDbLine
 10
1020.135663597955
 20
880.1743457456787
 30
0.0
 11
1020.135663597955
 21
913.1743457456787
 31
0.0
  0
LINE
  5
318C
330
3201
100
AcDbEntity
  8
0
100
AcDbLine
 10
1023.635661597954
 20
873.8834257456785
 30
0.0
 11
1059.550775597954
 21
870.7412557456787
 31
0.0
  0
LINE
  5
318D
330
3201
100
AcDbEntity
  8
0
100
AcDbLine
 10
1023.635661597954
 20
879.1743457456787
 30
0.0
 11
1023.635661597954
 21
878.3119657456785
 31
0.0
  0
LINE
  5
318E
330
3201
100
AcDbEntity
  8
0
100
AcDbLine
 10
1023.635661597954
 20
880.1743457456787
 30
0.0
 11
1023.635661597954
 21
873.8834257456785
 31
0.0
  0
CIRCLE
  5
318F
330
3201
100
AcDbEntity
  8
0
100
AcDbCircle
 10
1010.135659597952
 20
1094.719164719547
 30
0.0
 40
54.0
  0
CIRCLE
  5
3190
330
3201
100
AcDbEntity
  8
0
100
AcDbCircle
 10
1010.135659597952
 20
1094.719164719547
 30
0.0
 40
54.0
  0
CIRCLE
  5
3191
330
3201
100
AcDbEntity
  8
0
100
AcDbCircle
 10
1010.135659597952
 20
1094.719164719547
 30
0.0
 40
9.999999
  0
CIRCLE
  5
3192
330
3201
100
AcDbEntity
  8
0
100
AcDbCircle
 10
1010.135659597952
 20
1094.719164719547
 30
0.0
 40
13.5
  0
CIRCLE
  5
3193
330
3201
100
AcDbEntity
  8
0
100
AcDbCircle
 10
1010.135659597952
 20
1094.719164719547
 30
0.0
 40
9.999999
  0
CIRCLE
  5
3194
330
3201
100
AcDbEntity
  8
0
100
AcDbCircle
 10
1010.135659597952
 20
1094.719164719547
 30
0.0
 40
13.5
  0
LINE
  5
3256
330
3201
100
AcDbEntity
  8
0
  6
CENTER
100
AcDbLine
 10
1010.135659597952
 20
1008.098163011469
 30
0.0
 11
1010.135659597952
 21
1181.340166427625
 31
0.0
  0
LINE
  5
3257
330
3201
100
AcDbEntity
  8
0
  6
CENTER
100
AcDbLine
 10
845.5362117258856
 20
1094.719164719547
 30
0.0
 11
1078.578060921957
 21
1094.719164719547
 31
0.0
  0
LINE
  5
3258
330
3201
100
AcDbEntity
  8
0
  6
CENTER
100
AcDbLine
 10
1010.135659597952
 20
99.98501625654354
 30
0.0
 11
1010.135659597952
 21
941.9320852083769
 31
0.0
  0
LINE
  5
3259
330
3201
100
AcDbEntity
  8
0
  6
CENTER
100
AcDbLine
 10
874.8939918134047
 20
409.0243518491944
 30
0.0
 11
1010.135659597952
 21
409.0243518491944
 31
0.0
  0
LINE
  5
325A
330
3201
100
AcDbEntity
  8
0
  6
CENTER
100
AcDbLine
 10
874.8940223309828
 20
259.024321331616
 30
0.0
 11
1010.135659597952
 21
259.024321331616
 31
0.0
  0
ENDSEC
  0
SECTION
  2
OBJECTS
  0
DICTIONARY
  5
31EF
330
0
100
AcDbDictionary
281
     1
  3
ACAD_GROUP
350
31F0
  3
ACAD_LAYOUT
350
31FC
  3
ACAD_MLINESTYLE
350
31F9
  3
ACAD_PLOTSETTINGS
350
31FB
  3
ACAD_PLOTSTYLENAME
350
31F1
  3
AcDbVariableDictionary
350
3247
  0
DICTIONARY
  5
324E
330
31E5
100
AcDbDictionary
280
     1
281
     1
  3
ACAD_LAYERSTATES
360
324F
  0
DICTIONARY
  5
3213
330
3201
100
AcDbDictionary
280
     1
281
     1
  3
ACAD_LAYOUTSELFREF
360
3242
  0
DICTIONARY
  5
3215
330
31FD
100
AcDbDictionary
280
     1
281
     1
  3
ACAD_LAYOUTSELFREF
360
3241
  0
DICTIONARY
  5
31F0
102
{ACAD_REACTORS
330
31EF
102
}
330
31EF
100
AcDbDictionary
281
     1
  0
DICTIONARY
  5
31FC
102
{ACAD_REACTORS
330
31EF
102
}
330
31EF
100
AcDbDictionary
281
     1
  3
Model
350
3204
  3
ﾚｲｱｳﾄ1
350
3200
  0
DICTIONARY
  5
31F9
102
{ACAD_REACTORS
330
31EF
102
}
330
31EF
100
AcDbDictionary
281
     1
  3
Standard
350
31FA
  0
DICTIONARY
  5
31FB
102
{ACAD_REACTORS
330
31EF
102
}
330
31EF
100
AcDbDictionary
281
     1
  0
ACDBDICTIONARYWDFLT
  5
31F1
102
{ACAD_REACTORS
330
31EF
102
}
330
31EF
100
AcDbDictionary
281
     1
  3
Normal
350
31F2
100
AcDbDictionaryWithDefault
340
31F2
  0
DICTIONARY
  5
3247
102
{ACAD_REACTORS
330
31EF
102
}
330
31EF
100
AcDbDictionary
281
     1
  3
DIMASSOC
350
3248
  0
DICTIONARY
  5
324F
102
{ACAD_REACTORS
330
324E
102
}
330
324E
100
AcDbDictionary
281
     1
  0
XRECORD
  5
3242
102
{ACAD_REACTORS
330
3213
102
}
330
3213
100
AcDbXrecord
280
     1
340
3201
  0
XRECORD
  5
3241
102
{ACAD_REACTORS
330
3215
102
}
330
3215
100
AcDbXrecord
280
     1
340
31FD
  0
LAYOUT
  5
3204
102
{ACAD_REACTORS
330
31FC
102
}
330
31FC
100
AcDbPlotSettings
  1

  2
SII LP-2150 (D-SCAN C2)
  4

  6

 40
0.0
 41
0.0
 42
0.0
 43
0.0
 44
0.0
 45
0.0
 46
0.0
 47
0.0
 48
0.0
 49
0.0
140
0.0
141
0.0
142
1.0
143
1.0
 70
  1712
 72
     0
 73
     0
 74
     0
  7

 75
     0
147
1.0
148
0.0
149
0.0
100
AcDbLayout
  1
Model
 70
     1
 71
     0
 10
0.0
 20
0.0
 11
12.0
 21
9.0
 12
0.0
 22
0.0
 32
0.0
 14
0.0
 24
0.0
 34
0.0
 15
0.0
 25
0.0
 35
0.0
146
0.0
 13
0.0
 23
0.0
 33
0.0
 16
1.0
 26
0.0
 36
0.0
 17
0.0
 27
1.0
 37
0.0
 76
     0
330
3201
  0
LAYOUT
  5
3200
102
{ACAD_REACTORS
330
31FC
102
}
330
31FC
100
AcDbPlotSettings
  1

  2
SII LP-2150 (D-SCAN C2)
  4

  6

 40
0.0
 41
0.0
 42
0.0
 43
0.0
 44
0.0
 45
0.0
 46
0.0
 47
0.0
 48
0.0
 49
0.0
140
0.0
141
0.0
142
1.0
143
1.0
 70
   688
 72
     0
 73
     0
 74
     5
  7

 75
    16
147
1.0
148
0.0
149
0.0
100
AcDbLayout
  1
ﾚｲｱｳﾄ1
 70
     1
 71
     1
 10
-580.5701293945312
 20
0.0
 11
0.0
 21
407.8999938964844
 12
0.0
 22
0.0
 32
0.0
 14
-580.5701293945312
 24
0.0
 34
0.0
 15
0.0
 25
407.8999938964844
 35
0.0
146
0.0
 13
0.0
 23
0.0
 33
0.0
 16
1.0
 26
0.0
 36
0.0
 17
0.0
 27
1.0
 37
0.0
 76
     0
330
31FD
  0
MLINESTYLE
  5
31FA
102
{ACAD_REACTORS
330
31F9
102
}
330
31F9
100
AcDbMlineStyle
  2
STANDARD
 70
     0
  3

 62
   256
 51
90.0
 52
90.0
 71
     2
 49
0.5
 62
   256
  6
BYLAYER
 49
-0.5
 62
   256
  6
BYLAYER
  0
ACDBPLACEHOLDER
  5
31F2
102
{ACAD_REACTORS
330
31F1
102
}
330
31F1
  0
DICTIONARYVAR
  5
3248
102
{ACAD_REACTORS
330
3247
102
}
330
3247
100
DictionaryVariables
280
     0
  1
1
  0
ENDSEC
  0
EOF
