  0
SECTION
  2
HEADER
  9
$ACADVER
  1
AC1015
  9
$ACADMAINTVER
 70
    14
  9
$DWGCODEPAGE
  3
ANSI_932
  9
$INSBASE
 10
0.0
 20
0.0
 30
0.0
  9
$EXTMIN
 10
463.5723943493048
 20
70.98720194788211
 30
-0.0000000349181948
  9
$EXTMAX
 10
1410.555699776895
 20
1395.847294835521
 30
0.0000000814935746
  9
$LIMMIN
 10
-580.5701293945312
 20
0.0
  9
$LIMMAX
 10
0.0
 20
407.8999938964844
  9
$ORTHOMODE
 70
     0
  9
$REGENMODE
 70
     1
  9
$FILLMODE
 70
     1
  9
$QTEXTMODE
 70
     0
  9
$MIRRTEXT
 70
     1
  9
$LTSCALE
 40
1.0
  9
$ATTMODE
 70
     1
  9
$TEXTSIZE
 40
0.2
  9
$TRACEWID
 40
0.05
  9
$TEXTSTYLE
  7
STANDARD
  9
$CLAYER
  8
0
  9
$CELTYPE
  6
CONTINUOUS
  9
$CECOLOR
 62
   256
  9
$CELTSCALE
 40
1.0
  9
$DISPSILH
 70
     0
  9
$DIMSCALE
 40
1.0
  9
$DIMASZ
 40
1.0
  9
$DIMEXO
 40
2.54
  9
$DIMDLI
 40
0.38
  9
$DIMRND
 40
0.0
  9
$DIMDLE
 40
0.0
  9
$DIMEXE
 40
2.54
  9
$DIMTP
 40
0.0
  9
$DIMTM
 40
0.0
  9
$DIMTXT
 40
3.200000047683714
  9
$DIMCEN
 40
0.09
  9
$DIMTSZ
 40
0.0
  9
$DIMTOL
 70
     0
  9
$DIMLIM
 70
     0
  9
$DIMTIH
 70
     0
  9
$DIMTOH
 70
     0
  9
$DIMSE1
 70
     0
  9
$DIMSE2
 70
     0
  9
$DIMTAD
 70
     1
  9
$DIMZIN
 70
     0
  9
$DIMBLK
  1

  9
$DIMASO
 70
     1
  9
$DIMSHO
 70
     0
  9
$DIMPOST
  1

  9
$DIMAPOST
  1

  9
$DIMALT
 70
     0
  9
$DIMALTD
 70
     2
  9
$DIMALTF
 40
25.4
  9
$DIMLFAC
 40
1.0
  9
$DIMTOFL
 70
     0
  9
$DIMTVP
 40
1.0
  9
$DIMTIX
 70
     0
  9
$DIMSOXD
 70
     0
  9
$DIMSAH
 70
     1
  9
$DIMBLK1
  1

  9
$DIMBLK2
  1

  9
$DIMSTYLE
  2
STANDARD
  9
$DIMCLRD
 70
     0
  9
$DIMCLRE
 70
     0
  9
$DIMCLRT
 70
     0
  9
$DIMTFAC
 40
1.0
  9
$DIMGAP
 40
1.600000023841857
  9
$DIMJUST
 70
     0
  9
$DIMSD1
 70
     0
  9
$DIMSD2
 70
     0
  9
$DIMTOLJ
 70
     1
  9
$DIMTZIN
 70
     0
  9
$DIMALTZ
 70
     0
  9
$DIMALTTZ
 70
     0
  9
$DIMUPT
 70
     0
  9
$DIMDEC
 70
     4
  9
$DIMTDEC
 70
     4
  9
$DIMALTU
 70
     2
  9
$DIMALTTD
 70
     2
  9
$DIMTXSTY
  7
STANDARD
  9
$DIMAUNIT
 70
     0
  9
$DIMADEC
 70
     0
  9
$DIMALTRND
 40
0.0
  9
$DIMAZIN
 70
     0
  9
$DIMDSEP
 70
    46
  9
$DIMATFIT
 70
     3
  9
$DIMFRAC
 70
     0
  9
$DIMLDRBLK
  1

  9
$DIMLUNIT
 70
     2
  9
$DIMLWD
 70
    -2
  9
$DIMLWE
 70
    -2
  9
$DIMTMOVE
 70
     0
  9
$LUNITS
 70
     2
  9
$LUPREC
 70
     4
  9
$SKETCHINC
 40
0.1
  9
$FILLETRAD
 40
0.0
  9
$AUNITS
 70
     0
  9
$AUPREC
 70
     0
  9
$MENU
  1
.
  9
$ELEVATION
 40
0.0
  9
$PELEVATION
 40
0.0
  9
$THICKNESS
 40
0.0
  9
$LIMCHECK
 70
     0
  9
$CHAMFERA
 40
0.0
  9
$CHAMFERB
 40
0.0
  9
$CHAMFERC
 40
0.0
  9
$CHAMFERD
 40
0.0
  9
$SKPOLY
 70
     0
  9
$TDCREATE
 40
2452717.604314595
  9
$TDUCREATE
 40
2452717.229314595
  9
$TDUPDATE
 40
2456899.681221157
  9
$TDUUPDATE
 40
2456899.306221157
  9
$TDINDWG
 40
0.1607566319
  9
$TDUSRTIMER
 40
0.1607566319
  9
$USRTIMER
 70
     1
  9
$ANGBASE
 50
0.0
  9
$ANGDIR
 70
     0
  9
$PDMODE
 70
     0
  9
$PDSIZE
 40
0.0
  9
$PLINEWID
 40
0.0
  9
$SPLFRAME
 70
     0
  9
$SPLINETYPE
 70
     6
  9
$SPLINESEGS
 70
     8
  9
$HANDSEED
  5
325F
  9
$SURFTAB1
 70
     6
  9
$SURFTAB2
 70
     6
  9
$SURFTYPE
 70
     6
  9
$SURFU
 70
     6
  9
$SURFV
 70
     6
  9
$UCSBASE
  2

  9
$UCSNAME
  2

  9
$UCSORG
 10
0.0
 20
0.0
 30
0.0
  9
$UCSXDIR
 10
1.0
 20
0.0
 30
0.0
  9
$UCSYDIR
 10
0.0
 20
1.0
 30
0.0
  9
$UCSORTHOREF
  2

  9
$UCSORTHOVIEW
 70
     0
  9
$UCSORGTOP
 10
0.0
 20
0.0
 30
0.0
  9
$UCSORGBOTTOM
 10
0.0
 20
0.0
 30
0.0
  9
$UCSORGLEFT
 10
0.0
 20
0.0
 30
0.0
  9
$UCSORGRIGHT
 10
0.0
 20
0.0
 30
0.0
  9
$UCSORGFRONT
 10
0.0
 20
0.0
 30
0.0
  9
$UCSORGBACK
 10
0.0
 20
0.0
 30
0.0
  9
$PUCSBASE
  2

  9
$PUCSNAME
  2

  9
$PUCSORG
 10
0.0
 20
0.0
 30
0.0
  9
$PUCSXDIR
 10
1.0
 20
0.0
 30
0.0
  9
$PUCSYDIR
 10
0.0
 20
1.0
 30
0.0
  9
$PUCSORTHOREF
  2

  9
$PUCSORTHOVIEW
 70
     0
  9
$PUCSORGTOP
 10
0.0
 20
0.0
 30
0.0
  9
$PUCSORGBOTTOM
 10
0.0
 20
0.0
 30
0.0
  9
$PUCSORGLEFT
 10
0.0
 20
0.0
 30
0.0
  9
$PUCSORGRIGHT
 10
0.0
 20
0.0
 30
0.0
  9
$PUCSORGFRONT
 10
0.0
 20
0.0
 30
0.0
  9
$PUCSORGBACK
 10
0.0
 20
0.0
 30
0.0
  9
$USERI1
 70
     0
  9
$USERI2
 70
     0
  9
$USERI3
 70
     0
  9
$USERI4
 70
     0
  9
$USERI5
 70
     0
  9
$USERR1
 40
0.0
  9
$USERR2
 40
0.0
  9
$USERR3
 40
0.0
  9
$USERR4
 40
0.0
  9
$USERR5
 40
0.0
  9
$WORLDVIEW
 70
     1
  9
$SHADEDGE
 70
     3
  9
$SHADEDIF
 70
    70
  9
$TILEMODE
 70
     1
  9
$MAXACTVP
 70
    48
  9
$PINSBASE
 10
0.0
 20
0.0
 30
0.0
  9
$PLIMCHECK
 70
     0
  9
$PEXTMIN
 10
-580.5701293945312
 20
0.0
 30
0.0
  9
$PEXTMAX
 10
0.0
 20
407.8999938964844
 30
0.0
  9
$PLIMMIN
 10
-580.5701293945312
 20
0.0
  9
$PLIMMAX
 10
0.0
 20
407.8999938964844
  9
$UNITMODE
 70
     0
  9
$VISRETAIN
 70
     1
  9
$PLINEGEN
 70
     0
  9
$PSLTSCALE
 70
     1
  9
$TREEDEPTH
 70
  3020
  9
$CMLSTYLE
  2
Standard
  9
$CMLJUST
 70
     0
  9
$CMLSCALE
 40
1.0
  9
$PROXYGRAPHICS
 70
     1
  9
$MEASUREMENT
 70
     0
  9
$CELWEIGHT
370
    -1
  9
$ENDCAPS
280
     0
  9
$JOINSTYLE
280
     0
  9
$LWDISPLAY
290
     0
  9
$INSUNITS
 70
     0
  9
$HYPERLINKBASE
  1

  9
$STYLESHEET
  1

  9
$XEDIT
290
     1
  9
$CEPSNTYPE
380
     0
  9
$PSTYLEMODE
290
     1
  9
$FINGERPRINTGUID
  2
{10883D14-5E74-4519-B22F-695A0D688046}
  9
$VERSIONGUID
  2
{F116A0E1-8F60-47F3-975B-5B461D8CA4BE}
  9
$EXTNAMES
290
     1
  9
$PSVPSCALE
 40
0.0
  9
$OLESTARTUP
290
     0
  0
ENDSEC
  0
SECTION
  2
CLASSES
  0
CLASS
  1
ACDBDICTIONARYWDFLT
  2
AcDbDictionaryWithDefault
  3
AutoCAD 2000
 90
        0
280
     0
281
     0
  0
CLASS
  1
ACDBPLACEHOLDER
  2
AcDbPlaceHolder
  3
AutoCAD 2000
 90
        0
280
     0
281
     0
  0
CLASS
  1
LAYOUT
  2
AcDbLayout
  3
AutoCAD 2000
 90
        0
280
     0
281
     0
  0
CLASS
  1
DICTIONARYVAR
  2
AcDbDictionaryVar
  3
AutoCAD 2000
 90
        0
280
     0
281
     0
  0
CLASS
  1
LONG_TRANSACTION
  2
AcDbLongTransaction
  3
AutoCAD 2000
 90
    32768
280
     0
281
     0
  0
CLASS
  1
LWPOLYLINE
  2
AcDbPolyline
  3
AutoCAD 2000
 90
    32768
280
     0
281
     1
  0
CLASS
  1
HATCH
  2
AcDbHatch
  3
AutoCAD 2000
 90
    32768
280
     0
281
     1
  0
CLASS
  1
XRECORD
  2
AcDbXrecord
  3
AutoCAD 2000
 90
    32768
280
     0
281
     0
  0
ENDSEC
  0
SECTION
  2
TABLES
  0
TABLE
  2
VPORT
  5
31E9
330
0
100
AcDbSymbolTable
 70
     2
  0
VPORT
  5
325E
330
31E9
100
AcDbSymbolTableRecord
100
AcDbViewportTableRecord
  2
*Active
 70
     0
 10
0.0
 20
0.0
 11
1.0
 21
1.0
 12
937.0640470631
 22
733.4172483917016
 13
0.0
 23
0.0
 14
1.0
 24
1.0
 15
0.0
 25
0.0
 16
0.0
 26
0.0
 36
1.0
 17
0.0
 27
0.0
 37
0.0
 40
1333.271903001211
 41
1.592161016949152
 42
50.0
 43
0.0
 44
0.0
 50
0.0
 51
0.0
 71
     0
 72
   100
 73
     1
 74
     3
 75
     0
 76
     0
 77
     0
 78
     0
281
     0
 65
     1
110
0.0
120
0.0
130
0.0
111
1.0
121
0.0
131
0.0
112
0.0
122
1.0
132
0.0
 79
     0
146
0.0
  0
ENDTAB
  0
TABLE
  2
LTYPE
  5
31E6
330
0
100
AcDbSymbolTable
 70
     2
  0
LTYPE
  5
31F4
330
31E6
100
AcDbSymbolTableRecord
100
AcDbLinetypeTableRecord
  2
ByBlock
 70
     0
  3

 72
    65
 73
     0
 40
0.0
  0
LTYPE
  5
31F5
330
31E6
100
AcDbSymbolTableRecord
100
AcDbLinetypeTableRecord
  2
ByLayer
 70
     0
  3

 72
    65
 73
     0
 40
0.0
  0
LTYPE
  5
31F6
330
31E6
100
AcDbSymbolTableRecord
100
AcDbLinetypeTableRecord
  2
CONTINUOUS
 70
     0
  3
Solid line
 72
    65
 73
     0
 40
0.0
  0
LTYPE
  5
324B
330
31E6
100
AcDbSymbolTableRecord
100
AcDbLinetypeTableRecord
  2
CENTER
 70
     0
  3
__ . __
 72
    65
 73
     4
 40
7.0
 49
4.0
 74
     0
 49
-1.0
 74
     0
 49
1.0
 74
     0
 49
-1.0
 74
     0
  0
ENDTAB
  0
TABLE
  2
LAYER
  5
31E3
102
{ACAD_XDICTIONARY
360
324C
102
}
330
0
100
AcDbSymbolTable
 70
     2
  0
LAYER
  5
31F1
330
31E3
100
AcDbSymbolTableRecord
100
AcDbLayerTableRecord
  2
0
 70
     0
 62
     7
  6
CONTINUOUS
370
    -3
390
31F0
  0
LAYER
  5
3204
330
31E3
100
AcDbSymbolTableRecord
100
AcDbLayerTableRecord
  2
DEFPOINTS
 70
     0
 62
     7
  6
CONTINUOUS
290
     0
370
    -3
390
31F0
  0
ENDTAB
  0
TABLE
  2
STYLE
  5
31E4
330
0
100
AcDbSymbolTable
 70
     1
  0
STYLE
  5
31F2
330
31E4
100
AcDbSymbolTableRecord
100
AcDbTextStyleTableRecord
  2
STANDARD
 70
     0
 40
0.0
 41
1.0
 50
0.0
 71
     0
 42
0.2
  3
txt
  4
BIGFONT
  0
ENDTAB
  0
TABLE
  2
VIEW
  5
31E7
330
0
100
AcDbSymbolTable
 70
     0
  0
ENDTAB
  0
TABLE
  2
UCS
  5
31E8
330
0
100
AcDbSymbolTable
 70
     0
  0
ENDTAB
  0
TABLE
  2
APPID
  5
31EA
330
0
100
AcDbSymbolTable
 70
     4
  0
APPID
  5
31F3
330
31EA
100
AcDbSymbolTableRecord
100
AcDbRegAppTableRecord
  2
ACAD
 70
     0
  0
APPID
  5
3205
330
31EA
100
AcDbSymbolTableRecord
100
AcDbRegAppTableRecord
  2
MCAD_NO_VIS
 70
     0
  0
APPID
  5
3206
330
31EA
100
AcDbSymbolTableRecord
100
AcDbRegAppTableRecord
  2
ACAD_TEMP_GRAPHIC
 70
     0
  0
APPID
  5
3207
330
31EA
100
AcDbSymbolTableRecord
100
AcDbRegAppTableRecord
  2
ACATTRIBSERVICES
 70
     0
  0
ENDTAB
  0
TABLE
  2
DIMSTYLE
  5
31EB
330
0
100
AcDbSymbolTable
 70
     1
100
AcDbDimStyleTable
 71
     0
  0
DIMSTYLE
105
3208
330
31EB
100
AcDbSymbolTableRecord
100
AcDbDimStyleTableRecord
  2
STANDARD
 70
     0
279
     2
340
31F2
  0
ENDTAB
  0
TABLE
  2
BLOCK_RECORD
  5
31E2
330
0
100
AcDbSymbolTable
 70
     2
  0
BLOCK_RECORD
  5
31FF
102
{ACAD_XDICTIONARY
360
3211
102
}
330
31E2
100
AcDbSymbolTableRecord
100
AcDbBlockTableRecord
  2
*Model_Space
340
3202
  0
BLOCK_RECORD
  5
31FB
102
{ACAD_XDICTIONARY
360
3213
102
}
330
31E2
100
AcDbSymbolTableRecord
100
AcDbBlockTableRecord
  2
*Paper_Space
340
31FE
  0
BLOCK_RECORD
  5
320B
330
31E2
100
AcDbSymbolTableRecord
100
AcDbBlockTableRecord
  2
$MODEL_SPACE
340
0
  0
BLOCK_RECORD
  5
320D
330
31E2
100
AcDbSymbolTableRecord
100
AcDbBlockTableRecord
  2
$PAPER_SPACE
340
0
  0
ENDTAB
  0
ENDSEC
  0
SECTION
  2
BLOCKS
  0
BLOCK
  5
3200
330
31FF
100
AcDbEntity
  8
0
100
AcDbBlockBegin
  2
*Model_Space
 70
     0
 10
0.0
 20
0.0
 30
0.0
  3
*Model_Space
  1

  0
ENDBLK
  5
3201
330
31FF
100
AcDbEntity
  8
0
100
AcDbBlockEnd
  0
BLOCK
  5
31FC
330
31FB
100
AcDbEntity
 67
     1
  8
0
100
AcDbBlockBegin
  2
*Paper_Space
 70
     0
 10
0.0
 20
0.0
 30
0.0
  3
*Paper_Space
  1

  0
ENDBLK
  5
31FD
330
31FB
100
AcDbEntity
 67
     1
  8
0
100
AcDbBlockEnd
  0
BLOCK
  5
320C
330
320B
100
AcDbEntity
  8
0
100
AcDbBlockBegin
  2
$MODEL_SPACE
 70
     0
 10
0.0
 20
0.0
 30
0.0
  3
$MODEL_SPACE
  1

  0
ENDBLK
  5
31CC
330
320B
100
AcDbEntity
  8
0
100
AcDbBlockEnd
  0
BLOCK
  5
320E
330
320D
100
AcDbEntity
  8
0
100
AcDbBlockBegin
  2
$PAPER_SPACE
 70
     0
 10
0.0
 20
0.0
 30
0.0
  3
$PAPER_SPACE
  1

  0
ENDBLK
  5
31C8
330
320D
100
AcDbEntity
  8
0
100
AcDbBlockEnd
  0
ENDSEC
  0
SECTION
  2
ENTITIES
  0
LINE
  5
EB8
330
31FF
100
AcDbEntity
  8
0
100
AcDbLine
 10
1019.929046729737
 20
258.4134224847771
 30
0.0
 11
1019.929046729737
 21
275.9134230063171
 31
0.0
  0
LINE
  5
EBB
330
31FF
100
AcDbEntity
  8
0
100
AcDbLine
 10
927.6790372973033
 20
124.8112063199882
 30
0.0
 11
927.6790372973025
 21
181.9002404252
 31
0.0
  0
LINE
  5
EBC
330
31FF
100
AcDbEntity
  8
0
100
AcDbLine
 10
991.1790296679086
 20
124.8111792282247
 30
0.0
 11
991.1790296679086
 21
181.9003024261951
 31
0.0
  0
LINE
  5
EBF
330
31FF
100
AcDbEntity
  8
0
100
AcDbLine
 10
920.6790296679086
 20
119.4134227455465
 30
0.0
 11
998.1790372973025
 21
119.4134227455465
 31
0.0
  0
LINE
  5
EC2
330
31FF
100
AcDbEntity
  8
0
100
AcDbLine
 10
998.1790372973025
 20
122.2633847202569
 30
0.0
 11
991.1790296679086
 21
124.8111792282247
 31
0.0
  0
LINE
  5
EC3
330
31FF
100
AcDbEntity
  8
0
100
AcDbLine
 10
998.1790372973025
 20
119.4134227455465
 30
0.0
 11
998.1790372973025
 21
122.2633847202569
 31
0.0
  0
LINE
  5
ED8
330
31FF
100
AcDbEntity
  8
0
100
AcDbLine
 10
920.6790296679086
 20
122.2634118120198
 30
0.0
 11
927.6790372973033
 21
124.8112063199882
 31
0.0
  0
LINE
  5
EDF
330
31FF
100
AcDbEntity
  8
0
100
AcDbLine
 10
920.6790296679086
 20
119.4134227455465
 30
0.0
 11
920.6790296679086
 21
122.2634118120198
 31
0.0
  0
LINE
  5
EE3
330
31FF
100
AcDbEntity
  8
0
100
AcDbLine
 10
859.826812084907
 20
256.1634074867578
 30
0.0
 11
912.4290296679086
 21
256.1634074867578
 31
0.0
  0
LINE
  5
EE4
330
31FF
100
AcDbEntity
  8
0
100
AcDbLine
 10
859.8268173725399
 20
192.6633922279691
 30
0.0
 11
912.4290296679086
 21
192.6633922279691
 31
0.0
  0
LINE
  5
EEB
330
31FF
100
AcDbEntity
  8
0
100
AcDbLine
 10
1006.429037297303
 20
258.4134074867578
 30
0.0
 11
1006.429037297303
 21
186.6633922279691
 31
0.0
  0
LINE
  5
EF4
330
31FF
100
AcDbEntity
  8
0
100
AcDbLine
 10
912.4290296679086
 20
186.6633922279691
 30
0.0
 11
1006.429037297303
 21
186.6633922279691
 31
0.0
  0
LINE
  5
EF5
330
31FF
100
AcDbEntity
  8
0
100
AcDbLine
 10
999.4289430575232
 20
186.6633922279691
 30
0.0
 11
991.1790296679086
 21
181.9003024261951
 31
0.0
  0
LINE
  5
F1B
330
31FF
100
AcDbEntity
  8
0
100
AcDbLine
 10
919.4290165188153
 20
186.6633922279691
 30
0.0
 11
927.6790372973025
 21
181.9002404252
 31
0.0
  0
LINE
  5
F35
330
31FF
100
AcDbEntity
  8
0
100
AcDbLine
 10
912.4290296679086
 20
258.4134224847771
 30
0.0
 11
912.4290296679086
 21
186.6633922279691
 31
0.0
  0
LINE
  5
F3E
330
31FF
100
AcDbEntity
  8
0
100
AcDbLine
 10
1019.929046729737
 20
258.4134224847771
 30
0.0
 11
898.9290431236554
 21
258.4134224847771
 31
0.0
  0
LINE
  5
F52
330
31FF
100
AcDbEntity
  8
0
100
AcDbLine
 10
1019.929046729737
 20
275.9134230063171
 30
0.0
 11
898.9290431236554
 21
275.9134230063171
 31
0.0
  0
LINE
  5
F53
330
31FF
100
AcDbEntity
  8
0
100
AcDbLine
 10
999.4290296679087
 20
507.1634227455469
 30
0.0
 11
999.4290296679087
 21
502.1633772224991
 31
0.0
  0
LINE
  5
F68
330
31FF
100
AcDbEntity
  8
0
100
AcDbLine
 10
898.9290431236554
 20
258.4134224847771
 30
0.0
 11
898.9290431236554
 21
275.9134230063171
 31
0.0
  0
LINE
  5
FC7
330
31FF
100
AcDbEntity
  8
0
100
AcDbLine
 10
854.4290449266966
 20
185.6634074867577
 30
0.0
 11
854.4290449266966
 21
263.1633922279691
 31
0.0
  0
LINE
  5
FCB
330
31FF
100
AcDbEntity
  8
0
100
AcDbLine
 10
857.2790311951898
 20
185.6634074867577
 30
0.0
 11
859.8268173725399
 21
192.6633922279691
 31
0.0
  0
LINE
  5
FCE
330
31FF
100
AcDbEntity
  8
0
100
AcDbLine
 10
854.4290449266966
 20
185.6634074867577
 30
0.0
 11
857.2790311951898
 21
185.6634074867577
 31
0.0
  0
LINE
  5
FD6
330
31FF
100
AcDbEntity
  8
0
100
AcDbLine
 10
857.2790259075571
 20
263.1633922279691
 30
0.0
 11
859.826812084907
 21
256.1634074867578
 31
0.0
  0
LINE
  5
FDB
330
31FF
100
AcDbEntity
  8
0
100
AcDbLine
 10
854.4290449266966
 20
263.1633922279691
 30
0.0
 11
857.2790259075571
 21
263.1633922279691
 31
0.0
  0
LINE
  5
FF8
330
31FF
100
AcDbEntity
  8
0
100
AcDbLine
 10
891.6790372973022
 20
709.1634074867581
 30
0.0
 11
1027.179029667908
 21
709.1634074867581
 31
0.0
  0
LINE
  5
1000
330
31FF
100
AcDbEntity
  8
0
100
AcDbLine
 10
1027.179029667908
 20
507.1634227455469
 30
0.0
 11
1027.179029667908
 21
709.1634074867581
 31
0.0
  0
LINE
  5
1009
330
31FF
100
AcDbEntity
  8
0
100
AcDbLine
 10
891.6790372973022
 20
507.4634410560928
 30
0.0
 11
891.6790372973022
 21
709.1634074867581
 31
0.0
  0
LINE
  5
1061
330
31FF
100
AcDbEntity
  8
0
100
AcDbLine
 10
891.6790372973022
 20
507.1634227455469
 30
0.0
 11
1027.179029667908
 21
507.1634227455469
 31
0.0
  0
LINE
  5
10D7
330
31FF
100
AcDbEntity
  8
0
  6
Continuous
100
AcDbLine
 10
859.8268173725399
 20
192.6633922279691
 30
0.0
 11
859.826812084907
 21
256.1634074867578
 31
0.0
  0
LINE
  5
10D8
330
31FF
100
AcDbEntity
  8
0
  6
Continuous
100
AcDbLine
 10
927.6790372973033
 20
124.8112063199882
 30
0.0
 11
991.1790296679086
 21
124.8111792282247
 31
0.0
  0
LINE
  5
10D9
330
31FF
100
AcDbEntity
  8
0
100
AcDbLine
 10
919.4290372973034
 20
502.1633772224991
 30
0.0
 11
919.4290372973034
 21
507.4634410560928
 31
0.0
  0
CIRCLE
  5
209D
330
31FF
100
AcDbEntity
  8
0
  6
Continuous
100
AcDbCircle
 10
959.4290334826046
 20
1103.353577871099
 30
0.0
 40
67.74999618530364
  0
LINE
  5
20A1
330
31FF
100
AcDbEntity
  8
0
100
AcDbLine
 10
854.4290334826049
 20
1142.103570241705
 30
0.0
 11
857.279014463465
 21
1142.103570241705
 31
0.0
  0
LINE
  5
20A2
330
31FF
100
AcDbEntity
  8
0
100
AcDbLine
 10
857.279014463465
 20
1142.103570241705
 30
0.0
 11
859.8268006408154
 21
1135.103585500494
 31
0.0
  0
LINE
  5
20A3
330
31FF
100
AcDbEntity
  8
0
100
AcDbLine
 10
854.4290334826049
 20
1064.603585500494
 30
0.0
 11
857.2790197510977
 21
1064.603585500494
 31
0.0
  0
LINE
  5
20A4
330
31FF
100
AcDbEntity
  8
0
100
AcDbLine
 10
857.2790197510977
 20
1064.603585500494
 30
0.0
 11
859.8268059284489
 21
1071.603570241705
 31
0.0
  0
LINE
  5
20A5
330
31FF
100
AcDbEntity
  8
0
100
AcDbLine
 10
854.4290334826049
 20
1064.603585500494
 30
0.0
 11
854.4290334826049
 21
1142.103570241705
 31
0.0
  0
LINE
  5
20A6
330
31FF
100
AcDbEntity
  8
0
  6
Continuous
100
AcDbLine
 10
859.8268059284489
 20
1071.603570241705
 30
0.0
 11
859.8268006408154
 21
1135.103585500494
 31
0.0
  0
LINE
  5
20A7
330
31FF
100
AcDbEntity
  8
0
100
AcDbLine
 10
859.8268059284489
 20
1071.603570241705
 30
0.0
 11
899.579229818415
 21
1071.603570241705
 31
0.0
  0
LINE
  5
20A8
330
31FF
100
AcDbEntity
  8
0
100
AcDbLine
 10
859.8268006408154
 20
1135.103585500494
 30
0.0
 11
899.579229818415
 21
1135.103585500494
 31
0.0
  0
LINE
  5
2C1A
330
31FF
100
AcDbEntity
  8
0
  6
Continuous
100
AcDbLine
 10
854.4290678148801
 20
403.1634074867569
 30
0.0
 11
854.4290678148801
 21
325.6633769691791
 31
0.0
  0
LINE
  5
2C1B
330
31FF
100
AcDbEntity
  8
0
  6
Continuous
100
AcDbLine
 10
991.6790449266967
 20
403.9134074867568
 30
0.0
 11
991.6790449266967
 21
275.9134230063171
 31
0.0
  0
LINE
  5
2C42
330
31FF
100
AcDbEntity
  8
0
  6
Continuous
100
AcDbLine
 10
859.8268339326658
 20
332.6634074867578
 30
0.0
 11
927.1790449266967
 21
332.6634074867578
 31
0.0
  0
LINE
  5
2C47
330
31FF
100
AcDbEntity
  8
0
  6
Continuous
100
AcDbLine
 10
927.1790449266967
 20
403.913391997001
 30
0.0
 11
927.1790449266967
 21
275.9134230063171
 31
0.0
  0
LINE
  5
2C88
330
31FF
100
AcDbEntity
  8
0
  6
Continuous
100
AcDbLine
 10
857.2790310940796
 20
325.6633769691791
 30
0.0
 11
859.8268339326658
 21
332.6634074867578
 31
0.0
  0
LINE
  5
2C89
330
31FF
100
AcDbEntity
  8
0
  6
Continuous
100
AcDbLine
 10
854.4290678148801
 20
325.6633769691791
 30
0.0
 11
857.2790310940796
 21
325.6633769691791
 31
0.0
  0
LINE
  5
2C98
330
31FF
100
AcDbEntity
  8
0
  6
Continuous
100
AcDbLine
 10
919.9290296679087
 20
422.1633922279679
 30
0.0
 11
998.9290372973025
 21
422.1633922279679
 31
0.0
  0
LINE
  5
2C9C
330
31FF
100
AcDbEntity
  8
0
  6
Continuous
100
AcDbLine
 10
913.67904356324
 20
403.913391997001
 30
0.0
 11
1005.179046290153
 21
403.913391997001
 31
0.0
  0
LINE
  5
2C9D
330
31FF
100
AcDbEntity
  8
0
  6
Continuous
100
AcDbLine
 10
913.6790435632407
 20
419.413392458936
 30
0.0
 11
1005.179046290153
 21
419.413392458936
 31
0.0
  0
LINE
  5
2CA0
330
31FF
100
AcDbEntity
  8
0
  6
Continuous
100
AcDbLine
 10
1005.179046290153
 20
403.913391997001
 30
0.0
 11
1005.179046290153
 21
419.413392458936
 31
0.0
  0
LINE
  5
2CA3
330
31FF
100
AcDbEntity
  8
0
  6
Continuous
100
AcDbLine
 10
998.9290372973069
 20
485.1633767158609
 30
0.0
 11
998.9290372973025
 21
422.1633922279679
 31
0.0
  0
LINE
  5
2CBF
330
31FF
100
AcDbEntity
  8
0
  6
Continuous
100
AcDbLine
 10
1011.929046491318
 20
502.1633772224991
 30
0.0
 11
906.9290433620748
 21
502.1633772224991
 31
0.0
  0
LINE
  5
2CC0
330
31FF
100
AcDbEntity
  8
0
  6
Continuous
100
AcDbLine
 10
1011.929046491318
 20
485.1633767158601
 30
0.0
 11
906.9290433620748
 21
485.1633767158601
 31
0.0
  0
LINE
  5
2CC5
330
31FF
100
AcDbEntity
  8
0
  6
Continuous
100
AcDbLine
 10
1011.929046491318
 20
485.1633767158601
 30
0.0
 11
1011.929046491318
 21
502.1633772224991
 31
0.0
  0
LINE
  5
2CE0
330
31FF
100
AcDbEntity
  8
0
  6
Continuous
100
AcDbLine
 10
919.9290296679087
 20
485.1633767158601
 30
0.0
 11
919.9290296679087
 21
422.1633922279679
 31
0.0
  0
LINE
  5
2CE2
330
31FF
100
AcDbEntity
  8
0
  6
Continuous
100
AcDbLine
 10
859.8268642363617
 20
396.163422745547
 30
0.0
 11
927.1790449266967
 21
396.163422745547
 31
0.0
  0
LINE
  5
2D0A
330
31FF
100
AcDbEntity
  8
0
  6
Continuous
100
AcDbLine
 10
913.67904356324
 20
403.913391997001
 30
0.0
 11
913.6790435632407
 21
419.413392458936
 31
0.0
  0
LINE
  5
2D26
330
31FF
100
AcDbEntity
  8
0
  6
Continuous
100
AcDbLine
 10
857.2790780590112
 20
403.1634074867569
 30
0.0
 11
859.8268642363617
 21
396.163422745547
 31
0.0
  0
LINE
  5
2D29
330
31FF
100
AcDbEntity
  8
0
  6
Continuous
100
AcDbLine
 10
854.4290678148801
 20
403.1634074867569
 30
0.0
 11
857.2790780590112
 21
403.1634074867569
 31
0.0
  0
LINE
  5
2D7F
330
31FF
100
AcDbEntity
  8
0
  6
Continuous
100
AcDbLine
 10
906.9290433620748
 20
485.1633767158601
 30
0.0
 11
906.9290433620748
 21
502.1633772224991
 31
0.0
  0
LINE
  5
2D83
330
31FF
100
AcDbEntity
  8
0
  6
Continuous
100
AcDbLine
 10
859.8268339326658
 20
332.6634074867578
 30
0.0
 11
859.8268642363617
 21
396.163422745547
 31
0.0
  0
TEXT
  5
3159
330
31FF
100
AcDbEntity
  8
0
  6
Continuous
100
AcDbText
 10
463.5771679401446
 20
1347.762094478149
 30
0.0
 40
48.000002
  1
WFC__13MA100 2.5S
 41
1.32095
100
AcDbText
  0
LINE
  5
317D
330
31FF
100
AcDbEntity
  8
0
100
AcDbLine
 10
1013.429035482604
 20
762.1634074867581
 30
0.0
 11
1013.429035482604
 21
729.0820074867577
 31
0.0
  0
LINE
  5
317E
330
31FF
100
AcDbEntity
  8
0
100
AcDbLine
 10
905.4290354826049
 20
762.1634074867581
 30
0.0
 11
905.4290354826049
 21
729.0820074867577
 31
0.0
  0
LINE
  5
317F
330
31FF
100
AcDbEntity
  8
0
100
AcDbLine
 10
1001.929031482605
 20
709.1634074867581
 30
0.0
 11
916.9290354826058
 21
709.1634074867581
 31
0.0
  0
LINE
  5
3180
330
31FF
100
AcDbEntity
  8
0
100
AcDbLine
 10
905.4290344826053
 20
729.0820084867581
 30
0.0
 11
916.9290414826047
 21
709.1634108693217
 31
0.0
  0
LINE
  5
3181
330
31FF
100
AcDbEntity
  8
0
100
AcDbLine
 10
1013.429036482605
 20
729.0820084867581
 30
0.0
 11
1001.929030482605
 21
709.1634125211339
 31
0.0
  0
LINE
  5
3182
330
31FF
100
AcDbEntity
  8
0
100
AcDbLine
 10
1008.844150482604
 20
827.730327486758
 30
0.0
 11
1013.429035482604
 21
762.1634084867581
 31
0.0
  0
LINE
  5
3183
330
31FF
100
AcDbEntity
  8
0
100
AcDbLine
 10
910.0139204826048
 20
827.730327486758
 30
0.0
 11
905.4290354826049
 21
762.1634084867581
 31
0.0
  0
LINE
  5
3184
330
31FF
100
AcDbEntity
  8
0
100
AcDbLine
 10
972.9290354826053
 20
830.872487486758
 30
0.0
 11
945.9290354826055
 21
830.872487486758
 31
0.0
  0
LINE
  5
3185
330
31FF
100
AcDbEntity
  8
0
100
AcDbLine
 10
972.9290354826053
 20
837.1634074867582
 30
0.0
 11
945.9290354826055
 21
837.1634074867582
 31
0.0
  0
LINE
  5
3186
330
31FF
100
AcDbEntity
  8
0
100
AcDbLine
 10
949.4290364826047
 20
870.1634074867582
 30
0.0
 11
969.4290374826062
 21
870.1634074867582
 31
0.0
  0
LINE
  5
3187
330
31FF
100
AcDbEntity
  8
0
100
AcDbLine
 10
949.4290364826047
 20
837.1634074867582
 30
0.0
 11
949.4290364826047
 21
870.1634074867582
 31
0.0
  0
LINE
  5
3188
330
31FF
100
AcDbEntity
  8
0
100
AcDbLine
 10
945.9290354826055
 20
830.872487486758
 30
0.0
 11
910.0139214826052
 21
827.7303174867581
 31
0.0
  0
LINE
  5
3189
330
31FF
100
AcDbEntity
  8
0
100
AcDbLine
 10
945.9290354826055
 20
836.1633974867581
 30
0.0
 11
945.9290354826055
 21
835.3010174867581
 31
0.0
  0
LINE
  5
318A
330
31FF
100
AcDbEntity
  8
0
100
AcDbLine
 10
945.9290354826055
 20
837.1634074867582
 30
0.0
 11
945.9290354826055
 21
830.872487486758
 31
0.0
  0
LINE
  5
318B
330
31FF
100
AcDbEntity
  8
0
100
AcDbLine
 10
969.4290374826062
 20
837.1634074867582
 30
0.0
 11
969.4290374826062
 21
870.1634074867582
 31
0.0
  0
LINE
  5
318C
330
31FF
100
AcDbEntity
  8
0
100
AcDbLine
 10
972.9290354826053
 20
830.872487486758
 30
0.0
 11
1008.844149482605
 21
827.7303174867581
 31
0.0
  0
LINE
  5
318D
330
31FF
100
AcDbEntity
  8
0
100
AcDbLine
 10
972.9290354826053
 20
836.1634074867581
 30
0.0
 11
972.9290354826053
 21
835.3010274867582
 31
0.0
  0
LINE
  5
318E
330
31FF
100
AcDbEntity
  8
0
100
AcDbLine
 10
972.9290354826053
 20
837.1634074867582
 30
0.0
 11
972.9290354826053
 21
830.872487486758
 31
0.0
  0
CIRCLE
  5
318F
330
31FF
100
AcDbEntity
  8
0
100
AcDbCircle
 10
959.4290334826046
 20
1103.353577871099
 30
0.0
 40
54.0
  0
CIRCLE
  5
3190
330
31FF
100
AcDbEntity
  8
0
100
AcDbCircle
 10
959.4290334826046
 20
1103.353577871099
 30
0.0
 40
54.0
  0
CIRCLE
  5
3191
330
31FF
100
AcDbEntity
  8
0
100
AcDbCircle
 10
959.4290334826046
 20
1103.353577871099
 30
0.0
 40
9.999999
  0
CIRCLE
  5
3192
330
31FF
100
AcDbEntity
  8
0
100
AcDbCircle
 10
959.4290334826046
 20
1103.353577871099
 30
0.0
 40
13.5
  0
CIRCLE
  5
3193
330
31FF
100
AcDbEntity
  8
0
100
AcDbCircle
 10
959.4290334826046
 20
1103.353577871099
 30
0.0
 40
9.999999
  0
CIRCLE
  5
3194
330
31FF
100
AcDbEntity
  8
0
100
AcDbCircle
 10
959.4290334826046
 20
1103.353577871099
 30
0.0
 40
13.5
  0
LINE
  5
3254
330
31FF
100
AcDbEntity
  8
0
  6
CENTER
100
AcDbLine
 10
959.4290334826046
 20
1015.748384626418
 30
0.0
 11
959.4290334826046
 21
1190.95877111578
 31
0.0
  0
LINE
  5
3255
330
31FF
100
AcDbEntity
  8
0
  6
CENTER
100
AcDbLine
 10
818.0000611594678
 20
1103.353577871099
 30
0.0
 11
1049.352396884172
 21
1103.353577871099
 31
0.0
  0
LINE
  5
3256
330
31FF
100
AcDbEntity
  8
0
  6
CENTER
100
AcDbLine
 10
818.000095491743
 20
364.413392227968
 30
0.0
 11
959.4290334826046
 21
364.413392227968
 31
0.0
  0
LINE
  5
3257
330
31FF
100
AcDbEntity
  8
0
  6
CENTER
100
AcDbLine
 10
818.0000726035595
 20
224.4133998573634
 30
0.0
 11
959.4290334826046
 21
224.4133998573634
 31
0.0
  0
LINE
  5
3258
330
31FF
100
AcDbEntity
  8
0
  6
CENTER
100
AcDbLine
 10
959.4290334826046
 20
71.05729734186616
 30
0.0
 11
959.4290334826046
 21
900.2530807410439
 31
0.0
  0
ENDSEC
  0
SECTION
  2
OBJECTS
  0
DICTIONARY
  5
31ED
330
0
100
AcDbDictionary
281
     1
  3
ACAD_GROUP
350
31EE
  3
ACAD_LAYOUT
350
31FA
  3
ACAD_MLINESTYLE
350
31F7
  3
ACAD_PLOTSETTINGS
350
31F9
  3
ACAD_PLOTSTYLENAME
350
31EF
  3
AcDbVariableDictionary
350
3245
  0
DICTIONARY
  5
324C
330
31E3
100
AcDbDictionary
280
     1
281
     1
  3
ACAD_LAYERSTATES
360
324D
  0
DICTIONARY
  5
3211
330
31FF
100
AcDbDictionary
280
     1
281
     1
  3
ACAD_LAYOUTSELFREF
360
3240
  0
DICTIONARY
  5
3213
330
31FB
100
AcDbDictionary
280
     1
281
     1
  3
ACAD_LAYOUTSELFREF
360
323F
  0
DICTIONARY
  5
31EE
102
{ACAD_REACTORS
330
31ED
102
}
330
31ED
100
AcDbDictionary
281
     1
  0
DICTIONARY
  5
31FA
102
{ACAD_REACTORS
330
31ED
102
}
330
31ED
100
AcDbDictionary
281
     1
  3
Model
350
3202
  3
ﾚｲｱｳﾄ1
350
31FE
  0
DICTIONARY
  5
31F7
102
{ACAD_REACTORS
330
31ED
102
}
330
31ED
100
AcDbDictionary
281
     1
  3
Standard
350
31F8
  0
DICTIONARY
  5
31F9
102
{ACAD_REACTORS
330
31ED
102
}
330
31ED
100
AcDbDictionary
281
     1
  0
ACDBDICTIONARYWDFLT
  5
31EF
102
{ACAD_REACTORS
330
31ED
102
}
330
31ED
100
AcDbDictionary
281
     1
  3
Normal
350
31F0
100
AcDbDictionaryWithDefault
340
31F0
  0
DICTIONARY
  5
3245
102
{ACAD_REACTORS
330
31ED
102
}
330
31ED
100
AcDbDictionary
281
     1
  3
DIMASSOC
350
3246
  0
DICTIONARY
  5
324D
102
{ACAD_REACTORS
330
324C
102
}
330
324C
100
AcDbDictionary
281
     1
  0
XRECORD
  5
3240
102
{ACAD_REACTORS
330
3211
102
}
330
3211
100
AcDbXrecord
280
     1
340
31FF
  0
XRECORD
  5
323F
102
{ACAD_REACTORS
330
3213
102
}
330
3213
100
AcDbXrecord
280
     1
340
31FB
  0
LAYOUT
  5
3202
102
{ACAD_REACTORS
330
31FA
102
}
330
31FA
100
AcDbPlotSettings
  1

  2
SII LP-2150 (D-SCAN C2)
  4

  6

 40
0.0
 41
0.0
 42
0.0
 43
0.0
 44
0.0
 45
0.0
 46
0.0
 47
0.0
 48
0.0
 49
0.0
140
0.0
141
0.0
142
1.0
143
1.0
 70
  1712
 72
     0
 73
     0
 74
     0
  7

 75
     0
147
1.0
148
0.0
149
0.0
100
AcDbLayout
  1
Model
 70
     1
 71
     0
 10
0.0
 20
0.0
 11
12.0
 21
9.0
 12
0.0
 22
0.0
 32
0.0
 14
0.0
 24
0.0
 34
0.0
 15
0.0
 25
0.0
 35
0.0
146
0.0
 13
0.0
 23
0.0
 33
0.0
 16
1.0
 26
0.0
 36
0.0
 17
0.0
 27
1.0
 37
0.0
 76
     0
330
31FF
  0
LAYOUT
  5
31FE
102
{ACAD_REACTORS
330
31FA
102
}
330
31FA
100
AcDbPlotSettings
  1

  2
SII LP-2150 (D-SCAN C2)
  4

  6

 40
0.0
 41
0.0
 42
0.0
 43
0.0
 44
0.0
 45
0.0
 46
0.0
 47
0.0
 48
0.0
 49
0.0
140
0.0
141
0.0
142
1.0
143
1.0
 70
   688
 72
     0
 73
     0
 74
     5
  7

 75
    16
147
1.0
148
0.0
149
0.0
100
AcDbLayout
  1
ﾚｲｱｳﾄ1
 70
     1
 71
     1
 10
-580.5701293945312
 20
0.0
 11
0.0
 21
407.8999938964844
 12
0.0
 22
0.0
 32
0.0
 14
-580.5701293945312
 24
0.0
 34
0.0
 15
0.0
 25
407.8999938964844
 35
0.0
146
0.0
 13
0.0
 23
0.0
 33
0.0
 16
1.0
 26
0.0
 36
0.0
 17
0.0
 27
1.0
 37
0.0
 76
     0
330
31FB
  0
MLINESTYLE
  5
31F8
102
{ACAD_REACTORS
330
31F7
102
}
330
31F7
100
AcDbMlineStyle
  2
STANDARD
 70
     0
  3

 62
   256
 51
90.0
 52
90.0
 71
     2
 49
0.5
 62
   256
  6
BYLAYER
 49
-0.5
 62
   256
  6
BYLAYER
  0
ACDBPLACEHOLDER
  5
31F0
102
{ACAD_REACTORS
330
31EF
102
}
330
31EF
  0
DICTIONARYVAR
  5
3246
102
{ACAD_REACTORS
330
3245
102
}
330
3245
100
DictionaryVariables
280
     0
  1
1
  0
ENDSEC
  0
EOF
