  0
SECTION
  2
HEADER
  9
$ACADVER
  1
AC1015
  9
$ACADMAINTVER
 70
    14
  9
$DWGCODEPAGE
  3
ANSI_932
  9
$INSBASE
 10
0.0
 20
0.0
 30
0.0
  9
$EXTMIN
 10
233.12664159026
 20
46.12566019957057
 30
-0.0000000349181948
  9
$EXTMAX
 10
1084.994827340316
 20
1092.118264102081
 30
0.0000000814935746
  9
$LIMMIN
 10
-580.5701293945312
 20
0.0
  9
$LIMMAX
 10
0.0
 20
407.8999938964844
  9
$ORTHOMODE
 70
     0
  9
$REGENMODE
 70
     1
  9
$FILLMODE
 70
     1
  9
$QTEXTMODE
 70
     0
  9
$MIRRTEXT
 70
     1
  9
$LTSCALE
 40
1.0
  9
$ATTMODE
 70
     1
  9
$TEXTSIZE
 40
0.2
  9
$TRACEWID
 40
0.05
  9
$TEXTSTYLE
  7
STANDARD
  9
$CLAYER
  8
0
  9
$CELTYPE
  6
CONTINUOUS
  9
$CECOLOR
 62
   256
  9
$CELTSCALE
 40
1.0
  9
$DISPSILH
 70
     0
  9
$DIMSCALE
 40
1.0
  9
$DIMASZ
 40
1.0
  9
$DIMEXO
 40
2.54
  9
$DIMDLI
 40
0.38
  9
$DIMRND
 40
0.0
  9
$DIMDLE
 40
0.0
  9
$DIMEXE
 40
2.54
  9
$DIMTP
 40
0.0
  9
$DIMTM
 40
0.0
  9
$DIMTXT
 40
3.200000047683714
  9
$DIMCEN
 40
0.09
  9
$DIMTSZ
 40
0.0
  9
$DIMTOL
 70
     0
  9
$DIMLIM
 70
     0
  9
$DIMTIH
 70
     0
  9
$DIMTOH
 70
     0
  9
$DIMSE1
 70
     0
  9
$DIMSE2
 70
     0
  9
$DIMTAD
 70
     1
  9
$DIMZIN
 70
     0
  9
$DIMBLK
  1

  9
$DIMASO
 70
     1
  9
$DIMSHO
 70
     0
  9
$DIMPOST
  1

  9
$DIMAPOST
  1

  9
$DIMALT
 70
     0
  9
$DIMALTD
 70
     2
  9
$DIMALTF
 40
25.4
  9
$DIMLFAC
 40
1.0
  9
$DIMTOFL
 70
     0
  9
$DIMTVP
 40
1.0
  9
$DIMTIX
 70
     0
  9
$DIMSOXD
 70
     0
  9
$DIMSAH
 70
     1
  9
$DIMBLK1
  1

  9
$DIMBLK2
  1

  9
$DIMSTYLE
  2
STANDARD
  9
$DIMCLRD
 70
     0
  9
$DIMCLRE
 70
     0
  9
$DIMCLRT
 70
     0
  9
$DIMTFAC
 40
1.0
  9
$DIMGAP
 40
1.600000023841857
  9
$DIMJUST
 70
     0
  9
$DIMSD1
 70
     0
  9
$DIMSD2
 70
     0
  9
$DIMTOLJ
 70
     1
  9
$DIMTZIN
 70
     0
  9
$DIMALTZ
 70
     0
  9
$DIMALTTZ
 70
     0
  9
$DIMUPT
 70
     0
  9
$DIMDEC
 70
     4
  9
$DIMTDEC
 70
     4
  9
$DIMALTU
 70
     2
  9
$DIMALTTD
 70
     2
  9
$DIMTXSTY
  7
STANDARD
  9
$DIMAUNIT
 70
     0
  9
$DIMADEC
 70
     0
  9
$DIMALTRND
 40
0.0
  9
$DIMAZIN
 70
     0
  9
$DIMDSEP
 70
    46
  9
$DIMATFIT
 70
     3
  9
$DIMFRAC
 70
     0
  9
$DIMLDRBLK
  1

  9
$DIMLUNIT
 70
     2
  9
$DIMLWD
 70
    -2
  9
$DIMLWE
 70
    -2
  9
$DIMTMOVE
 70
     0
  9
$LUNITS
 70
     2
  9
$LUPREC
 70
     4
  9
$SKETCHINC
 40
0.1
  9
$FILLETRAD
 40
0.0
  9
$AUNITS
 70
     0
  9
$AUPREC
 70
     0
  9
$MENU
  1
.
  9
$ELEVATION
 40
0.0
  9
$PELEVATION
 40
0.0
  9
$THICKNESS
 40
0.0
  9
$LIMCHECK
 70
     0
  9
$CHAMFERA
 40
0.0
  9
$CHAMFERB
 40
0.0
  9
$CHAMFERC
 40
0.0
  9
$CHAMFERD
 40
0.0
  9
$SKPOLY
 70
     0
  9
$TDCREATE
 40
2452717.604314595
  9
$TDUCREATE
 40
2452717.229314595
  9
$TDUPDATE
 40
2456899.681240115
  9
$TDUUPDATE
 40
2456899.306240115
  9
$TDINDWG
 40
0.1609656713
  9
$TDUSRTIMER
 40
0.1609656713
  9
$USRTIMER
 70
     1
  9
$ANGBASE
 50
0.0
  9
$ANGDIR
 70
     0
  9
$PDMODE
 70
     0
  9
$PDSIZE
 40
0.0
  9
$PLINEWID
 40
0.0
  9
$SPLFRAME
 70
     0
  9
$SPLINETYPE
 70
     6
  9
$SPLINESEGS
 70
     8
  9
$HANDSEED
  5
325D
  9
$SURFTAB1
 70
     6
  9
$SURFTAB2
 70
     6
  9
$SURFTYPE
 70
     6
  9
$SURFU
 70
     6
  9
$SURFV
 70
     6
  9
$UCSBASE
  2

  9
$UCSNAME
  2

  9
$UCSORG
 10
0.0
 20
0.0
 30
0.0
  9
$UCSXDIR
 10
1.0
 20
0.0
 30
0.0
  9
$UCSYDIR
 10
0.0
 20
1.0
 30
0.0
  9
$UCSORTHOREF
  2

  9
$UCSORTHOVIEW
 70
     0
  9
$UCSORGTOP
 10
0.0
 20
0.0
 30
0.0
  9
$UCSORGBOTTOM
 10
0.0
 20
0.0
 30
0.0
  9
$UCSORGLEFT
 10
0.0
 20
0.0
 30
0.0
  9
$UCSORGRIGHT
 10
0.0
 20
0.0
 30
0.0
  9
$UCSORGFRONT
 10
0.0
 20
0.0
 30
0.0
  9
$UCSORGBACK
 10
0.0
 20
0.0
 30
0.0
  9
$PUCSBASE
  2

  9
$PUCSNAME
  2

  9
$PUCSORG
 10
0.0
 20
0.0
 30
0.0
  9
$PUCSXDIR
 10
1.0
 20
0.0
 30
0.0
  9
$PUCSYDIR
 10
0.0
 20
1.0
 30
0.0
  9
$PUCSORTHOREF
  2

  9
$PUCSORTHOVIEW
 70
     0
  9
$PUCSORGTOP
 10
0.0
 20
0.0
 30
0.0
  9
$PUCSORGBOTTOM
 10
0.0
 20
0.0
 30
0.0
  9
$PUCSORGLEFT
 10
0.0
 20
0.0
 30
0.0
  9
$PUCSORGRIGHT
 10
0.0
 20
0.0
 30
0.0
  9
$PUCSORGFRONT
 10
0.0
 20
0.0
 30
0.0
  9
$PUCSORGBACK
 10
0.0
 20
0.0
 30
0.0
  9
$USERI1
 70
     0
  9
$USERI2
 70
     0
  9
$USERI3
 70
     0
  9
$USERI4
 70
     0
  9
$USERI5
 70
     0
  9
$USERR1
 40
0.0
  9
$USERR2
 40
0.0
  9
$USERR3
 40
0.0
  9
$USERR4
 40
0.0
  9
$USERR5
 40
0.0
  9
$WORLDVIEW
 70
     1
  9
$SHADEDGE
 70
     3
  9
$SHADEDIF
 70
    70
  9
$TILEMODE
 70
     1
  9
$MAXACTVP
 70
    48
  9
$PINSBASE
 10
0.0
 20
0.0
 30
0.0
  9
$PLIMCHECK
 70
     0
  9
$PEXTMIN
 10
-580.5701293945312
 20
0.0
 30
0.0
  9
$PEXTMAX
 10
0.0
 20
407.8999938964844
 30
0.0
  9
$PLIMMIN
 10
-580.5701293945312
 20
0.0
  9
$PLIMMAX
 10
0.0
 20
407.8999938964844
  9
$UNITMODE
 70
     0
  9
$VISRETAIN
 70
     1
  9
$PLINEGEN
 70
     0
  9
$PSLTSCALE
 70
     1
  9
$TREEDEPTH
 70
  3020
  9
$CMLSTYLE
  2
Standard
  9
$CMLJUST
 70
     0
  9
$CMLSCALE
 40
1.0
  9
$PROXYGRAPHICS
 70
     1
  9
$MEASUREMENT
 70
     0
  9
$CELWEIGHT
370
    -1
  9
$ENDCAPS
280
     0
  9
$JOINSTYLE
280
     0
  9
$LWDISPLAY
290
     0
  9
$INSUNITS
 70
     0
  9
$HYPERLINKBASE
  1

  9
$STYLESHEET
  1

  9
$XEDIT
290
     1
  9
$CEPSNTYPE
380
     0
  9
$PSTYLEMODE
290
     1
  9
$FINGERPRINTGUID
  2
{EC85937C-C72E-4131-9894-BE4D4160927C}
  9
$VERSIONGUID
  2
{F6628FF0-D50C-4D6C-9CA0-F215A2A891BA}
  9
$EXTNAMES
290
     1
  9
$PSVPSCALE
 40
0.0
  9
$OLESTARTUP
290
     0
  0
ENDSEC
  0
SECTION
  2
CLASSES
  0
CLASS
  1
ACDBDICTIONARYWDFLT
  2
AcDbDictionaryWithDefault
  3
AutoCAD 2000
 90
        0
280
     0
281
     0
  0
CLASS
  1
ACDBPLACEHOLDER
  2
AcDbPlaceHolder
  3
AutoCAD 2000
 90
        0
280
     0
281
     0
  0
CLASS
  1
LAYOUT
  2
AcDbLayout
  3
AutoCAD 2000
 90
        0
280
     0
281
     0
  0
CLASS
  1
DICTIONARYVAR
  2
AcDbDictionaryVar
  3
AutoCAD 2000
 90
        0
280
     0
281
     0
  0
CLASS
  1
LONG_TRANSACTION
  2
AcDbLongTransaction
  3
AutoCAD 2000
 90
    32768
280
     0
281
     0
  0
CLASS
  1
LWPOLYLINE
  2
AcDbPolyline
  3
AutoCAD 2000
 90
    32768
280
     0
281
     1
  0
CLASS
  1
HATCH
  2
AcDbHatch
  3
AutoCAD 2000
 90
    32768
280
     0
281
     1
  0
CLASS
  1
XRECORD
  2
AcDbXrecord
  3
AutoCAD 2000
 90
    32768
280
     0
281
     0
  0
ENDSEC
  0
SECTION
  2
TABLES
  0
TABLE
  2
VPORT
  5
31E7
330
0
100
AcDbSymbolTable
 70
     2
  0
VPORT
  5
325C
330
31E7
100
AcDbSymbolTableRecord
100
AcDbViewportTableRecord
  2
*Active
 70
     0
 10
0.0
 20
0.0
 11
1.0
 21
1.0
 12
659.0607344652881
 22
569.1219621508263
 13
0.0
 23
0.0
 14
1.0
 24
1.0
 15
0.0
 25
0.0
 16
0.0
 26
0.0
 36
1.0
 17
0.0
 27
0.0
 37
0.0
 40
1052.633826784432
 41
1.592161016949152
 42
50.0
 43
0.0
 44
0.0
 50
0.0
 51
0.0
 71
     0
 72
   100
 73
     1
 74
     3
 75
     0
 76
     0
 77
     0
 78
     0
281
     0
 65
     1
110
0.0
120
0.0
130
0.0
111
1.0
121
0.0
131
0.0
112
0.0
122
1.0
132
0.0
 79
     0
146
0.0
  0
ENDTAB
  0
TABLE
  2
LTYPE
  5
31E4
330
0
100
AcDbSymbolTable
 70
     2
  0
LTYPE
  5
31F2
330
31E4
100
AcDbSymbolTableRecord
100
AcDbLinetypeTableRecord
  2
ByBlock
 70
     0
  3

 72
    65
 73
     0
 40
0.0
  0
LTYPE
  5
31F3
330
31E4
100
AcDbSymbolTableRecord
100
AcDbLinetypeTableRecord
  2
ByLayer
 70
     0
  3

 72
    65
 73
     0
 40
0.0
  0
LTYPE
  5
31F4
330
31E4
100
AcDbSymbolTableRecord
100
AcDbLinetypeTableRecord
  2
CONTINUOUS
 70
     0
  3
Solid line
 72
    65
 73
     0
 40
0.0
  0
LTYPE
  5
3249
330
31E4
100
AcDbSymbolTableRecord
100
AcDbLinetypeTableRecord
  2
CENTER
 70
     0
  3
__ . __
 72
    65
 73
     4
 40
7.0
 49
4.0
 74
     0
 49
-1.0
 74
     0
 49
1.0
 74
     0
 49
-1.0
 74
     0
  0
ENDTAB
  0
TABLE
  2
LAYER
  5
31E1
102
{ACAD_XDICTIONARY
360
324A
102
}
330
0
100
AcDbSymbolTable
 70
     2
  0
LAYER
  5
31EF
330
31E1
100
AcDbSymbolTableRecord
100
AcDbLayerTableRecord
  2
0
 70
     0
 62
     7
  6
CONTINUOUS
370
    -3
390
31EE
  0
LAYER
  5
3202
330
31E1
100
AcDbSymbolTableRecord
100
AcDbLayerTableRecord
  2
DEFPOINTS
 70
     0
 62
     7
  6
CONTINUOUS
290
     0
370
    -3
390
31EE
  0
ENDTAB
  0
TABLE
  2
STYLE
  5
31E2
330
0
100
AcDbSymbolTable
 70
     1
  0
STYLE
  5
31F0
330
31E2
100
AcDbSymbolTableRecord
100
AcDbTextStyleTableRecord
  2
STANDARD
 70
     0
 40
0.0
 41
1.0
 50
0.0
 71
     0
 42
0.2
  3
txt
  4
BIGFONT
  0
ENDTAB
  0
TABLE
  2
VIEW
  5
31E5
330
0
100
AcDbSymbolTable
 70
     0
  0
ENDTAB
  0
TABLE
  2
UCS
  5
31E6
330
0
100
AcDbSymbolTable
 70
     0
  0
ENDTAB
  0
TABLE
  2
APPID
  5
31E8
330
0
100
AcDbSymbolTable
 70
     4
  0
APPID
  5
31F1
330
31E8
100
AcDbSymbolTableRecord
100
AcDbRegAppTableRecord
  2
ACAD
 70
     0
  0
APPID
  5
3203
330
31E8
100
AcDbSymbolTableRecord
100
AcDbRegAppTableRecord
  2
MCAD_NO_VIS
 70
     0
  0
APPID
  5
3204
330
31E8
100
AcDbSymbolTableRecord
100
AcDbRegAppTableRecord
  2
ACAD_TEMP_GRAPHIC
 70
     0
  0
APPID
  5
3205
330
31E8
100
AcDbSymbolTableRecord
100
AcDbRegAppTableRecord
  2
ACATTRIBSERVICES
 70
     0
  0
ENDTAB
  0
TABLE
  2
DIMSTYLE
  5
31E9
330
0
100
AcDbSymbolTable
 70
     1
100
AcDbDimStyleTable
 71
     0
  0
DIMSTYLE
105
3206
330
31E9
100
AcDbSymbolTableRecord
100
AcDbDimStyleTableRecord
  2
STANDARD
 70
     0
279
     2
340
31F0
  0
ENDTAB
  0
TABLE
  2
BLOCK_RECORD
  5
31E0
330
0
100
AcDbSymbolTable
 70
     2
  0
BLOCK_RECORD
  5
31FD
102
{ACAD_XDICTIONARY
360
320F
102
}
330
31E0
100
AcDbSymbolTableRecord
100
AcDbBlockTableRecord
  2
*Model_Space
340
3200
  0
BLOCK_RECORD
  5
31F9
102
{ACAD_XDICTIONARY
360
3211
102
}
330
31E0
100
AcDbSymbolTableRecord
100
AcDbBlockTableRecord
  2
*Paper_Space
340
31FC
  0
BLOCK_RECORD
  5
3209
330
31E0
100
AcDbSymbolTableRecord
100
AcDbBlockTableRecord
  2
$MODEL_SPACE
340
0
  0
BLOCK_RECORD
  5
320B
330
31E0
100
AcDbSymbolTableRecord
100
AcDbBlockTableRecord
  2
$PAPER_SPACE
340
0
  0
ENDTAB
  0
ENDSEC
  0
SECTION
  2
BLOCKS
  0
BLOCK
  5
31FE
330
31FD
100
AcDbEntity
  8
0
100
AcDbBlockBegin
  2
*Model_Space
 70
     0
 10
0.0
 20
0.0
 30
0.0
  3
*Model_Space
  1

  0
ENDBLK
  5
31FF
330
31FD
100
AcDbEntity
  8
0
100
AcDbBlockEnd
  0
BLOCK
  5
31FA
330
31F9
100
AcDbEntity
 67
     1
  8
0
100
AcDbBlockBegin
  2
*Paper_Space
 70
     0
 10
0.0
 20
0.0
 30
0.0
  3
*Paper_Space
  1

  0
ENDBLK
  5
31FB
330
31F9
100
AcDbEntity
 67
     1
  8
0
100
AcDbBlockEnd
  0
BLOCK
  5
320A
330
3209
100
AcDbEntity
  8
0
100
AcDbBlockBegin
  2
$MODEL_SPACE
 70
     0
 10
0.0
 20
0.0
 30
0.0
  3
$MODEL_SPACE
  1

  0
ENDBLK
  5
31CA
330
3209
100
AcDbEntity
  8
0
100
AcDbBlockEnd
  0
BLOCK
  5
320C
330
320B
100
AcDbEntity
  8
0
100
AcDbBlockBegin
  2
$PAPER_SPACE
 70
     0
 10
0.0
 20
0.0
 30
0.0
  3
$PAPER_SPACE
  1

  0
ENDBLK
  5
31C6
330
320B
100
AcDbEntity
  8
0
100
AcDbBlockEnd
  0
ENDSEC
  0
SECTION
  2
ENTITIES
  0
LINE
  5
17D8
330
31FD
100
AcDbEntity
  8
0
100
AcDbLine
 10
580.691306062977
 20
137.2908872692301
 30
0.0
 11
580.691306062977
 21
201.2909177868075
 31
0.0
  0
LINE
  5
17E1
330
31FD
100
AcDbEntity
  8
0
100
AcDbLine
 10
700.8413152182512
 20
197.6908811657149
 30
0.0
 11
700.8413152182498
 21
139.190881165715
 31
0.0
  0
LINE
  5
17E8
330
31FD
100
AcDbEntity
  8
0
100
AcDbLine
 10
630.6912984335832
 20
87.29091778680778
 30
0.0
 11
694.6913518393447
 21
87.29091778680778
 31
0.0
  0
LINE
  5
17EB
330
31FD
100
AcDbEntity
  8
0
100
AcDbLine
 10
700.8413152182498
 20
139.190881165715
 30
0.0
 11
624.5413350546757
 21
139.190881165715
 31
0.0
  0
LINE
  5
17ED
330
31FD
100
AcDbEntity
  8
0
100
AcDbLine
 10
688.0913152182512
 20
92.54313545566899
 30
0.0
 11
688.0913152182512
 21
135.9577327897432
 31
0.0
  0
LINE
  5
17EF
330
31FD
100
AcDbEntity
  8
0
100
AcDbLine
 10
694.6913518393447
 20
90.14091849450435
 30
0.0
 11
688.0913152182512
 21
92.54313545566899
 31
0.0
  0
LINE
  5
17F0
330
31FD
100
AcDbEntity
  8
0
100
AcDbLine
 10
694.6913518393447
 20
87.29091778680778
 30
0.0
 11
694.6913518393447
 21
90.14091849450435
 31
0.0
  0
LINE
  5
17F4
330
31FD
100
AcDbEntity
  8
0
100
AcDbLine
 10
693.6912923733316
 20
139.190881165715
 30
0.0
 11
688.0913152182512
 21
135.9577327897432
 31
0.0
  0
LINE
  5
17F8
330
31FD
100
AcDbEntity
  8
0
100
AcDbLine
 10
637.2913350546771
 20
92.54310698170412
 30
0.0
 11
637.2913350546771
 21
135.9576702990871
 31
0.0
  0
LINE
  5
17FD
330
31FD
100
AcDbEntity
  8
0
100
AcDbLine
 10
630.6912984335832
 20
87.29091778680778
 30
0.0
 11
630.6912984335822
 21
90.14089002054035
 31
0.0
  0
LINE
  5
1803
330
31FD
100
AcDbEntity
  8
0
100
AcDbLine
 10
630.6912984335822
 20
90.14089002054035
 30
0.0
 11
637.2913350546771
 21
92.54310698170412
 31
0.0
  0
LINE
  5
1805
330
31FD
100
AcDbEntity
  8
0
100
AcDbLine
 10
585.9435453541999
 20
194.6908811657151
 30
0.0
 11
624.5413350546757
 21
194.6908811657151
 31
0.0
  0
LINE
  5
1806
330
31FD
100
AcDbEntity
  8
0
100
AcDbLine
 10
585.943503259272
 20
143.8909238903239
 30
0.0
 11
624.5413350546757
 21
143.8909238903239
 31
0.0
  0
LINE
  5
182B
330
31FD
100
AcDbEntity
  8
0
100
AcDbLine
 10
631.6912496626049
 20
139.190881165715
 30
0.0
 11
637.2913350546771
 21
135.9576702990871
 31
0.0
  0
LINE
  5
182C
330
31FD
100
AcDbEntity
  8
0
100
AcDbLine
 10
630.8874959433482
 20
139.190881165715
 30
0.0
 11
627.5413350546759
 21
139.190881165715
 31
0.0
  0
LINE
  5
1863
330
31FD
100
AcDbEntity
  8
0
100
AcDbLine
 10
583.541286298107
 20
137.2908872692301
 30
0.0
 11
585.943503259272
 21
143.8909238903239
 31
0.0
  0
LINE
  5
1864
330
31FD
100
AcDbEntity
  8
0
100
AcDbLine
 10
580.691306062977
 20
137.2908872692301
 30
0.0
 11
583.541286298107
 21
137.2908872692301
 31
0.0
  0
LINE
  5
1870
330
31FD
100
AcDbEntity
  8
0
100
AcDbLine
 10
607.291266390125
 20
574.1909195660061
 30
0.0
 11
718.0912808859747
 21
574.1909195660061
 31
0.0
  0
LINE
  5
187C
330
31FD
100
AcDbEntity
  8
0
100
AcDbLine
 10
607.291266390125
 20
409.690911936611
 30
0.0
 11
718.0912808859747
 21
409.6909119366121
 31
0.0
  0
LINE
  5
1887
330
31FD
100
AcDbEntity
  8
0
100
AcDbLine
 10
700.6912919366762
 20
388.9409117205463
 30
0.0
 11
700.6912919366762
 21
403.4409121526791
 31
0.0
  0
LINE
  5
188E
330
31FD
100
AcDbEntity
  8
0
100
AcDbLine
 10
715.1912923688101
 20
197.6909114299751
 30
0.0
 11
715.1912923688101
 21
214.690911936612
 31
0.0
  0
LINE
  5
189E
330
31FD
100
AcDbEntity
  8
0
100
AcDbLine
 10
689.6912908041874
 20
338.4409119366119
 30
0.0
 11
689.6912908041874
 21
388.9408966778223
 31
0.0
  0
LINE
  5
18A0
330
31FD
100
AcDbEntity
  8
0
100
AcDbLine
 10
718.0912808859747
 20
409.6909119366121
 30
0.0
 11
718.0912808859747
 21
574.1909195660061
 31
0.0
  0
LINE
  5
18A7
330
31FD
100
AcDbEntity
  8
0
100
AcDbLine
 10
690.1912831747921
 20
403.4409271953998
 30
0.0
 11
690.1912831747921
 21
409.6909119366121
 31
0.0
  0
LINE
  5
18B3
330
31FD
100
AcDbEntity
  8
0
100
AcDbLine
 10
624.6912896716999
 20
388.9409117205439
 30
0.0
 11
624.6912896716999
 21
403.4409121526791
 31
0.0
  0
LINE
  5
18C7
330
31FD
100
AcDbEntity
  8
0
100
AcDbLine
 10
635.6912679160036
 20
338.4409119366109
 30
0.0
 11
635.6912679160036
 21
388.9409117205439
 31
0.0
  0
LINE
  5
1903
330
31FD
100
AcDbEntity
  8
0
100
AcDbLine
 10
624.5413350546757
 20
197.6909114299728
 30
0.0
 11
624.5413350546757
 21
139.190881165715
 31
0.0
  0
LINE
  5
1953
330
31FD
100
AcDbEntity
  8
0
100
AcDbLine
 10
700.6912919366762
 20
388.9409117205463
 30
0.0
 11
624.6912896716999
 21
388.9409117205439
 31
0.0
  0
LINE
  5
195B
330
31FD
100
AcDbEntity
  8
0
100
AcDbLine
 10
610.191289239566
 20
197.6909114299728
 30
0.0
 11
610.191289239566
 21
214.690911936612
 31
0.0
  0
LINE
  5
195E
330
31FD
100
AcDbEntity
  8
0
100
AcDbLine
 10
610.191289239566
 20
197.6909114299728
 30
0.0
 11
715.1912923688101
 21
197.6909114299751
 31
0.0
  0
LINE
  5
1967
330
31FD
100
AcDbEntity
  8
0
100
AcDbLine
 10
610.191289239566
 20
214.690911936612
 30
0.0
 11
715.1912923688101
 21
214.690911936612
 31
0.0
  0
LINE
  5
1969
330
31FD
100
AcDbEntity
  8
0
100
AcDbLine
 10
583.5413283930347
 20
201.2909177868075
 30
0.0
 11
585.9435453541999
 21
194.6908811657151
 31
0.0
  0
LINE
  5
196F
330
31FD
100
AcDbEntity
  8
0
100
AcDbLine
 10
580.691306062977
 20
201.2909177868075
 30
0.0
 11
583.5413283930347
 21
201.2909177868075
 31
0.0
  0
LINE
  5
1981
330
31FD
100
AcDbEntity
  8
0
100
AcDbLine
 10
635.1912755453991
 20
403.4409121526791
 30
0.0
 11
635.1912755453991
 21
409.690911936611
 31
0.0
  0
LINE
  5
1983
330
31FD
100
AcDbEntity
  8
0
100
AcDbLine
 10
700.6912919366762
 20
403.4409121526791
 30
0.0
 11
624.6912896716999
 21
403.4409121526791
 31
0.0
  0
LINE
  5
1989
330
31FD
100
AcDbEntity
  8
0
100
AcDbLine
 10
607.291266390125
 20
409.690911936611
 30
0.0
 11
607.291266390125
 21
574.1909195660061
 31
0.0
  0
LINE
  5
19ED
330
31FD
100
AcDbEntity
  8
0
  6
Continuous
100
AcDbLine
 10
585.943503259272
 20
143.8909238903239
 30
0.0
 11
585.9435453541999
 21
194.6908811657151
 31
0.0
  0
LINE
  5
19EE
330
31FD
100
AcDbEntity
  8
0
  6
Continuous
100
AcDbLine
 10
637.2913350546771
 20
92.54310698170412
 30
0.0
 11
688.0913152182512
 21
92.54313545566899
 31
0.0
  0
CIRCLE
  5
209E
330
31FD
100
AcDbEntity
  8
0
  6
Continuous
100
AcDbCircle
 10
662.691325136464
 20
910.1743063035353
 30
0.0
 40
55.40000724792481
  0
LINE
  5
20A9
330
31FD
100
AcDbEntity
  8
0
  6
Continuous
100
AcDbLine
 10
585.9435375915473
 20
884.7743276658402
 30
0.0
 11
585.943579686475
 21
935.5742849412303
 31
0.0
  0
LINE
  5
20AA
330
31FD
100
AcDbEntity
  8
0
100
AcDbLine
 10
583.5413627253111
 20
942.1743215623246
 30
0.0
 11
585.943579686475
 21
935.5742849412303
 31
0.0
  0
LINE
  5
20AB
330
31FD
100
AcDbEntity
  8
0
100
AcDbLine
 10
580.6913403952529
 20
942.1743215623246
 30
0.0
 11
583.5413627253111
 21
942.1743215623246
 31
0.0
  0
LINE
  5
20AC
330
31FD
100
AcDbEntity
  8
0
100
AcDbLine
 10
580.6913403952529
 20
878.1742910447459
 30
0.0
 11
583.5413206303837
 21
878.1742910447459
 31
0.0
  0
LINE
  5
20AD
330
31FD
100
AcDbEntity
  8
0
100
AcDbLine
 10
583.5413206303837
 20
878.1742910447459
 30
0.0
 11
585.9435375915473
 21
884.7743276658402
 31
0.0
  0
LINE
  5
20AE
330
31FD
100
AcDbEntity
  8
0
100
AcDbLine
 10
580.6913403952529
 20
878.1742910447459
 30
0.0
 11
580.6913403952529
 21
942.1743215623246
 31
0.0
  0
LINE
  5
20AF
330
31FD
100
AcDbEntity
  8
0
100
AcDbLine
 10
585.9435375915473
 20
884.7743276658402
 30
0.0
 11
613.4571714596233
 21
884.7743276658393
 31
0.0
  0
LINE
  5
20B0
330
31FD
100
AcDbEntity
  8
0
100
AcDbLine
 10
585.943579686475
 20
935.5742849412303
 30
0.0
 11
613.4571714596233
 21
935.5742849412303
 31
0.0
  0
LINE
  5
2E3A
330
31FD
100
AcDbEntity
  8
0
  6
Continuous
 62
     7
100
AcDbLine
 10
636.6913060629781
 20
214.690911936612
 30
0.0
 11
636.6913060629781
 21
323.9409119366119
 31
0.0
  0
LINE
  5
2E3B
330
31FD
100
AcDbEntity
  8
0
  6
Continuous
 62
     7
100
AcDbLine
 10
580.691306062978
 20
257.2909180401282
 30
0.0
 11
580.691306062978
 21
321.2909180401282
 31
0.0
  0
LINE
  5
2E3C
330
31FD
100
AcDbEntity
  8
0
  6
Continuous
 62
     7
100
AcDbLine
 10
688.6912755453993
 20
214.690911936612
 30
0.0
 11
688.6912755453993
 21
323.9409119366119
 31
0.0
  0
LINE
  5
2E3D
330
31FD
100
AcDbEntity
  8
0
  6
Continuous
100
AcDbLine
 10
585.94357951655
 20
314.690911936612
 30
0.0
 11
585.9435170169558
 21
263.890924143644
 31
0.0
  0
LINE
  5
2E3E
330
31FD
100
AcDbEntity
  8
0
  6
Continuous
 62
     7
100
AcDbLine
 10
585.9435170169558
 20
263.890924143644
 30
0.0
 11
636.6913060629781
 21
263.890924143644
 31
0.0
  0
LINE
  5
2E3F
330
31FD
100
AcDbEntity
  8
0
  6
Continuous
 62
     7
100
AcDbLine
 10
583.5413111632808
 20
257.2909180401282
 30
0.0
 11
585.9435170169558
 21
263.890924143644
 31
0.0
  0
LINE
  5
2E40
330
31FD
100
AcDbEntity
  8
0
  6
Continuous
 62
     7
100
AcDbLine
 10
580.691306062978
 20
257.2909180401282
 30
0.0
 11
583.5413111632808
 21
257.2909180401282
 31
0.0
  0
LINE
  5
2E41
330
31FD
100
AcDbEntity
  8
0
  6
Continuous
 62
     7
100
AcDbLine
 10
700.6912908041889
 20
323.9409119366119
 30
0.0
 11
624.6912908041878
 21
323.9409119366119
 31
0.0
  0
LINE
  5
2E42
330
31FD
100
AcDbEntity
  8
0
  6
Continuous
 62
     7
100
AcDbLine
 10
585.94357951655
 20
314.690911936612
 30
0.0
 11
636.6913060629781
 21
314.690911936612
 31
0.0
  0
LINE
  5
2E43
330
31FD
100
AcDbEntity
  8
0
  6
Continuous
 62
     7
100
AcDbLine
 10
583.5413736628749
 20
321.2909180401282
 30
0.0
 11
585.94357951655
 21
314.690911936612
 31
0.0
  0
LINE
  5
2E44
330
31FD
100
AcDbEntity
  8
0
  6
Continuous
 62
     7
100
AcDbLine
 10
580.691306062978
 20
321.2909180401282
 30
0.0
 11
583.5413736628749
 21
321.2909180401282
 31
0.0
  0
LINE
  5
2E45
330
31FD
100
AcDbEntity
  8
0
  6
Continuous
 62
     7
100
AcDbLine
 10
624.6912908041878
 20
323.9409119366119
 30
0.0
 11
624.6912908041878
 21
338.4409119366109
 31
0.0
  0
LINE
  5
2E46
330
31FD
100
AcDbEntity
  8
0
  6
Continuous
 62
     7
100
AcDbLine
 10
700.6912908041889
 20
323.9409119366119
 30
0.0
 11
700.6912908041889
 21
338.4409119366119
 31
0.0
  0
LINE
  5
2E47
330
31FD
100
AcDbEntity
  8
0
  6
Continuous
 62
     7
100
AcDbLine
 10
700.6912908041889
 20
338.4409119366119
 30
0.0
 11
624.6912908041878
 21
338.4409119366109
 31
0.0
  0
TEXT
  5
3157
330
31FD
100
AcDbEntity
  8
0
  6
Continuous
100
AcDbText
 10
233.1445707314582
 20
1044.051602459224
 30
0.0
 40
48.000002
  1
WFC__10MA100 2S
 41
1.32095
100
AcDbText
  0
LINE
  5
317D
330
31FD
100
AcDbEntity
  8
0
100
AcDbLine
 10
716.6912756380496
 20
627.1909195660059
 30
0.0
 11
716.6912756380496
 21
594.1095195660055
 31
0.0
  0
LINE
  5
317E
330
31FD
100
AcDbEntity
  8
0
100
AcDbLine
 10
608.6912756380496
 20
627.1909195660059
 30
0.0
 11
608.6912756380496
 21
594.1095195660055
 31
0.0
  0
LINE
  5
317F
330
31FD
100
AcDbEntity
  8
0
100
AcDbLine
 10
705.1912716380496
 20
574.1909195660061
 30
0.0
 11
620.1912756380502
 21
574.1909195660061
 31
0.0
  0
LINE
  5
3180
330
31FD
100
AcDbEntity
  8
0
100
AcDbLine
 10
608.6912746380496
 20
594.109520566006
 30
0.0
 11
620.1912816380492
 21
574.19092294857
 31
0.0
  0
LINE
  5
3181
330
31FD
100
AcDbEntity
  8
0
100
AcDbLine
 10
716.6912766380496
 20
594.109520566006
 30
0.0
 11
705.1912706380496
 21
574.190924600382
 31
0.0
  0
LINE
  5
3182
330
31FD
100
AcDbEntity
  8
0
100
AcDbLine
 10
712.1063906380494
 20
692.7578395660061
 30
0.0
 11
716.6912756380496
 21
627.1909205660057
 31
0.0
  0
LINE
  5
3183
330
31FD
100
AcDbEntity
  8
0
100
AcDbLine
 10
613.2761606380494
 20
692.7578395660061
 30
0.0
 11
608.6912756380496
 21
627.1909205660057
 31
0.0
  0
LINE
  5
3184
330
31FD
100
AcDbEntity
  8
0
100
AcDbLine
 10
676.1912756380496
 20
695.8999995660061
 30
0.0
 11
649.1912756380502
 21
695.8999995660061
 31
0.0
  0
LINE
  5
3185
330
31FD
100
AcDbEntity
  8
0
100
AcDbLine
 10
676.1912756380496
 20
702.1909195660062
 30
0.0
 11
649.1912756380502
 21
702.1909195660062
 31
0.0
  0
LINE
  5
3186
330
31FD
100
AcDbEntity
  8
0
100
AcDbLine
 10
652.6912766380497
 20
735.1909195660063
 30
0.0
 11
672.6912776380506
 21
735.1909195660063
 31
0.0
  0
LINE
  5
3187
330
31FD
100
AcDbEntity
  8
0
100
AcDbLine
 10
652.6912766380497
 20
702.1909195660062
 30
0.0
 11
652.6912766380497
 21
735.1909195660063
 31
0.0
  0
LINE
  5
3188
330
31FD
100
AcDbEntity
  8
0
100
AcDbLine
 10
649.1912756380502
 20
695.8999995660061
 30
0.0
 11
613.2761616380498
 21
692.7578295660062
 31
0.0
  0
LINE
  5
3189
330
31FD
100
AcDbEntity
  8
0
100
AcDbLine
 10
649.1912756380502
 20
701.1909095660063
 30
0.0
 11
649.1912756380502
 21
700.3285295660061
 31
0.0
  0
LINE
  5
318A
330
31FD
100
AcDbEntity
  8
0
100
AcDbLine
 10
649.1912756380502
 20
702.1909195660062
 30
0.0
 11
649.1912756380502
 21
695.8999995660061
 31
0.0
  0
LINE
  5
318B
330
31FD
100
AcDbEntity
  8
0
100
AcDbLine
 10
672.6912776380506
 20
702.1909195660062
 30
0.0
 11
672.6912776380506
 21
735.1909195660063
 31
0.0
  0
LINE
  5
318C
330
31FD
100
AcDbEntity
  8
0
100
AcDbLine
 10
676.1912756380496
 20
695.8999995660061
 30
0.0
 11
712.1063896380497
 21
692.7578295660062
 31
0.0
  0
LINE
  5
318D
330
31FD
100
AcDbEntity
  8
0
100
AcDbLine
 10
676.1912756380496
 20
701.1909195660061
 30
0.0
 11
676.1912756380496
 21
700.3285395660062
 31
0.0
  0
LINE
  5
318E
330
31FD
100
AcDbEntity
  8
0
100
AcDbLine
 10
676.1912756380496
 20
702.1909195660062
 30
0.0
 11
676.1912756380496
 21
695.8999995660061
 31
0.0
  0
CIRCLE
  5
318F
330
31FD
100
AcDbEntity
  8
0
100
AcDbCircle
 10
662.691325136464
 20
910.1743063035353
 30
0.0
 40
54.0
  0
CIRCLE
  5
3190
330
31FD
100
AcDbEntity
  8
0
100
AcDbCircle
 10
662.691325136464
 20
910.1743063035353
 30
0.0
 40
54.0
  0
CIRCLE
  5
3191
330
31FD
100
AcDbEntity
  8
0
100
AcDbCircle
 10
662.691325136464
 20
910.1743063035353
 30
0.0
 40
9.999999
  0
CIRCLE
  5
3192
330
31FD
100
AcDbEntity
  8
0
100
AcDbCircle
 10
662.691325136464
 20
910.1743063035353
 30
0.0
 40
13.5
  0
CIRCLE
  5
3193
330
31FD
100
AcDbEntity
  8
0
100
AcDbCircle
 10
662.691325136464
 20
910.1743063035353
 30
0.0
 40
9.999999
  0
CIRCLE
  5
3194
330
31FD
100
AcDbEntity
  8
0
100
AcDbCircle
 10
662.691325136464
 20
910.1743063035353
 30
0.0
 40
13.5
  0
LINE
  5
3252
330
31FD
100
AcDbEntity
  8
0
  6
CENTER
100
AcDbLine
 10
662.691325136464
 20
827.4486343350574
 30
0.0
 11
662.691325136464
 21
992.8999782720131
 31
0.0
  0
LINE
  5
3253
330
31FD
100
AcDbEntity
  8
0
  6
CENTER
100
AcDbLine
 10
542.3213237828304
 20
910.1743063035353
 30
0.0
 11
731.1337264604688
 21
910.1743063035353
 31
0.0
  0
LINE
  5
3254
330
31FD
100
AcDbEntity
  8
0
  6
CENTER
100
AcDbLine
 10
537.0690712067973
 20
289.2909180401283
 30
0.0
 11
662.6913251364639
 21
289.2909180401283
 31
0.0
  0
LINE
  5
3255
330
31FD
100
AcDbEntity
  8
0
  6
CENTER
100
AcDbLine
 10
537.0690712067962
 20
169.2909025280188
 30
0.0
 11
662.6913251364639
 21
169.2909025280188
 31
0.0
  0
LINE
  5
3256
330
31FD
100
AcDbEntity
  8
0
  6
CENTER
100
AcDbLine
 10
662.6913251364639
 20
46.14955651062973
 30
0.0
 11
662.6913251364639
 21
754.6086318553971
 31
0.0
  0
ENDSEC
  0
SECTION
  2
OBJECTS
  0
DICTIONARY
  5
31EB
330
0
100
AcDbDictionary
281
     1
  3
ACAD_GROUP
350
31EC
  3
ACAD_LAYOUT
350
31F8
  3
ACAD_MLINESTYLE
350
31F5
  3
ACAD_PLOTSETTINGS
350
31F7
  3
ACAD_PLOTSTYLENAME
350
31ED
  3
AcDbVariableDictionary
350
3243
  0
DICTIONARY
  5
324A
330
31E1
100
AcDbDictionary
280
     1
281
     1
  3
ACAD_LAYERSTATES
360
324B
  0
DICTIONARY
  5
320F
330
31FD
100
AcDbDictionary
280
     1
281
     1
  3
ACAD_LAYOUTSELFREF
360
323E
  0
DICTIONARY
  5
3211
330
31F9
100
AcDbDictionary
280
     1
281
     1
  3
ACAD_LAYOUTSELFREF
360
323D
  0
DICTIONARY
  5
31EC
102
{ACAD_REACTORS
330
31EB
102
}
330
31EB
100
AcDbDictionary
281
     1
  0
DICTIONARY
  5
31F8
102
{ACAD_REACTORS
330
31EB
102
}
330
31EB
100
AcDbDictionary
281
     1
  3
Model
350
3200
  3
ﾚｲｱｳﾄ1
350
31FC
  0
DICTIONARY
  5
31F5
102
{ACAD_REACTORS
330
31EB
102
}
330
31EB
100
AcDbDictionary
281
     1
  3
Standard
350
31F6
  0
DICTIONARY
  5
31F7
102
{ACAD_REACTORS
330
31EB
102
}
330
31EB
100
AcDbDictionary
281
     1
  0
ACDBDICTIONARYWDFLT
  5
31ED
102
{ACAD_REACTORS
330
31EB
102
}
330
31EB
100
AcDbDictionary
281
     1
  3
Normal
350
31EE
100
AcDbDictionaryWithDefault
340
31EE
  0
DICTIONARY
  5
3243
102
{ACAD_REACTORS
330
31EB
102
}
330
31EB
100
AcDbDictionary
281
     1
  3
DIMASSOC
350
3244
  0
DICTIONARY
  5
324B
102
{ACAD_REACTORS
330
324A
102
}
330
324A
100
AcDbDictionary
281
     1
  0
XRECORD
  5
323E
102
{ACAD_REACTORS
330
320F
102
}
330
320F
100
AcDbXrecord
280
     1
340
31FD
  0
XRECORD
  5
323D
102
{ACAD_REACTORS
330
3211
102
}
330
3211
100
AcDbXrecord
280
     1
340
31F9
  0
LAYOUT
  5
3200
102
{ACAD_REACTORS
330
31F8
102
}
330
31F8
100
AcDbPlotSettings
  1

  2
SII LP-2150 (D-SCAN C2)
  4

  6

 40
0.0
 41
0.0
 42
0.0
 43
0.0
 44
0.0
 45
0.0
 46
0.0
 47
0.0
 48
0.0
 49
0.0
140
0.0
141
0.0
142
1.0
143
1.0
 70
  1712
 72
     0
 73
     0
 74
     0
  7

 75
     0
147
1.0
148
0.0
149
0.0
100
AcDbLayout
  1
Model
 70
     1
 71
     0
 10
0.0
 20
0.0
 11
12.0
 21
9.0
 12
0.0
 22
0.0
 32
0.0
 14
0.0
 24
0.0
 34
0.0
 15
0.0
 25
0.0
 35
0.0
146
0.0
 13
0.0
 23
0.0
 33
0.0
 16
1.0
 26
0.0
 36
0.0
 17
0.0
 27
1.0
 37
0.0
 76
     0
330
31FD
  0
LAYOUT
  5
31FC
102
{ACAD_REACTORS
330
31F8
102
}
330
31F8
100
AcDbPlotSettings
  1

  2
SII LP-2150 (D-SCAN C2)
  4

  6

 40
0.0
 41
0.0
 42
0.0
 43
0.0
 44
0.0
 45
0.0
 46
0.0
 47
0.0
 48
0.0
 49
0.0
140
0.0
141
0.0
142
1.0
143
1.0
 70
   688
 72
     0
 73
     0
 74
     5
  7

 75
    16
147
1.0
148
0.0
149
0.0
100
AcDbLayout
  1
ﾚｲｱｳﾄ1
 70
     1
 71
     1
 10
-580.5701293945312
 20
0.0
 11
0.0
 21
407.8999938964844
 12
0.0
 22
0.0
 32
0.0
 14
-580.5701293945312
 24
0.0
 34
0.0
 15
0.0
 25
407.8999938964844
 35
0.0
146
0.0
 13
0.0
 23
0.0
 33
0.0
 16
1.0
 26
0.0
 36
0.0
 17
0.0
 27
1.0
 37
0.0
 76
     0
330
31F9
  0
MLINESTYLE
  5
31F6
102
{ACAD_REACTORS
330
31F5
102
}
330
31F5
100
AcDbMlineStyle
  2
STANDARD
 70
     0
  3

 62
   256
 51
90.0
 52
90.0
 71
     2
 49
0.5
 62
   256
  6
BYLAYER
 49
-0.5
 62
   256
  6
BYLAYER
  0
ACDBPLACEHOLDER
  5
31EE
102
{ACAD_REACTORS
330
31ED
102
}
330
31ED
  0
DICTIONARYVAR
  5
3244
102
{ACAD_REACTORS
330
3243
102
}
330
3243
100
DictionaryVariables
280
     0
  1
1
  0
ENDSEC
  0
EOF
