  0
SECTION
  2
HEADER
  9
$ACADVER
  1
AC1015
  9
$ACADMAINTVER
 70
    14
  9
$DWGCODEPAGE
  3
ANSI_932
  9
$INSBASE
 10
0.0
 20
0.0
 30
0.0
  9
$EXTMIN
 10
352.4576702081767
 20
131.6204643561036
 30
-0.0000000349181948
  9
$EXTMAX
 10
1204.378662980537
 20
1121.297521372121
 30
0.0000000814935746
  9
$LIMMIN
 10
-580.5701293945312
 20
0.0
  9
$LIMMAX
 10
0.0
 20
407.8999938964844
  9
$ORTHOMODE
 70
     0
  9
$REGENMODE
 70
     1
  9
$FILLMODE
 70
     1
  9
$QTEXTMODE
 70
     0
  9
$MIRRTEXT
 70
     1
  9
$LTSCALE
 40
1.0
  9
$ATTMODE
 70
     1
  9
$TEXTSIZE
 40
0.2
  9
$TRACEWID
 40
0.05
  9
$TEXTSTYLE
  7
STANDARD
  9
$CLAYER
  8
0
  9
$CELTYPE
  6
CONTINUOUS
  9
$CECOLOR
 62
   256
  9
$CELTSCALE
 40
1.0
  9
$DISPSILH
 70
     0
  9
$DIMSCALE
 40
1.0
  9
$DIMASZ
 40
1.0
  9
$DIMEXO
 40
2.54
  9
$DIMDLI
 40
0.38
  9
$DIMRND
 40
0.0
  9
$DIMDLE
 40
0.0
  9
$DIMEXE
 40
2.54
  9
$DIMTP
 40
0.0
  9
$DIMTM
 40
0.0
  9
$DIMTXT
 40
3.200000047683714
  9
$DIMCEN
 40
0.09
  9
$DIMTSZ
 40
0.0
  9
$DIMTOL
 70
     0
  9
$DIMLIM
 70
     0
  9
$DIMTIH
 70
     0
  9
$DIMTOH
 70
     0
  9
$DIMSE1
 70
     0
  9
$DIMSE2
 70
     0
  9
$DIMTAD
 70
     1
  9
$DIMZIN
 70
     0
  9
$DIMBLK
  1

  9
$DIMASO
 70
     1
  9
$DIMSHO
 70
     0
  9
$DIMPOST
  1

  9
$DIMAPOST
  1

  9
$DIMALT
 70
     0
  9
$DIMALTD
 70
     2
  9
$DIMALTF
 40
25.4
  9
$DIMLFAC
 40
1.0
  9
$DIMTOFL
 70
     0
  9
$DIMTVP
 40
1.0
  9
$DIMTIX
 70
     0
  9
$DIMSOXD
 70
     0
  9
$DIMSAH
 70
     1
  9
$DIMBLK1
  1

  9
$DIMBLK2
  1

  9
$DIMSTYLE
  2
STANDARD
  9
$DIMCLRD
 70
     0
  9
$DIMCLRE
 70
     0
  9
$DIMCLRT
 70
     0
  9
$DIMTFAC
 40
1.0
  9
$DIMGAP
 40
1.600000023841857
  9
$DIMJUST
 70
     0
  9
$DIMSD1
 70
     0
  9
$DIMSD2
 70
     0
  9
$DIMTOLJ
 70
     1
  9
$DIMTZIN
 70
     0
  9
$DIMALTZ
 70
     0
  9
$DIMALTTZ
 70
     0
  9
$DIMUPT
 70
     0
  9
$DIMDEC
 70
     4
  9
$DIMTDEC
 70
     4
  9
$DIMALTU
 70
     2
  9
$DIMALTTD
 70
     2
  9
$DIMTXSTY
  7
STANDARD
  9
$DIMAUNIT
 70
     0
  9
$DIMADEC
 70
     0
  9
$DIMALTRND
 40
0.0
  9
$DIMAZIN
 70
     0
  9
$DIMDSEP
 70
    46
  9
$DIMATFIT
 70
     3
  9
$DIMFRAC
 70
     0
  9
$DIMLDRBLK
  1

  9
$DIMLUNIT
 70
     2
  9
$DIMLWD
 70
    -2
  9
$DIMLWE
 70
    -2
  9
$DIMTMOVE
 70
     0
  9
$LUNITS
 70
     2
  9
$LUPREC
 70
     4
  9
$SKETCHINC
 40
0.1
  9
$FILLETRAD
 40
0.0
  9
$AUNITS
 70
     0
  9
$AUPREC
 70
     0
  9
$MENU
  1
.
  9
$ELEVATION
 40
0.0
  9
$PELEVATION
 40
0.0
  9
$THICKNESS
 40
0.0
  9
$LIMCHECK
 70
     0
  9
$CHAMFERA
 40
0.0
  9
$CHAMFERB
 40
0.0
  9
$CHAMFERC
 40
0.0
  9
$CHAMFERD
 40
0.0
  9
$SKPOLY
 70
     0
  9
$TDCREATE
 40
2452717.604314595
  9
$TDUCREATE
 40
2452717.229314595
  9
$TDUPDATE
 40
2456899.681257442
  9
$TDUUPDATE
 40
2456899.306257442
  9
$TDINDWG
 40
0.1604803935
  9
$TDUSRTIMER
 40
0.1604802083
  9
$USRTIMER
 70
     1
  9
$ANGBASE
 50
0.0
  9
$ANGDIR
 70
     0
  9
$PDMODE
 70
     0
  9
$PDSIZE
 40
0.0
  9
$PLINEWID
 40
0.0
  9
$SPLFRAME
 70
     0
  9
$SPLINETYPE
 70
     6
  9
$SPLINESEGS
 70
     8
  9
$HANDSEED
  5
3259
  9
$SURFTAB1
 70
     6
  9
$SURFTAB2
 70
     6
  9
$SURFTYPE
 70
     6
  9
$SURFU
 70
     6
  9
$SURFV
 70
     6
  9
$UCSBASE
  2

  9
$UCSNAME
  2

  9
$UCSORG
 10
0.0
 20
0.0
 30
0.0
  9
$UCSXDIR
 10
1.0
 20
0.0
 30
0.0
  9
$UCSYDIR
 10
0.0
 20
1.0
 30
0.0
  9
$UCSORTHOREF
  2

  9
$UCSORTHOVIEW
 70
     0
  9
$UCSORGTOP
 10
0.0
 20
0.0
 30
0.0
  9
$UCSORGBOTTOM
 10
0.0
 20
0.0
 30
0.0
  9
$UCSORGLEFT
 10
0.0
 20
0.0
 30
0.0
  9
$UCSORGRIGHT
 10
0.0
 20
0.0
 30
0.0
  9
$UCSORGFRONT
 10
0.0
 20
0.0
 30
0.0
  9
$UCSORGBACK
 10
0.0
 20
0.0
 30
0.0
  9
$PUCSBASE
  2

  9
$PUCSNAME
  2

  9
$PUCSORG
 10
0.0
 20
0.0
 30
0.0
  9
$PUCSXDIR
 10
1.0
 20
0.0
 30
0.0
  9
$PUCSYDIR
 10
0.0
 20
1.0
 30
0.0
  9
$PUCSORTHOREF
  2

  9
$PUCSORTHOVIEW
 70
     0
  9
$PUCSORGTOP
 10
0.0
 20
0.0
 30
0.0
  9
$PUCSORGBOTTOM
 10
0.0
 20
0.0
 30
0.0
  9
$PUCSORGLEFT
 10
0.0
 20
0.0
 30
0.0
  9
$PUCSORGRIGHT
 10
0.0
 20
0.0
 30
0.0
  9
$PUCSORGFRONT
 10
0.0
 20
0.0
 30
0.0
  9
$PUCSORGBACK
 10
0.0
 20
0.0
 30
0.0
  9
$USERI1
 70
     0
  9
$USERI2
 70
     0
  9
$USERI3
 70
     0
  9
$USERI4
 70
     0
  9
$USERI5
 70
     0
  9
$USERR1
 40
0.0
  9
$USERR2
 40
0.0
  9
$USERR3
 40
0.0
  9
$USERR4
 40
0.0
  9
$USERR5
 40
0.0
  9
$WORLDVIEW
 70
     1
  9
$SHADEDGE
 70
     3
  9
$SHADEDIF
 70
    70
  9
$TILEMODE
 70
     1
  9
$MAXACTVP
 70
    48
  9
$PINSBASE
 10
0.0
 20
0.0
 30
0.0
  9
$PLIMCHECK
 70
     0
  9
$PEXTMIN
 10
-580.5701293945312
 20
0.0
 30
0.0
  9
$PEXTMAX
 10
0.0
 20
407.8999938964844
 30
0.0
  9
$PLIMMIN
 10
-580.5701293945312
 20
0.0
  9
$PLIMMAX
 10
0.0
 20
407.8999938964844
  9
$UNITMODE
 70
     0
  9
$VISRETAIN
 70
     1
  9
$PLINEGEN
 70
     0
  9
$PSLTSCALE
 70
     1
  9
$TREEDEPTH
 70
  3020
  9
$CMLSTYLE
  2
Standard
  9
$CMLJUST
 70
     0
  9
$CMLSCALE
 40
1.0
  9
$PROXYGRAPHICS
 70
     1
  9
$MEASUREMENT
 70
     0
  9
$CELWEIGHT
370
    -1
  9
$ENDCAPS
280
     0
  9
$JOINSTYLE
280
     0
  9
$LWDISPLAY
290
     0
  9
$INSUNITS
 70
     0
  9
$HYPERLINKBASE
  1

  9
$STYLESHEET
  1

  9
$XEDIT
290
     1
  9
$CEPSNTYPE
380
     0
  9
$PSTYLEMODE
290
     1
  9
$FINGERPRINTGUID
  2
{1D0F1AA9-AF8C-4DDF-A4E9-B1BB16944397}
  9
$VERSIONGUID
  2
{44B32959-C526-40B5-AB11-C32CAAE5DBE4}
  9
$EXTNAMES
290
     1
  9
$PSVPSCALE
 40
0.0
  9
$OLESTARTUP
290
     0
  0
ENDSEC
  0
SECTION
  2
CLASSES
  0
CLASS
  1
ACDBDICTIONARYWDFLT
  2
AcDbDictionaryWithDefault
  3
AutoCAD 2000
 90
        0
280
     0
281
     0
  0
CLASS
  1
ACDBPLACEHOLDER
  2
AcDbPlaceHolder
  3
AutoCAD 2000
 90
        0
280
     0
281
     0
  0
CLASS
  1
LAYOUT
  2
AcDbLayout
  3
AutoCAD 2000
 90
        0
280
     0
281
     0
  0
CLASS
  1
DICTIONARYVAR
  2
AcDbDictionaryVar
  3
AutoCAD 2000
 90
        0
280
     0
281
     0
  0
CLASS
  1
LONG_TRANSACTION
  2
AcDbLongTransaction
  3
AutoCAD 2000
 90
    32768
280
     0
281
     0
  0
CLASS
  1
LWPOLYLINE
  2
AcDbPolyline
  3
AutoCAD 2000
 90
    32768
280
     0
281
     1
  0
CLASS
  1
HATCH
  2
AcDbHatch
  3
AutoCAD 2000
 90
    32768
280
     0
281
     1
  0
CLASS
  1
XRECORD
  2
AcDbXrecord
  3
AutoCAD 2000
 90
    32768
280
     0
281
     0
  0
ENDSEC
  0
SECTION
  2
TABLES
  0
TABLE
  2
VPORT
  5
31E3
330
0
100
AcDbSymbolTable
 70
     2
  0
VPORT
  5
3258
330
31E3
100
AcDbSymbolTableRecord
100
AcDbViewportTableRecord
  2
*Active
 70
     0
 10
0.0
 20
0.0
 11
1.0
 21
1.0
 12
778.4181665943568
 22
626.4589928641123
 13
0.0
 23
0.0
 14
1.0
 24
1.0
 15
0.0
 25
0.0
 16
0.0
 26
0.0
 36
1.0
 17
0.0
 27
0.0
 37
0.0
 40
995.9607208700873
 41
1.592161016949152
 42
50.0
 43
0.0
 44
0.0
 50
0.0
 51
0.0
 71
     0
 72
   100
 73
     1
 74
     3
 75
     0
 76
     0
 77
     0
 78
     0
281
     0
 65
     1
110
0.0
120
0.0
130
0.0
111
1.0
121
0.0
131
0.0
112
0.0
122
1.0
132
0.0
 79
     0
146
0.0
  0
ENDTAB
  0
TABLE
  2
LTYPE
  5
31E0
330
0
100
AcDbSymbolTable
 70
     2
  0
LTYPE
  5
31EE
330
31E0
100
AcDbSymbolTableRecord
100
AcDbLinetypeTableRecord
  2
ByBlock
 70
     0
  3

 72
    65
 73
     0
 40
0.0
  0
LTYPE
  5
31EF
330
31E0
100
AcDbSymbolTableRecord
100
AcDbLinetypeTableRecord
  2
ByLayer
 70
     0
  3

 72
    65
 73
     0
 40
0.0
  0
LTYPE
  5
31F0
330
31E0
100
AcDbSymbolTableRecord
100
AcDbLinetypeTableRecord
  2
CONTINUOUS
 70
     0
  3
Solid line
 72
    65
 73
     0
 40
0.0
  0
LTYPE
  5
3245
330
31E0
100
AcDbSymbolTableRecord
100
AcDbLinetypeTableRecord
  2
CENTER
 70
     0
  3
__ . __
 72
    65
 73
     4
 40
7.0
 49
4.0
 74
     0
 49
-1.0
 74
     0
 49
1.0
 74
     0
 49
-1.0
 74
     0
  0
ENDTAB
  0
TABLE
  2
LAYER
  5
31DD
102
{ACAD_XDICTIONARY
360
3246
102
}
330
0
100
AcDbSymbolTable
 70
     2
  0
LAYER
  5
31EB
330
31DD
100
AcDbSymbolTableRecord
100
AcDbLayerTableRecord
  2
0
 70
     0
 62
     7
  6
CONTINUOUS
370
    -3
390
31EA
  0
LAYER
  5
31FE
330
31DD
100
AcDbSymbolTableRecord
100
AcDbLayerTableRecord
  2
DEFPOINTS
 70
     0
 62
     7
  6
CONTINUOUS
290
     0
370
    -3
390
31EA
  0
ENDTAB
  0
TABLE
  2
STYLE
  5
31DE
330
0
100
AcDbSymbolTable
 70
     1
  0
STYLE
  5
31EC
330
31DE
100
AcDbSymbolTableRecord
100
AcDbTextStyleTableRecord
  2
STANDARD
 70
     0
 40
0.0
 41
1.0
 50
0.0
 71
     0
 42
0.2
  3
txt
  4
BIGFONT
  0
ENDTAB
  0
TABLE
  2
VIEW
  5
31E1
330
0
100
AcDbSymbolTable
 70
     0
  0
ENDTAB
  0
TABLE
  2
UCS
  5
31E2
330
0
100
AcDbSymbolTable
 70
     0
  0
ENDTAB
  0
TABLE
  2
APPID
  5
31E4
330
0
100
AcDbSymbolTable
 70
     4
  0
APPID
  5
31ED
330
31E4
100
AcDbSymbolTableRecord
100
AcDbRegAppTableRecord
  2
ACAD
 70
     0
  0
APPID
  5
31FF
330
31E4
100
AcDbSymbolTableRecord
100
AcDbRegAppTableRecord
  2
MCAD_NO_VIS
 70
     0
  0
APPID
  5
3200
330
31E4
100
AcDbSymbolTableRecord
100
AcDbRegAppTableRecord
  2
ACAD_TEMP_GRAPHIC
 70
     0
  0
APPID
  5
3201
330
31E4
100
AcDbSymbolTableRecord
100
AcDbRegAppTableRecord
  2
ACATTRIBSERVICES
 70
     0
  0
ENDTAB
  0
TABLE
  2
DIMSTYLE
  5
31E5
330
0
100
AcDbSymbolTable
 70
     1
100
AcDbDimStyleTable
 71
     0
  0
DIMSTYLE
105
3202
330
31E5
100
AcDbSymbolTableRecord
100
AcDbDimStyleTableRecord
  2
STANDARD
 70
     0
279
     2
340
31EC
  0
ENDTAB
  0
TABLE
  2
BLOCK_RECORD
  5
31DC
330
0
100
AcDbSymbolTable
 70
     2
  0
BLOCK_RECORD
  5
31F9
102
{ACAD_XDICTIONARY
360
320B
102
}
330
31DC
100
AcDbSymbolTableRecord
100
AcDbBlockTableRecord
  2
*Model_Space
340
31FC
  0
BLOCK_RECORD
  5
31F5
102
{ACAD_XDICTIONARY
360
320D
102
}
330
31DC
100
AcDbSymbolTableRecord
100
AcDbBlockTableRecord
  2
*Paper_Space
340
31F8
  0
BLOCK_RECORD
  5
3205
330
31DC
100
AcDbSymbolTableRecord
100
AcDbBlockTableRecord
  2
$MODEL_SPACE
340
0
  0
BLOCK_RECORD
  5
3207
330
31DC
100
AcDbSymbolTableRecord
100
AcDbBlockTableRecord
  2
$PAPER_SPACE
340
0
  0
ENDTAB
  0
ENDSEC
  0
SECTION
  2
BLOCKS
  0
BLOCK
  5
31FA
330
31F9
100
AcDbEntity
  8
0
100
AcDbBlockBegin
  2
*Model_Space
 70
     0
 10
0.0
 20
0.0
 30
0.0
  3
*Model_Space
  1

  0
ENDBLK
  5
31FB
330
31F9
100
AcDbEntity
  8
0
100
AcDbBlockEnd
  0
BLOCK
  5
31F6
330
31F5
100
AcDbEntity
 67
     1
  8
0
100
AcDbBlockBegin
  2
*Paper_Space
 70
     0
 10
0.0
 20
0.0
 30
0.0
  3
*Paper_Space
  1

  0
ENDBLK
  5
31F7
330
31F5
100
AcDbEntity
 67
     1
  8
0
100
AcDbBlockEnd
  0
BLOCK
  5
3206
330
3205
100
AcDbEntity
  8
0
100
AcDbBlockBegin
  2
$MODEL_SPACE
 70
     0
 10
0.0
 20
0.0
 30
0.0
  3
$MODEL_SPACE
  1

  0
ENDBLK
  5
31C6
330
3205
100
AcDbEntity
  8
0
100
AcDbBlockEnd
  0
BLOCK
  5
3208
330
3207
100
AcDbEntity
  8
0
100
AcDbBlockBegin
  2
$PAPER_SPACE
 70
     0
 10
0.0
 20
0.0
 30
0.0
  3
$PAPER_SPACE
  1

  0
ENDBLK
  5
31C2
330
3207
100
AcDbEntity
  8
0
100
AcDbBlockEnd
  0
ENDSEC
  0
SECTION
  2
ENTITIES
  0
LINE
  5
135
330
31F9
100
AcDbEntity
  8
0
100
AcDbLine
 10
745.838172708647
 20
159.7279513987819
 30
0.0
 11
745.838172708647
 21
186.5954882049366
 31
0.0
  0
LINE
  5
139
330
31F9
100
AcDbEntity
  8
0
100
AcDbLine
 10
745.838172708647
 20
186.5954882049366
 30
0.0
 11
739.2343380525463
 21
190.4082139897518
 31
0.0
  0
LINE
  5
13B
330
31F9
100
AcDbEntity
  8
0
100
AcDbLine
 10
710.9559865292167
 20
220.0101650912308
 30
0.0
 11
732.0382001744673
 21
220.0101650912308
 31
0.0
  0
LINE
  5
13F
330
31F9
100
AcDbEntity
  8
0
100
AcDbLine
 10
732.0382001744673
 20
240.0601223666204
 30
0.0
 11
732.0382001744673
 21
190.8101528841999
 31
0.0
  0
LINE
  5
147
330
31F9
100
AcDbEntity
  8
0
100
AcDbLine
 10
785.0381696568891
 20
240.0601223666204
 30
0.0
 11
785.0381696568891
 21
190.8101528841999
 31
0.0
  0
LINE
  5
148
330
31F9
100
AcDbEntity
  8
0
100
AcDbLine
 10
771.2381971227094
 20
159.7279801310237
 30
0.0
 11
771.2381971227094
 21
186.5954677499198
 31
0.0
  0
LINE
  5
149
330
31F9
100
AcDbEntity
  8
0
100
AcDbLine
 10
732.0382001744673
 20
190.8101528841999
 30
0.0
 11
785.0381696568891
 21
190.8101528841999
 31
0.0
  0
LINE
  5
14A
330
31F9
100
AcDbEntity
  8
0
100
AcDbLine
 10
771.2381971227094
 20
186.5954677499198
 30
0.0
 11
777.8420508630113
 21
190.408204553004
 31
0.0
  0
LINE
  5
150
330
31F9
100
AcDbEntity
  8
0
100
AcDbLine
 10
733.288169656889
 20
152.3101223666206
 30
0.0
 11
783.7882001744673
 21
152.3101223666206
 31
0.0
  0
LINE
  5
151
330
31F9
100
AcDbEntity
  8
0
100
AcDbLine
 10
733.288169656889
 20
152.3101223666206
 30
0.0
 11
733.288169656889
 21
155.1601236844259
 31
0.0
  0
LINE
  5
153
330
31F9
100
AcDbEntity
  8
0
100
AcDbLine
 10
733.288169656889
 20
155.1601236844259
 30
0.0
 11
745.838172708647
 21
159.7279513987819
 31
0.0
  0
LINE
  5
154
330
31F9
100
AcDbEntity
  8
0
100
AcDbLine
 10
783.7882001744673
 20
152.3101223666206
 30
0.0
 11
783.7882001744673
 21
155.1601524166678
 31
0.0
  0
LINE
  5
155
330
31F9
100
AcDbEntity
  8
0
100
AcDbLine
 10
783.7882001744673
 20
155.1601524166678
 30
0.0
 11
771.2381971227094
 21
159.7279801310237
 31
0.0
  0
LINE
  5
156
330
31F9
100
AcDbEntity
  8
0
100
AcDbLine
 10
771.2381971227094
 20
161.1283901888868
 30
0.0
 11
771.2381971227094
 21
178.2601040560739
 31
0.0
  0
LINE
  5
15C
330
31F9
100
AcDbEntity
  8
0
100
AcDbLine
 10
703.5382001744673
 20
232.5601223666219
 30
0.0
 11
703.5382001744673
 21
182.0600918490429
 31
0.0
  0
LINE
  5
15D
330
31F9
100
AcDbEntity
  8
0
100
AcDbLine
 10
703.5382001744673
 20
232.5601223666219
 30
0.0
 11
706.3881754760958
 21
232.5601223666219
 31
0.0
  0
LINE
  5
15E
330
31F9
100
AcDbEntity
  8
0
100
AcDbLine
 10
706.3881754760958
 20
232.5601223666219
 30
0.0
 11
710.9559865292167
 21
220.0101650912308
 31
0.0
  0
LINE
  5
15F
330
31F9
100
AcDbEntity
  8
0
100
AcDbLine
 10
703.5382001744673
 20
182.0600918490429
 30
0.0
 11
706.3881938980848
 21
182.0600918490429
 31
0.0
  0
LINE
  5
160
330
31F9
100
AcDbEntity
  8
0
100
AcDbLine
 10
706.3881938980848
 20
182.0600918490429
 30
0.0
 11
710.9560382736767
 21
194.6101406771678
 31
0.0
  0
LINE
  5
161
330
31F9
100
AcDbEntity
  8
0
100
AcDbLine
 10
710.9560382736767
 20
194.6101406771678
 30
0.0
 11
732.0382001744673
 21
194.6101406771678
 31
0.0
  0
LINE
  5
17A
330
31F9
100
AcDbEntity
  8
0
100
AcDbLine
 10
720.5381696568892
 20
240.0601223666204
 30
0.0
 11
720.5381696568892
 21
254.5601528841999
 31
0.0
  0
LINE
  5
182
330
31F9
100
AcDbEntity
  8
0
100
AcDbLine
 10
796.5381696568895
 20
240.0601223666217
 30
0.0
 11
796.5381696568895
 21
254.5601528841999
 31
0.0
  0
LINE
  5
184
330
31F9
100
AcDbEntity
  8
0
100
AcDbLine
 10
796.5381696568895
 20
254.5601528841999
 30
0.0
 11
720.5381696568892
 21
254.5601528841999
 31
0.0
  0
LINE
  5
185
330
31F9
100
AcDbEntity
  8
0
100
AcDbLine
 10
796.5381696568895
 20
240.0601223666217
 30
0.0
 11
720.5381696568892
 21
240.0601223666204
 31
0.0
  0
LINE
  5
1CB
330
31F9
100
AcDbEntity
  8
0
100
AcDbLine
 10
731.5382383214398
 20
324.0604702670117
 30
0.0
 11
731.5382383214398
 21
373.5604244906448
 31
0.0
  0
LINE
  5
1DB
330
31F9
100
AcDbEntity
  8
0
100
AcDbLine
 10
785.5382383214398
 20
324.0604702670117
 30
0.0
 11
785.5382383214398
 21
373.5604244906448
 31
0.0
  0
LINE
  5
1EB
330
31F9
100
AcDbEntity
  8
0
100
AcDbLine
 10
731.0382688390181
 20
388.0604244906448
 30
0.0
 11
731.0382688390181
 21
394.3103939730671
 31
0.0
  0
LINE
  5
1EE
330
31F9
100
AcDbEntity
  8
0
100
AcDbLine
 10
786.0382535802291
 20
388.0604244906448
 30
0.0
 11
786.0382535802291
 21
394.3103939730671
 31
0.0
  0
LINE
  5
1F1
330
31F9
100
AcDbEntity
  8
0
100
AcDbLine
 10
713.9882352696822
 20
394.3103939730671
 30
0.0
 11
713.9882428990765
 21
558.810302420332
 31
0.0
  0
LINE
  5
1F6
330
31F9
100
AcDbEntity
  8
0
100
AcDbLine
 10
713.9882428990765
 20
558.810302420332
 30
0.0
 11
803.0882490025923
 21
558.810302420332
 31
0.0
  0
LINE
  5
1FB
330
31F9
100
AcDbEntity
  8
0
100
AcDbLine
 10
803.0882413731978
 20
394.3103939730671
 30
0.0
 11
803.0882490025923
 21
558.810302420332
 31
0.0
  0
LINE
  5
1FC
330
31F9
100
AcDbEntity
  8
0
100
AcDbLine
 10
713.9882352696822
 20
394.3103939730671
 30
0.0
 11
803.0882413731978
 21
394.3103939730671
 31
0.0
  0
LINE
  5
203
330
31F9
100
AcDbEntity
  8
0
100
AcDbLine
 10
720.5382383214399
 20
388.0604244906448
 30
0.0
 11
720.5382383214399
 21
373.5604244906448
 31
0.0
  0
LINE
  5
20B
330
31F9
100
AcDbEntity
  8
0
100
AcDbLine
 10
796.5382383214398
 20
388.0604244906448
 30
0.0
 11
796.5382383214398
 21
373.5604244906448
 31
0.0
  0
LINE
  5
20D
330
31F9
100
AcDbEntity
  8
0
100
AcDbLine
 10
796.5382383214398
 20
373.5604244906448
 30
0.0
 11
720.5382383214399
 21
373.5604244906448
 31
0.0
  0
LINE
  5
20E
330
31F9
100
AcDbEntity
  8
0
100
AcDbLine
 10
796.5382383214398
 20
388.0604244906448
 30
0.0
 11
720.5382383214399
 21
388.0604244906448
 31
0.0
  0
LINE
  5
9E7
330
31F9
100
AcDbEntity
  8
0
  6
Continuous
100
AcDbLine
 10
745.838172708647
 20
159.7279513987819
 30
0.0
 11
771.2381971227094
 21
159.7279801310237
 31
0.0
  0
LINE
  5
9E8
330
31F9
100
AcDbEntity
  8
0
  6
Continuous
100
AcDbLine
 10
710.9560382736767
 20
194.6101406771678
 30
0.0
 11
710.9559865292167
 21
220.0101650912308
 31
0.0
  0
TEXT
  5
1104
330
31F9
100
AcDbEntity
  8
0
  6
Continuous
100
AcDbText
 10
352.5211195382766
 20
1073.229078714392
 30
0.0
 40
48.000002
  1
WFC__08MA100 1S
 41
1.32095
100
AcDbText
  0
CIRCLE
  5
209F
330
31F9
100
AcDbEntity
  8
0
  6
Continuous
100
AcDbCircle
 10
758.5381849156782
 20
910.5096013531053
 30
0.0
 40
44.55000305175781
  0
LINE
  5
20B1
330
31F9
100
AcDbEntity
  8
0
  6
Continuous
100
AcDbLine
 10
710.9560382736767
 20
897.8096349224406
 30
0.0
 11
710.9559865292167
 21
923.209659336504
 31
0.0
  0
LINE
  5
20B2
330
31F9
100
AcDbEntity
  8
0
100
AcDbLine
 10
703.5382001744673
 20
935.7596166118945
 30
0.0
 11
703.5382001744673
 21
885.2595860943159
 31
0.0
  0
LINE
  5
20B3
330
31F9
100
AcDbEntity
  8
0
100
AcDbLine
 10
706.3881938980848
 20
885.2595860943159
 30
0.0
 11
710.9560382736767
 21
897.8096349224406
 31
0.0
  0
LINE
  5
20B4
330
31F9
100
AcDbEntity
  8
0
100
AcDbLine
 10
703.5382001744673
 20
885.2595860943159
 30
0.0
 11
706.3881938980848
 21
885.2595860943159
 31
0.0
  0
LINE
  5
20B5
330
31F9
100
AcDbEntity
  8
0
100
AcDbLine
 10
706.3881754760958
 20
935.7596166118945
 30
0.0
 11
710.9559865292167
 21
923.209659336504
 31
0.0
  0
LINE
  5
20B6
330
31F9
100
AcDbEntity
  8
0
100
AcDbLine
 10
703.5382001744673
 20
935.7596166118945
 30
0.0
 11
706.3881754760958
 21
935.7596166118945
 31
0.0
  0
LINE
  5
20B7
330
31F9
100
AcDbEntity
  8
0
100
AcDbLine
 10
710.9560382736767
 20
897.8096349224406
 30
0.0
 11
715.8367373456997
 21
897.8096349224406
 31
0.0
  0
LINE
  5
20B8
330
31F9
100
AcDbEntity
  8
0
100
AcDbLine
 10
710.9559865292167
 20
923.209659336504
 30
0.0
 11
715.8367645747817
 21
923.209659336504
 31
0.0
  0
LINE
  5
2E18
330
31F9
100
AcDbEntity
  8
0
100
AcDbLine
 10
703.5378415929244
 20
312.5604397494337
 30
0.0
 11
703.5378415929244
 21
262.0601650912306
 31
0.0
  0
LINE
  5
2E19
330
31F9
100
AcDbEntity
  8
0
100
AcDbLine
 10
706.3878927036299
 20
312.5604397494337
 30
0.0
 11
710.9557592942024
 21
300.0103298861528
 31
0.0
  0
LINE
  5
2E1A
330
31F9
100
AcDbEntity
  8
0
100
AcDbLine
 10
706.3879020598992
 20
262.0601650912306
 30
0.0
 11
710.9557686504716
 21
274.6102749545116
 31
0.0
  0
LINE
  5
2E1B
330
31F9
100
AcDbEntity
  8
0
100
AcDbLine
 10
703.5378415929244
 20
262.0601650912306
 30
0.0
 11
706.3879020598992
 21
262.0601650912306
 31
0.0
  0
LINE
  5
2E1C
330
31F9
100
AcDbEntity
  8
0
  6
Continuous
100
AcDbLine
 10
710.9557592942024
 20
300.0103298861528
 30
0.0
 11
710.9557686504716
 21
274.6102749545116
 31
0.0
  0
LINE
  5
2E1D
330
31F9
100
AcDbEntity
  8
0
100
AcDbLine
 10
703.5378415929244
 20
312.5604397494337
 30
0.0
 11
706.3878927036299
 21
312.5604397494337
 31
0.0
  0
LINE
  5
2E1E
330
31F9
100
AcDbEntity
  8
0
100
AcDbLine
 10
742.0381467687056
 20
254.5601528841999
 30
0.0
 11
742.0381467687056
 21
309.5603787142778
 31
0.0
  0
LINE
  5
2E1F
330
31F9
100
AcDbEntity
  8
0
100
AcDbLine
 10
710.9557686504716
 20
274.6102749545116
 30
0.0
 11
742.0381467687056
 21
274.6102749545116
 31
0.0
  0
LINE
  5
2E20
330
31F9
100
AcDbEntity
  8
0
100
AcDbLine
 10
710.9557592942024
 20
300.0103298861528
 30
0.0
 11
742.0381467687056
 21
300.0103298861528
 31
0.0
  0
LINE
  5
2E21
330
31F9
100
AcDbEntity
  8
0
100
AcDbLine
 10
775.0383146153851
 20
254.5601528841999
 30
0.0
 11
775.0383146153851
 21
309.3048550326366
 31
0.0
  0
LINE
  5
2E22
330
31F9
100
AcDbEntity
  8
0
100
AcDbLine
 10
789.7883909093307
 20
309.5603787142778
 30
0.0
 11
727.2880857335494
 21
309.5603787142778
 31
0.0
  0
LINE
  5
2E23
330
31F9
100
AcDbEntity
  8
0
100
AcDbLine
 10
727.2880857335494
 20
324.0604702670117
 30
0.0
 11
727.2880857335494
 21
309.5603787142778
 31
0.0
  0
LINE
  5
2E24
330
31F9
100
AcDbEntity
  8
0
100
AcDbLine
 10
789.7883909093307
 20
324.0604702670117
 30
0.0
 11
727.2880857335494
 21
324.0604702670117
 31
0.0
  0
LINE
  5
2E25
330
31F9
100
AcDbEntity
  8
0
100
AcDbLine
 10
789.7883909093307
 20
324.0604702670117
 30
0.0
 11
789.7883909093307
 21
309.5603787142778
 31
0.0
  0
LINE
  5
317D
330
31F9
100
AcDbEntity
  8
0
100
AcDbLine
 10
812.5382479508342
 20
611.8103024203321
 30
0.0
 11
812.5382479508342
 21
578.7289024203314
 31
0.0
  0
LINE
  5
317E
330
31F9
100
AcDbEntity
  8
0
100
AcDbLine
 10
704.5382479508344
 20
611.8103024203321
 30
0.0
 11
704.5382479508344
 21
578.7289024203314
 31
0.0
  0
LINE
  5
317F
330
31F9
100
AcDbEntity
  8
0
100
AcDbLine
 10
801.0382439508344
 20
558.810302420332
 30
0.0
 11
716.0382479508348
 21
558.810302420332
 31
0.0
  0
LINE
  5
3180
330
31F9
100
AcDbEntity
  8
0
100
AcDbLine
 10
704.5382469508345
 20
578.7289034203316
 30
0.0
 11
716.0382539508344
 21
558.8103058028957
 31
0.0
  0
LINE
  5
3181
330
31F9
100
AcDbEntity
  8
0
100
AcDbLine
 10
812.5382489508341
 20
578.7289034203316
 30
0.0
 11
801.0382429508345
 21
558.8103074547077
 31
0.0
  0
LINE
  5
3182
330
31F9
100
AcDbEntity
  8
0
100
AcDbLine
 10
807.953362950834
 20
677.3772224203319
 30
0.0
 11
812.5382479508342
 21
611.8103034203319
 31
0.0
  0
LINE
  5
3183
330
31F9
100
AcDbEntity
  8
0
100
AcDbLine
 10
709.1231329508343
 20
677.3772224203319
 30
0.0
 11
704.5382479508344
 21
611.8103034203319
 31
0.0
  0
LINE
  5
3184
330
31F9
100
AcDbEntity
  8
0
100
AcDbLine
 10
772.0382479508341
 20
680.5193824203317
 30
0.0
 11
745.0382479508348
 21
680.5193824203317
 31
0.0
  0
LINE
  5
3185
330
31F9
100
AcDbEntity
  8
0
100
AcDbLine
 10
772.0382479508341
 20
686.8103024203321
 30
0.0
 11
745.0382479508348
 21
686.8103024203321
 31
0.0
  0
LINE
  5
3186
330
31F9
100
AcDbEntity
  8
0
100
AcDbLine
 10
748.5382489508341
 20
719.8103024203321
 30
0.0
 11
768.5382499508348
 21
719.8103024203321
 31
0.0
  0
LINE
  5
3187
330
31F9
100
AcDbEntity
  8
0
100
AcDbLine
 10
748.5382489508341
 20
686.8103024203321
 30
0.0
 11
748.5382489508341
 21
719.8103024203321
 31
0.0
  0
LINE
  5
3188
330
31F9
100
AcDbEntity
  8
0
100
AcDbLine
 10
745.0382479508348
 20
680.5193824203317
 30
0.0
 11
709.1231339508342
 21
677.377212420332
 31
0.0
  0
LINE
  5
3189
330
31F9
100
AcDbEntity
  8
0
100
AcDbLine
 10
745.0382479508348
 20
685.8102924203318
 30
0.0
 11
745.0382479508348
 21
684.9479124203319
 31
0.0
  0
LINE
  5
318A
330
31F9
100
AcDbEntity
  8
0
100
AcDbLine
 10
745.0382479508348
 20
686.8103024203321
 30
0.0
 11
745.0382479508348
 21
680.5193824203317
 31
0.0
  0
LINE
  5
318B
330
31F9
100
AcDbEntity
  8
0
100
AcDbLine
 10
768.5382499508348
 20
686.8103024203321
 30
0.0
 11
768.5382499508348
 21
719.8103024203321
 31
0.0
  0
LINE
  5
318C
330
31F9
100
AcDbEntity
  8
0
100
AcDbLine
 10
772.0382479508341
 20
680.5193824203317
 30
0.0
 11
807.9533619508339
 21
677.377212420332
 31
0.0
  0
LINE
  5
318D
330
31F9
100
AcDbEntity
  8
0
100
AcDbLine
 10
772.0382479508341
 20
685.8103024203321
 30
0.0
 11
772.0382479508341
 21
684.9479224203319
 31
0.0
  0
LINE
  5
318E
330
31F9
100
AcDbEntity
  8
0
100
AcDbLine
 10
772.0382479508341
 20
686.8103024203321
 30
0.0
 11
772.0382479508341
 21
680.5193824203317
 31
0.0
  0
CIRCLE
  5
318F
330
31F9
100
AcDbEntity
  8
0
100
AcDbCircle
 10
758.5381849156782
 20
910.5096013531053
 30
0.0
 40
54.0
  0
CIRCLE
  5
3190
330
31F9
100
AcDbEntity
  8
0
100
AcDbCircle
 10
758.5381849156782
 20
910.5096013531053
 30
0.0
 40
54.0
  0
CIRCLE
  5
3191
330
31F9
100
AcDbEntity
  8
0
100
AcDbCircle
 10
758.5381849156782
 20
910.5096013531053
 30
0.0
 40
9.999999
  0
CIRCLE
  5
3192
330
31F9
100
AcDbEntity
  8
0
100
AcDbCircle
 10
758.5381849156782
 20
910.5096013531053
 30
0.0
 40
13.5
  0
CIRCLE
  5
3193
330
31F9
100
AcDbEntity
  8
0
100
AcDbCircle
 10
758.5381849156782
 20
910.5096013531053
 30
0.0
 40
9.999999
  0
CIRCLE
  5
3194
330
31F9
100
AcDbEntity
  8
0
100
AcDbCircle
 10
758.5381849156782
 20
910.5096013531053
 30
0.0
 40
13.5
  0
LINE
  5
324E
330
31F9
100
AcDbEntity
  8
0
  6
CENTER
100
AcDbLine
 10
758.5381849156782
 20
840.7669906785402
 30
0.0
 11
758.5381849156782
 21
980.2522120276702
 31
0.0
  0
LINE
  5
324F
330
31F9
100
AcDbEntity
  8
0
  6
CENTER
100
AcDbLine
 10
690.0957835916735
 20
910.5096013531053
 30
0.0
 11
826.9805862396829
 21
910.5096013531053
 31
0.0
  0
LINE
  5
3250
330
31F9
100
AcDbEntity
  8
0
  6
CENTER
100
AcDbLine
 10
758.5381696568893
 20
131.6685602075672
 30
0.0
 11
758.5381696568893
 21
747.2473083995073
 31
0.0
  0
LINE
  5
3251
330
31F9
100
AcDbEntity
  8
0
  6
CENTER
100
AcDbLine
 10
690.0954250101307
 20
287.3103024203321
 30
0.0
 11
758.5381696568893
 21
287.3103024203321
 31
0.0
  0
LINE
  5
3252
330
31F9
100
AcDbEntity
  8
0
  6
CENTER
100
AcDbLine
 10
690.0957835916735
 20
207.3101071078323
 30
0.0
 11
758.5381849156782
 21
207.3101071078323
 31
0.0
  0
ENDSEC
  0
SECTION
  2
OBJECTS
  0
DICTIONARY
  5
31E7
330
0
100
AcDbDictionary
281
     1
  3
ACAD_GROUP
350
31E8
  3
ACAD_LAYOUT
350
31F4
  3
ACAD_MLINESTYLE
350
31F1
  3
ACAD_PLOTSETTINGS
350
31F3
  3
ACAD_PLOTSTYLENAME
350
31E9
  3
AcDbVariableDictionary
350
323F
  0
DICTIONARY
  5
3246
330
31DD
100
AcDbDictionary
280
     1
281
     1
  3
ACAD_LAYERSTATES
360
3247
  0
DICTIONARY
  5
320B
330
31F9
100
AcDbDictionary
280
     1
281
     1
  3
ACAD_LAYOUTSELFREF
360
323A
  0
DICTIONARY
  5
320D
330
31F5
100
AcDbDictionary
280
     1
281
     1
  3
ACAD_LAYOUTSELFREF
360
3239
  0
DICTIONARY
  5
31E8
102
{ACAD_REACTORS
330
31E7
102
}
330
31E7
100
AcDbDictionary
281
     1
  0
DICTIONARY
  5
31F4
102
{ACAD_REACTORS
330
31E7
102
}
330
31E7
100
AcDbDictionary
281
     1
  3
Model
350
31FC
  3
ﾚｲｱｳﾄ1
350
31F8
  0
DICTIONARY
  5
31F1
102
{ACAD_REACTORS
330
31E7
102
}
330
31E7
100
AcDbDictionary
281
     1
  3
Standard
350
31F2
  0
DICTIONARY
  5
31F3
102
{ACAD_REACTORS
330
31E7
102
}
330
31E7
100
AcDbDictionary
281
     1
  0
ACDBDICTIONARYWDFLT
  5
31E9
102
{ACAD_REACTORS
330
31E7
102
}
330
31E7
100
AcDbDictionary
281
     1
  3
Normal
350
31EA
100
AcDbDictionaryWithDefault
340
31EA
  0
DICTIONARY
  5
323F
102
{ACAD_REACTORS
330
31E7
102
}
330
31E7
100
AcDbDictionary
281
     1
  3
DIMASSOC
350
3240
  0
DICTIONARY
  5
3247
102
{ACAD_REACTORS
330
3246
102
}
330
3246
100
AcDbDictionary
281
     1
  0
XRECORD
  5
323A
102
{ACAD_REACTORS
330
320B
102
}
330
320B
100
AcDbXrecord
280
     1
340
31F9
  0
XRECORD
  5
3239
102
{ACAD_REACTORS
330
320D
102
}
330
320D
100
AcDbXrecord
280
     1
340
31F5
  0
LAYOUT
  5
31FC
102
{ACAD_REACTORS
330
31F4
102
}
330
31F4
100
AcDbPlotSettings
  1

  2
SII LP-2150 (D-SCAN C2)
  4

  6

 40
0.0
 41
0.0
 42
0.0
 43
0.0
 44
0.0
 45
0.0
 46
0.0
 47
0.0
 48
0.0
 49
0.0
140
0.0
141
0.0
142
1.0
143
1.0
 70
  1712
 72
     0
 73
     0
 74
     0
  7

 75
     0
147
1.0
148
0.0
149
0.0
100
AcDbLayout
  1
Model
 70
     1
 71
     0
 10
0.0
 20
0.0
 11
12.0
 21
9.0
 12
0.0
 22
0.0
 32
0.0
 14
0.0
 24
0.0
 34
0.0
 15
0.0
 25
0.0
 35
0.0
146
0.0
 13
0.0
 23
0.0
 33
0.0
 16
1.0
 26
0.0
 36
0.0
 17
0.0
 27
1.0
 37
0.0
 76
     0
330
31F9
  0
LAYOUT
  5
31F8
102
{ACAD_REACTORS
330
31F4
102
}
330
31F4
100
AcDbPlotSettings
  1

  2
SII LP-2150 (D-SCAN C2)
  4

  6

 40
0.0
 41
0.0
 42
0.0
 43
0.0
 44
0.0
 45
0.0
 46
0.0
 47
0.0
 48
0.0
 49
0.0
140
0.0
141
0.0
142
1.0
143
1.0
 70
   688
 72
     0
 73
     0
 74
     5
  7

 75
    16
147
1.0
148
0.0
149
0.0
100
AcDbLayout
  1
ﾚｲｱｳﾄ1
 70
     1
 71
     1
 10
-580.5701293945312
 20
0.0
 11
0.0
 21
407.8999938964844
 12
0.0
 22
0.0
 32
0.0
 14
-580.5701293945312
 24
0.0
 34
0.0
 15
0.0
 25
407.8999938964844
 35
0.0
146
0.0
 13
0.0
 23
0.0
 33
0.0
 16
1.0
 26
0.0
 36
0.0
 17
0.0
 27
1.0
 37
0.0
 76
     0
330
31F5
  0
MLINESTYLE
  5
31F2
102
{ACAD_REACTORS
330
31F1
102
}
330
31F1
100
AcDbMlineStyle
  2
STANDARD
 70
     0
  3

 62
   256
 51
90.0
 52
90.0
 71
     2
 49
0.5
 62
   256
  6
BYLAYER
 49
-0.5
 62
   256
  6
BYLAYER
  0
ACDBPLACEHOLDER
  5
31EA
102
{ACAD_REACTORS
330
31E9
102
}
330
31E9
  0
DICTIONARYVAR
  5
3240
102
{ACAD_REACTORS
330
323F
102
}
330
323F
100
DictionaryVariables
280
     0
  1
1
  0
ENDSEC
  0
EOF
