  0
SECTION
  2
HEADER
  9
$ACADVER
  1
AC1015
  9
$ACADMAINTVER
 70
    14
  9
$DWGCODEPAGE
  3
ANSI_932
  9
$INSBASE
 10
0.0
 20
0.0
 30
0.0
  9
$EXTMIN
 10
339.3154460829864
 20
134.5943215764682
 30
-0.0000000349181948
  9
$EXTMAX
 10
1212.345611202378
 20
1548.094493072452
 30
0.0000000814935746
  9
$LIMMIN
 10
0.0
 20
0.0
  9
$LIMMAX
 10
12.0
 20
9.0
  9
$ORTHOMODE
 70
     0
  9
$REGENMODE
 70
     1
  9
$FILLMODE
 70
     1
  9
$QTEXTMODE
 70
     0
  9
$MIRRTEXT
 70
     1
  9
$LTSCALE
 40
1.0
  9
$ATTMODE
 70
     1
  9
$TEXTSIZE
 40
0.2
  9
$TRACEWID
 40
0.05
  9
$TEXTSTYLE
  7
STANDARD
  9
$CLAYER
  8
0
  9
$CELTYPE
  6
CONTINUOUS
  9
$CECOLOR
 62
   256
  9
$CELTSCALE
 40
1.0
  9
$DISPSILH
 70
     0
  9
$DIMSCALE
 40
1.0
  9
$DIMASZ
 40
1.0
  9
$DIMEXO
 40
2.54
  9
$DIMDLI
 40
0.38
  9
$DIMRND
 40
0.0
  9
$DIMDLE
 40
0.0
  9
$DIMEXE
 40
2.54
  9
$DIMTP
 40
0.0
  9
$DIMTM
 40
0.0
  9
$DIMTXT
 40
3.2
  9
$DIMCEN
 40
0.09
  9
$DIMTSZ
 40
0.0
  9
$DIMTOL
 70
     0
  9
$DIMLIM
 70
     0
  9
$DIMTIH
 70
     0
  9
$DIMTOH
 70
     0
  9
$DIMSE1
 70
     0
  9
$DIMSE2
 70
     0
  9
$DIMTAD
 70
     1
  9
$DIMZIN
 70
     0
  9
$DIMBLK
  1

  9
$DIMASO
 70
     1
  9
$DIMSHO
 70
     0
  9
$DIMPOST
  1

  9
$DIMAPOST
  1

  9
$DIMALT
 70
     0
  9
$DIMALTD
 70
     2
  9
$DIMALTF
 40
25.4
  9
$DIMLFAC
 40
1.0
  9
$DIMTOFL
 70
     0
  9
$DIMTVP
 40
1.0
  9
$DIMTIX
 70
     0
  9
$DIMSOXD
 70
     0
  9
$DIMSAH
 70
     1
  9
$DIMBLK1
  1

  9
$DIMBLK2
  1

  9
$DIMSTYLE
  2
STANDARD
  9
$DIMCLRD
 70
     0
  9
$DIMCLRE
 70
     0
  9
$DIMCLRT
 70
     0
  9
$DIMTFAC
 40
1.0
  9
$DIMGAP
 40
1.6
  9
$DIMJUST
 70
     0
  9
$DIMSD1
 70
     0
  9
$DIMSD2
 70
     0
  9
$DIMTOLJ
 70
     1
  9
$DIMTZIN
 70
     0
  9
$DIMALTZ
 70
     0
  9
$DIMALTTZ
 70
     0
  9
$DIMUPT
 70
     0
  9
$DIMDEC
 70
     4
  9
$DIMTDEC
 70
     4
  9
$DIMALTU
 70
     2
  9
$DIMALTTD
 70
     2
  9
$DIMTXSTY
  7
STANDARD
  9
$DIMAUNIT
 70
     0
  9
$DIMADEC
 70
     0
  9
$DIMALTRND
 40
0.0
  9
$DIMAZIN
 70
     0
  9
$DIMDSEP
 70
    46
  9
$DIMATFIT
 70
     3
  9
$DIMFRAC
 70
     0
  9
$DIMLDRBLK
  1

  9
$DIMLUNIT
 70
     2
  9
$DIMLWD
 70
    -2
  9
$DIMLWE
 70
    -2
  9
$DIMTMOVE
 70
     0
  9
$LUNITS
 70
     2
  9
$LUPREC
 70
     4
  9
$SKETCHINC
 40
0.1
  9
$FILLETRAD
 40
0.0
  9
$AUNITS
 70
     0
  9
$AUPREC
 70
     0
  9
$MENU
  1
.
  9
$ELEVATION
 40
0.0
  9
$PELEVATION
 40
0.0
  9
$THICKNESS
 40
0.0
  9
$LIMCHECK
 70
     0
  9
$CHAMFERA
 40
0.0
  9
$CHAMFERB
 40
0.0
  9
$CHAMFERC
 40
0.0
  9
$CHAMFERD
 40
0.0
  9
$SKPOLY
 70
     0
  9
$TDCREATE
 40
2452488.423138738
  9
$TDUCREATE
 40
2452488.048138738
  9
$TDUPDATE
 40
2456899.679669027
  9
$TDUUPDATE
 40
2456899.304669027
  9
$TDINDWG
 40
0.2822963426
  9
$TDUSRTIMER
 40
0.2822961574
  9
$USRTIMER
 70
     1
  9
$ANGBASE
 50
0.0
  9
$ANGDIR
 70
     0
  9
$PDMODE
 70
     3
  9
$PDSIZE
 40
0.0
  9
$PLINEWID
 40
0.0
  9
$SPLFRAME
 70
     0
  9
$SPLINETYPE
 70
     6
  9
$SPLINESEGS
 70
     8
  9
$HANDSEED
  5
2AA0
  9
$SURFTAB1
 70
     6
  9
$SURFTAB2
 70
     6
  9
$SURFTYPE
 70
     6
  9
$SURFU
 70
     6
  9
$SURFV
 70
     6
  9
$UCSBASE
  2

  9
$UCSNAME
  2

  9
$UCSORG
 10
0.0
 20
0.0
 30
0.0
  9
$UCSXDIR
 10
1.0
 20
0.0
 30
0.0
  9
$UCSYDIR
 10
0.0
 20
1.0
 30
0.0
  9
$UCSORTHOREF
  2

  9
$UCSORTHOVIEW
 70
     0
  9
$UCSORGTOP
 10
0.0
 20
0.0
 30
0.0
  9
$UCSORGBOTTOM
 10
0.0
 20
0.0
 30
0.0
  9
$UCSORGLEFT
 10
0.0
 20
0.0
 30
0.0
  9
$UCSORGRIGHT
 10
0.0
 20
0.0
 30
0.0
  9
$UCSORGFRONT
 10
0.0
 20
0.0
 30
0.0
  9
$UCSORGBACK
 10
0.0
 20
0.0
 30
0.0
  9
$PUCSBASE
  2

  9
$PUCSNAME
  2

  9
$PUCSORG
 10
0.0
 20
0.0
 30
0.0
  9
$PUCSXDIR
 10
1.0
 20
0.0
 30
0.0
  9
$PUCSYDIR
 10
0.0
 20
1.0
 30
0.0
  9
$PUCSORTHOREF
  2

  9
$PUCSORTHOVIEW
 70
     0
  9
$PUCSORGTOP
 10
0.0
 20
0.0
 30
0.0
  9
$PUCSORGBOTTOM
 10
0.0
 20
0.0
 30
0.0
  9
$PUCSORGLEFT
 10
0.0
 20
0.0
 30
0.0
  9
$PUCSORGRIGHT
 10
0.0
 20
0.0
 30
0.0
  9
$PUCSORGFRONT
 10
0.0
 20
0.0
 30
0.0
  9
$PUCSORGBACK
 10
0.0
 20
0.0
 30
0.0
  9
$USERI1
 70
     0
  9
$USERI2
 70
     0
  9
$USERI3
 70
     0
  9
$USERI4
 70
     0
  9
$USERI5
 70
     0
  9
$USERR1
 40
0.0
  9
$USERR2
 40
0.0
  9
$USERR3
 40
0.0
  9
$USERR4
 40
0.0
  9
$USERR5
 40
0.0
  9
$WORLDVIEW
 70
     1
  9
$SHADEDGE
 70
     3
  9
$SHADEDIF
 70
    70
  9
$TILEMODE
 70
     1
  9
$MAXACTVP
 70
    48
  9
$PINSBASE
 10
0.0
 20
0.0
 30
0.0
  9
$PLIMCHECK
 70
     0
  9
$PEXTMIN
 10
1.000000000000000E+20
 20
1.000000000000000E+20
 30
1.000000000000000E+20
  9
$PEXTMAX
 10
-1.000000000000000E+20
 20
-1.000000000000000E+20
 30
-1.000000000000000E+20
  9
$PLIMMIN
 10
0.0
 20
0.0
  9
$PLIMMAX
 10
12.0
 20
9.0
  9
$UNITMODE
 70
     0
  9
$VISRETAIN
 70
     1
  9
$PLINEGEN
 70
     0
  9
$PSLTSCALE
 70
     1
  9
$TREEDEPTH
 70
  3020
  9
$CMLSTYLE
  2
Standard
  9
$CMLJUST
 70
     0
  9
$CMLSCALE
 40
1.0
  9
$PROXYGRAPHICS
 70
     1
  9
$MEASUREMENT
 70
     0
  9
$CELWEIGHT
370
    -1
  9
$ENDCAPS
280
     0
  9
$JOINSTYLE
280
     0
  9
$LWDISPLAY
290
     0
  9
$INSUNITS
 70
     0
  9
$HYPERLINKBASE
  1

  9
$STYLESHEET
  1

  9
$XEDIT
290
     1
  9
$CEPSNTYPE
380
     0
  9
$PSTYLEMODE
290
     1
  9
$FINGERPRINTGUID
  2
{FFE95C04-33D2-4560-80D0-1E2918E4EC86}
  9
$VERSIONGUID
  2
{5FA30650-FB51-4CC7-9A13-8505C302F423}
  9
$EXTNAMES
290
     1
  9
$PSVPSCALE
 40
0.0
  9
$OLESTARTUP
290
     0
  0
ENDSEC
  0
SECTION
  2
CLASSES
  0
CLASS
  1
ACDBDICTIONARYWDFLT
  2
AcDbDictionaryWithDefault
  3
AutoCAD 2000
 90
        0
280
     0
281
     0
  0
CLASS
  1
ACDBPLACEHOLDER
  2
AcDbPlaceHolder
  3
AutoCAD 2000
 90
        0
280
     0
281
     0
  0
CLASS
  1
LAYOUT
  2
AcDbLayout
  3
AutoCAD 2000
 90
        0
280
     0
281
     0
  0
CLASS
  1
DICTIONARYVAR
  2
AcDbDictionaryVar
  3
AutoCAD 2000
 90
        0
280
     0
281
     0
  0
CLASS
  1
LONG_TRANSACTION
  2
AcDbLongTransaction
  3
AutoCAD 2000
 90
    32768
280
     0
281
     0
  0
CLASS
  1
LWPOLYLINE
  2
AcDbPolyline
  3
AutoCAD 2000
 90
    32768
280
     0
281
     1
  0
CLASS
  1
HATCH
  2
AcDbHatch
  3
AutoCAD 2000
 90
    32768
280
     0
281
     1
  0
CLASS
  1
XRECORD
  2
AcDbXrecord
  3
AutoCAD 2000
 90
    32768
280
     0
281
     0
  0
CLASS
  1
LONG_TRANSACTION
  2
AcDbLongTransaction
  3
AutoCAD 2000
 90
    32768
280
     0
281
     0
  0
CLASS
  1
LWPOLYLINE
  2
AcDbPolyline
  3
AutoCAD 2000
 90
    32768
280
     0
281
     1
  0
CLASS
  1
HATCH
  2
AcDbHatch
  3
AutoCAD 2000
 90
    32768
280
     0
281
     1
  0
CLASS
  1
XRECORD
  2
AcDbXrecord
  3
AutoCAD 2000
 90
    32768
280
     0
281
     0
  0
CLASS
  1
LONG_TRANSACTION
  2
AcDbLongTransaction
  3
AutoCAD 2000
 90
    32768
280
     0
281
     0
  0
CLASS
  1
LWPOLYLINE
  2
AcDbPolyline
  3
AutoCAD 2000
 90
    32768
280
     0
281
     1
  0
CLASS
  1
HATCH
  2
AcDbHatch
  3
AutoCAD 2000
 90
    32768
280
     0
281
     1
  0
CLASS
  1
XRECORD
  2
AcDbXrecord
  3
AutoCAD 2000
 90
    32768
280
     0
281
     0
  0
CLASS
  1
LONG_TRANSACTION
  2
AcDbLongTransaction
  3
AutoCAD 2000
 90
    32768
280
     0
281
     0
  0
CLASS
  1
LWPOLYLINE
  2
AcDbPolyline
  3
AutoCAD 2000
 90
    32768
280
     0
281
     1
  0
CLASS
  1
HATCH
  2
AcDbHatch
  3
AutoCAD 2000
 90
    32768
280
     0
281
     1
  0
CLASS
  1
XRECORD
  2
AcDbXrecord
  3
AutoCAD 2000
 90
    32768
280
     0
281
     0
  0
ENDSEC
  0
SECTION
  2
TABLES
  0
TABLE
  2
VPORT
  5
21B6
330
0
100
AcDbSymbolTable
 70
     2
  0
VPORT
  5
2A9F
330
21B6
100
AcDbSymbolTableRecord
100
AcDbViewportTableRecord
  2
*Active
 70
     0
 10
0.0
 20
0.0
 11
1.0
 21
1.0
 12
775.8305286426822
 22
841.3444073244599
 13
0.0
 23
0.0
 14
1.0
 24
1.0
 15
0.0
 25
0.0
 16
0.0
 26
0.0
 36
1.0
 17
0.0
 27
0.0
 37
0.0
 40
1422.474775759449
 41
1.592161016949152
 42
50.0
 43
0.0
 44
0.0
 50
0.0
 51
0.0
 71
     0
 72
   100
 73
     1
 74
     3
 75
     0
 76
     0
 77
     0
 78
     0
281
     0
 65
     1
110
0.0
120
0.0
130
0.0
111
1.0
121
0.0
131
0.0
112
0.0
122
1.0
132
0.0
 79
     0
146
0.0
  0
ENDTAB
  0
TABLE
  2
LTYPE
  5
21B3
330
0
100
AcDbSymbolTable
 70
     2
  0
LTYPE
  5
21C1
330
21B3
100
AcDbSymbolTableRecord
100
AcDbLinetypeTableRecord
  2
ByBlock
 70
     0
  3

 72
    65
 73
     0
 40
0.0
  0
LTYPE
  5
21C2
330
21B3
100
AcDbSymbolTableRecord
100
AcDbLinetypeTableRecord
  2
ByLayer
 70
     0
  3

 72
    65
 73
     0
 40
0.0
  0
LTYPE
  5
21C3
330
21B3
100
AcDbSymbolTableRecord
100
AcDbLinetypeTableRecord
  2
CONTINUOUS
 70
     0
  3
Solid line
 72
    65
 73
     0
 40
0.0
  0
LTYPE
  5
2A89
330
21B3
100
AcDbSymbolTableRecord
100
AcDbLinetypeTableRecord
  2
CENTER
 70
     0
  3
__ . __
 72
    65
 73
     4
 40
7.0
 49
4.0
 74
     0
 49
-1.0
 74
     0
 49
1.0
 74
     0
 49
-1.0
 74
     0
  0
ENDTAB
  0
TABLE
  2
LAYER
  5
21B0
102
{ACAD_XDICTIONARY
360
2A8A
102
}
330
0
100
AcDbSymbolTable
 70
     1
  0
LAYER
  5
21BE
330
21B0
100
AcDbSymbolTableRecord
100
AcDbLayerTableRecord
  2
0
 70
     0
 62
     7
  6
CONTINUOUS
370
    -3
390
21BD
  0
ENDTAB
  0
TABLE
  2
STYLE
  5
21B1
330
0
100
AcDbSymbolTable
 70
     1
  0
STYLE
  5
21BF
330
21B1
100
AcDbSymbolTableRecord
100
AcDbTextStyleTableRecord
  2
STANDARD
 70
     0
 40
0.0
 41
1.0
 50
0.0
 71
     0
 42
0.2
  3
txt
  4
BIGFONT
  0
ENDTAB
  0
TABLE
  2
VIEW
  5
21B4
330
0
100
AcDbSymbolTable
 70
     1
  0
VIEW
  5
21DE
330
21B4
100
AcDbSymbolTableRecord
100
AcDbViewTableRecord
  2
OLE1
 70
     0
 40
3692.141019219747
 10
1914.591370701856
 20
1272.206200738182
 41
4595.022665841169
 11
0.0
 21
0.0
 31
1.0
 12
0.0
 22
0.0
 32
0.0
 42
50.0
 43
0.0
 44
0.0
 50
0.0
 71
     0
281
     0
 72
     1
110
0.0
120
0.0
130
0.0
111
1.0
121
0.0
131
0.0
112
0.0
122
1.0
132
0.0
 79
     0
146
0.0
  0
ENDTAB
  0
TABLE
  2
UCS
  5
21B5
330
0
100
AcDbSymbolTable
 70
     0
  0
ENDTAB
  0
TABLE
  2
APPID
  5
21B7
330
0
100
AcDbSymbolTable
 70
     5
  0
APPID
  5
21C0
330
21B7
100
AcDbSymbolTableRecord
100
AcDbRegAppTableRecord
  2
ACAD
 70
     0
  0
APPID
  5
21DF
330
21B7
100
AcDbSymbolTableRecord
100
AcDbRegAppTableRecord
  2
MCAD_NO_VIS
 70
     0
  0
APPID
  5
21E0
330
21B7
100
AcDbSymbolTableRecord
100
AcDbRegAppTableRecord
  2
ACAD_TEMP_GRAPHIC
 70
     0
  0
APPID
  5
21E1
330
21B7
100
AcDbSymbolTableRecord
100
AcDbRegAppTableRecord
  2
ACATTRIBSERVICES
 70
     0
  0
APPID
  5
21E2
330
21B7
100
AcDbSymbolTableRecord
100
AcDbRegAppTableRecord
  2
CONTENTBLOCKICON
 70
     0
  0
ENDTAB
  0
TABLE
  2
DIMSTYLE
  5
21B8
330
0
100
AcDbSymbolTable
 70
     1
100
AcDbDimStyleTable
 71
     0
  0
DIMSTYLE
105
21E3
330
21B8
100
AcDbSymbolTableRecord
100
AcDbDimStyleTableRecord
  2
STANDARD
 70
     0
279
     2
340
21BF
  0
ENDTAB
  0
TABLE
  2
BLOCK_RECORD
  5
21AF
330
0
100
AcDbSymbolTable
 70
     0
  0
BLOCK_RECORD
  5
21CC
102
{ACAD_XDICTIONARY
360
21F8
102
}
330
21AF
100
AcDbSymbolTableRecord
100
AcDbBlockTableRecord
  2
*Model_Space
340
21CF
  0
BLOCK_RECORD
  5
21C8
102
{ACAD_XDICTIONARY
360
21FA
102
}
330
21AF
100
AcDbSymbolTableRecord
100
AcDbBlockTableRecord
  2
*Paper_Space
340
21CB
  0
ENDTAB
  0
ENDSEC
  0
SECTION
  2
BLOCKS
  0
BLOCK
  5
21CD
330
21CC
100
AcDbEntity
  8
0
100
AcDbBlockBegin
  2
*Model_Space
 70
     0
 10
0.0
 20
0.0
 30
0.0
  3
*Model_Space
  1

  0
ENDBLK
  5
21CE
330
21CC
100
AcDbEntity
  8
0
100
AcDbBlockEnd
  0
BLOCK
  5
21C9
330
21C8
100
AcDbEntity
 67
     1
  8
0
100
AcDbBlockBegin
  2
*Paper_Space
 70
     0
 10
0.0
 20
0.0
 30
0.0
  3
*Paper_Space
  1

  0
ENDBLK
  5
21CA
330
21C8
100
AcDbEntity
 67
     1
  8
0
100
AcDbBlockEnd
  0
ENDSEC
  0
SECTION
  2
ENTITIES
  0
TEXT
  5
F6E
330
21CC
100
AcDbEntity
  8
0
  6
Continuous
100
AcDbText
 10
339.3878168705359
 20
1500.0
 30
0.0
 40
48.000002
  1
SHC2A20MA_00 4S
 41
1.32095
100
AcDbText
  0
LINE
  5
276C
330
21CC
100
AcDbEntity
  8
0
100
AcDbLine
 10
800.8415701732243
 20
887.3286523926772
 30
0.0
 11
805.4264551732243
 21
821.7617333926769
 31
0.0
  0
LINE
  5
276D
330
21CC
100
AcDbEntity
  8
0
100
AcDbLine
 10
702.0113401732246
 20
887.3286523926772
 30
0.0
 11
697.4264551732244
 21
821.7617333926769
 31
0.0
  0
LINE
  5
276E
330
21CC
100
AcDbEntity
  8
0
  6
Continuous
 62
     7
100
AcDbLine
 10
597.4429936732249
 20
406.7617393926774
 30
0.0
 11
687.3356186751611
 21
406.7617393926774
 31
0.0
  0
LINE
  5
276F
330
21CC
100
AcDbEntity
  8
0
  6
Continuous
 62
     7
100
AcDbLine
 10
597.4429936732249
 20
305.1617413926775
 30
0.0
 11
687.3356186751611
 21
305.1617413926775
 31
0.0
  0
LINE
  5
2770
330
21CC
100
AcDbEntity
  8
0
  6
Continuous
 62
     7
100
AcDbLine
 10
594.2764518732246
 20
296.4617393926774
 30
0.0
 11
597.442992973225
 21
305.1617393926775
 31
0.0
  0
LINE
  5
2771
330
21CC
100
AcDbEntity
  8
0
  6
Continuous
 62
     7
100
AcDbLine
 10
591.4264531732246
 20
296.4617403926774
 30
0.0
 11
591.4264531732246
 21
415.4617403926774
 31
0.0
  0
LINE
  5
2772
330
21CC
100
AcDbEntity
  8
0
  6
Continuous
 62
     7
100
AcDbLine
 10
591.4264531732246
 20
296.4617403926774
 30
0.0
 11
594.2764521732247
 21
296.4617403926774
 31
0.0
  0
LINE
  5
2773
330
21CC
100
AcDbEntity
  8
0
  6
Continuous
 62
     7
100
AcDbLine
 10
597.4429936732249
 20
406.7617393926774
 30
0.0
 11
597.4429936732249
 21
305.1617413926775
 31
0.0
  0
LINE
  5
2774
330
21CC
100
AcDbEntity
  8
0
  6
Continuous
 62
     7
100
AcDbLine
 10
591.4264531732246
 20
415.4617403926774
 30
0.0
 11
594.2764521732247
 21
415.4617403926774
 31
0.0
  0
LINE
  5
2775
330
21CC
100
AcDbEntity
  8
0
  6
Continuous
 62
     7
100
AcDbLine
 10
594.2764518732246
 20
415.4617413926774
 30
0.0
 11
597.442992973225
 21
406.7617413926774
 31
0.0
  0
LINE
  5
2779
330
21CC
100
AcDbEntity
  8
0
100
AcDbLine
 10
791.4264531732246
 20
502.2617303926772
 30
0.0
 11
791.4264531732246
 21
427.0117303926772
 31
0.0
  0
LINE
  5
277A
330
21CC
100
AcDbEntity
  8
0
100
AcDbLine
 10
711.4264531732247
 20
502.2617303926772
 30
0.0
 11
711.4264531732247
 21
427.0117303926772
 31
0.0
  0
LINE
  5
277B
330
21CC
100
AcDbEntity
  8
0
  6
Continuous
 62
     7
100
AcDbLine
 10
905.4099126732239
 20
283.1617393926774
 30
0.0
 11
815.5172876712882
 21
283.1617393926774
 31
0.0
  0
LINE
  5
277C
330
21CC
100
AcDbEntity
  8
0
  6
Continuous
 62
     7
100
AcDbLine
 10
905.4099126732239
 20
181.5617413926775
 30
0.0
 11
815.5172876712882
 21
181.5617413926775
 31
0.0
  0
LINE
  5
277D
330
21CC
100
AcDbEntity
  8
0
100
AcDbLine
 10
830.1764531732246
 20
303.4117403926775
 30
0.0
 11
830.1764531732246
 21
284.9117403926775
 31
0.0
  0
LINE
  5
277E
330
21CC
100
AcDbEntity
  8
0
100
AcDbLine
 10
672.6764531732246
 20
303.4117403926775
 30
0.0
 11
672.6764531732246
 21
284.9117403926775
 31
0.0
  0
LINE
  5
277F
330
21CC
100
AcDbEntity
  8
0
100
AcDbLine
 10
672.6764531732246
 20
284.9117403926775
 30
0.0
 11
830.1764531732246
 21
284.9117403926775
 31
0.0
  0
LINE
  5
2780
330
21CC
100
AcDbEntity
  8
0
100
AcDbLine
 10
672.6764531732246
 20
161.3117333926775
 30
0.0
 11
830.1764531732246
 21
161.3117333926775
 31
0.0
  0
LINE
  5
2781
330
21CC
100
AcDbEntity
  8
0
100
AcDbLine
 10
672.6764531732246
 20
179.8117333926775
 30
0.0
 11
830.1764531732246
 21
179.8117333926775
 31
0.0
  0
ARC
  5
2782
330
21CC
100
AcDbEntity
  8
0
100
AcDbCircle
 10
766.4264531732246
 20
232.3617403926774
 30
0.0
 40
94.0
100
AcDbArc
 50
146.0103900000054
 51
213.9896099999945
  0
LINE
  5
2783
330
21CC
100
AcDbEntity
  8
0
100
AcDbLine
 10
672.6764531732246
 20
179.8117333926775
 30
0.0
 11
672.6764531732246
 21
161.3117333926775
 31
0.0
  0
ARC
  5
2784
330
21CC
100
AcDbEntity
  8
0
100
AcDbCircle
 10
736.4264531732247
 20
232.3617403926774
 30
0.0
 40
94.0
100
AcDbArc
 50
326.0103900000054
 51
33.98961300000735
  0
LINE
  5
2786
330
21CC
100
AcDbEntity
  8
0
100
AcDbLine
 10
830.1764531732246
 20
179.8117333926775
 30
0.0
 11
830.1764531732246
 21
161.3117333926775
 31
0.0
  0
LINE
  5
2788
330
21CC
100
AcDbEntity
  8
0
100
AcDbLine
 10
672.6764531732246
 20
427.0117303926774
 30
0.0
 11
830.1764531732246
 21
427.0117303926774
 31
0.0
  0
LINE
  5
2789
330
21CC
100
AcDbEntity
  8
0
100
AcDbLine
 10
672.6764531732246
 20
408.5117303926774
 30
0.0
 11
830.1764531732246
 21
408.5117303926774
 31
0.0
  0
LINE
  5
278A
330
21CC
100
AcDbEntity
  8
0
100
AcDbLine
 10
672.6764531732246
 20
303.4117403926775
 30
0.0
 11
830.1764531732246
 21
303.4117403926775
 31
0.0
  0
ARC
  5
278B
330
21CC
100
AcDbEntity
  8
0
100
AcDbCircle
 10
766.4264531732246
 20
355.9617403926774
 30
0.0
 40
94.0
100
AcDbArc
 50
146.0103900000054
 51
213.9896099999945
  0
LINE
  5
278C
330
21CC
100
AcDbEntity
  8
0
100
AcDbLine
 10
672.6764531732246
 20
408.5117303926774
 30
0.0
 11
672.6764531732246
 21
427.0117303926774
 31
0.0
  0
ARC
  5
278D
330
21CC
100
AcDbEntity
  8
0
100
AcDbCircle
 10
736.4264531732247
 20
355.9617403926774
 30
0.0
 40
94.0
100
AcDbArc
 50
326.0103900000054
 51
33.98961300000735
  0
LINE
  5
2792
330
21CC
100
AcDbEntity
  8
0
100
AcDbLine
 10
830.1764531732246
 20
408.5117303926774
 30
0.0
 11
830.1764531732246
 21
427.0117303926774
 31
0.0
  0
LINE
  5
2793
330
21CC
100
AcDbEntity
  8
0
  6
Continuous
 62
     7
100
AcDbLine
 10
905.4099126732239
 20
283.1617393926774
 30
0.0
 11
905.4099126732239
 21
181.5617413926775
 31
0.0
  0
LINE
  5
2794
330
21CC
100
AcDbEntity
  8
0
  6
Continuous
 62
     7
100
AcDbLine
 10
911.4264531732246
 20
172.8617403926774
 30
0.0
 11
911.4264531732246
 21
291.8617403926774
 31
0.0
  0
LINE
  5
2795
330
21CC
100
AcDbEntity
  8
0
  6
Continuous
 62
     7
100
AcDbLine
 10
911.4264531732246
 20
172.8617403926774
 30
0.0
 11
908.5764541732245
 21
172.8617403926774
 31
0.0
  0
LINE
  5
2796
330
21CC
100
AcDbEntity
  8
0
  6
Continuous
 62
     7
100
AcDbLine
 10
908.5764544732251
 20
172.8617393926774
 30
0.0
 11
905.4099133732238
 21
181.5617393926775
 31
0.0
  0
LINE
  5
2797
330
21CC
100
AcDbEntity
  8
0
  6
Continuous
 62
     7
100
AcDbLine
 10
911.4264531732246
 20
291.8617403926774
 30
0.0
 11
908.5764541732245
 21
291.8617403926774
 31
0.0
  0
LINE
  5
2798
330
21CC
100
AcDbEntity
  8
0
  6
Continuous
 62
     7
100
AcDbLine
 10
908.5764544732251
 20
291.8617413926774
 30
0.0
 11
905.4099133732238
 21
283.1617413926774
 31
0.0
  0
LINE
  5
2799
330
21CC
100
AcDbEntity
  8
0
100
AcDbLine
 10
858.4264531732246
 20
768.761732392677
 30
0.0
 11
644.4264231732245
 21
768.761732392677
 31
0.0
  0
LINE
  5
279A
330
21CC
100
AcDbEntity
  8
0
100
AcDbLine
 10
644.4264831732247
 20
524.2617323926769
 30
0.0
 11
858.4264531732246
 21
524.2617323926769
 31
0.0
  0
LINE
  5
279B
330
21CC
100
AcDbEntity
  8
0
100
AcDbLine
 10
644.4264231732245
 20
524.2617323926769
 30
0.0
 11
644.4264231732245
 21
768.761732392677
 31
0.0
  0
LINE
  5
279C
330
21CC
100
AcDbEntity
  8
0
100
AcDbLine
 10
698.926422173225
 20
519.261732392677
 30
0.0
 11
803.9264531732246
 21
519.261732392677
 31
0.0
  0
LINE
  5
279D
330
21CC
100
AcDbEntity
  8
0
100
AcDbLine
 10
698.9264841732242
 20
502.261732392677
 30
0.0
 11
803.9264531732246
 21
502.261732392677
 31
0.0
  0
LINE
  5
279E
330
21CC
100
AcDbEntity
  8
0
100
AcDbLine
 10
711.4264531732247
 20
524.2617323926769
 30
0.0
 11
711.4264531732247
 21
519.261732392677
 31
0.0
  0
LINE
  5
279F
330
21CC
100
AcDbEntity
  8
0
100
AcDbLine
 10
698.926422173225
 20
519.261732392677
 30
0.0
 11
698.926422173225
 21
502.261732392677
 31
0.0
  0
LINE
  5
27A4
330
21CC
100
AcDbEntity
  8
0
100
AcDbLine
 10
803.9264531732246
 20
519.261732392677
 30
0.0
 11
803.9264531732246
 21
502.261732392677
 31
0.0
  0
LINE
  5
27A5
330
21CC
100
AcDbEntity
  8
0
100
AcDbLine
 10
791.4264531732246
 20
524.2617323926769
 30
0.0
 11
791.4264531732246
 21
519.261732392677
 31
0.0
  0
LINE
  5
27A6
330
21CC
100
AcDbEntity
  8
0
100
AcDbLine
 10
793.926451173224
 20
768.761732392677
 30
0.0
 11
708.9264551732244
 21
768.761732392677
 31
0.0
  0
LINE
  5
27A7
330
21CC
100
AcDbEntity
  8
0
100
AcDbLine
 10
697.4264551732244
 20
821.761732392677
 30
0.0
 11
697.4264551732244
 21
788.680332392677
 31
0.0
  0
LINE
  5
27A8
330
21CC
100
AcDbEntity
  8
0
100
AcDbLine
 10
697.4264541732249
 20
788.6803333926768
 30
0.0
 11
708.9264611732247
 21
768.7617357752405
 31
0.0
  0
LINE
  5
27AD
330
21CC
100
AcDbEntity
  8
0
100
AcDbLine
 10
805.4264561732239
 20
788.6803333926768
 30
0.0
 11
793.9264501732245
 21
768.761737427053
 31
0.0
  0
LINE
  5
27AE
330
21CC
100
AcDbEntity
  8
0
100
AcDbLine
 10
805.4264551732243
 20
821.761732392677
 30
0.0
 11
805.4264551732243
 21
788.680332392677
 31
0.0
  0
LINE
  5
27AF
330
21CC
100
AcDbEntity
  8
0
100
AcDbLine
 10
858.4264531732246
 20
524.2617323926769
 30
0.0
 11
858.4264531732246
 21
768.761732392677
 31
0.0
  0
LINE
  5
27B0
330
21CC
100
AcDbEntity
  8
0
  6
Continuous
 62
     7
100
AcDbLine
 10
905.4099126732243
 20
1293.563556786277
 30
0.0
 11
845.5984581513543
 21
1293.563556786277
 31
0.0
  0
LINE
  5
27B1
330
21CC
100
AcDbEntity
  8
0
  6
Continuous
 62
     7
100
AcDbLine
 10
905.4099126732243
 20
1191.963558786277
 30
0.0
 11
845.5984581513543
 21
1191.963558786277
 31
0.0
  0
LINE
  5
27B2
330
21CC
100
AcDbEntity
  8
0
  6
Continuous
 62
     7
100
AcDbLine
 10
905.4099126732243
 20
1191.963558786277
 30
0.0
 11
905.4099126732243
 21
1293.563556786277
 31
0.0
  0
LINE
  5
27B3
330
21CC
100
AcDbEntity
  8
0
  6
Continuous
 62
     7
100
AcDbLine
 10
911.4264531732246
 20
1302.263557786277
 30
0.0
 11
911.4264531732246
 21
1183.263557786277
 31
0.0
  0
LINE
  5
27B4
330
21CC
100
AcDbEntity
  8
0
  6
Continuous
 62
     7
100
AcDbLine
 10
911.4264531732246
 20
1302.263557786277
 30
0.0
 11
908.5764541732245
 21
1302.263557786277
 31
0.0
  0
LINE
  5
27B5
330
21CC
100
AcDbEntity
  8
0
  6
Continuous
 62
     7
100
AcDbLine
 10
908.5764544732246
 20
1302.263558786277
 30
0.0
 11
905.4099133732242
 21
1293.563558786277
 31
0.0
  0
LINE
  5
27B6
330
21CC
100
AcDbEntity
  8
0
  6
Continuous
 62
     7
100
AcDbLine
 10
908.5764544732246
 20
1183.263556786277
 30
0.0
 11
905.4099133732242
 21
1191.963556786277
 31
0.0
  0
LINE
  5
27B7
330
21CC
100
AcDbEntity
  8
0
  6
Continuous
 62
     7
100
AcDbLine
 10
911.4264531732246
 20
1183.263557786277
 30
0.0
 11
908.5764541732245
 21
1183.263557786277
 31
0.0
  0
CIRCLE
  5
27B8
330
21CC
100
AcDbEntity
  8
0
100
AcDbCircle
 10
751.4264531732246
 20
1242.763557786277
 30
0.0
 40
107.00003
  0
LINE
  5
27B9
330
21CC
100
AcDbEntity
  8
0
100
AcDbLine
 10
737.9264551732244
 20
890.470812392677
 30
0.0
 11
702.011341173224
 21
887.3286423926769
 31
0.0
  0
LINE
  5
27BA
330
21CC
100
AcDbEntity
  8
0
100
AcDbLine
 10
741.4264561732238
 20
896.761732392677
 30
0.0
 11
741.4264561732238
 21
929.761732392677
 31
0.0
  0
LINE
  5
27BB
330
21CC
100
AcDbEntity
  8
0
100
AcDbLine
 10
761.4264571732242
 20
896.761732392677
 30
0.0
 11
761.4264571732242
 21
929.761732392677
 31
0.0
  0
LINE
  5
27BC
330
21CC
100
AcDbEntity
  8
0
100
AcDbLine
 10
764.9264551732244
 20
890.470812392677
 30
0.0
 11
800.8415691732247
 21
887.3286423926769
 31
0.0
  0
LINE
  5
27BD
330
21CC
100
AcDbEntity
  8
0
100
AcDbLine
 10
764.9264551732244
 20
895.761732392677
 30
0.0
 11
764.9264551732244
 21
894.899352392677
 31
0.0
  0
LINE
  5
27BE
330
21CC
100
AcDbEntity
  8
0
100
AcDbLine
 10
764.9264551732244
 20
896.761732392677
 30
0.0
 11
764.9264551732244
 21
890.470812392677
 31
0.0
  0
LINE
  5
27C0
330
21CC
100
AcDbEntity
  8
0
100
AcDbLine
 10
737.9264551732244
 20
895.7617223926767
 30
0.0
 11
737.9264551732244
 21
894.8993423926772
 31
0.0
  0
LINE
  5
27C1
330
21CC
100
AcDbEntity
  8
0
100
AcDbLine
 10
737.9264551732244
 20
896.761732392677
 30
0.0
 11
737.9264551732244
 21
890.470812392677
 31
0.0
  0
LINE
  5
27C2
330
21CC
100
AcDbEntity
  8
0
100
AcDbLine
 10
764.9264551732244
 20
890.470812392677
 30
0.0
 11
737.9264551732244
 21
890.470812392677
 31
0.0
  0
LINE
  5
27C3
330
21CC
100
AcDbEntity
  8
0
100
AcDbLine
 10
764.9264551732244
 20
896.761732392677
 30
0.0
 11
737.9264551732244
 21
896.761732392677
 31
0.0
  0
LINE
  5
27C5
330
21CC
100
AcDbEntity
  8
0
100
AcDbLine
 10
741.4264561732238
 20
929.761732392677
 30
0.0
 11
761.4264571732242
 21
929.761732392677
 31
0.0
  0
CIRCLE
  5
27C6
330
21CC
100
AcDbEntity
  8
0
100
AcDbCircle
 10
751.4264531732246
 20
1242.763557786277
 30
0.0
 40
54.0
  0
CIRCLE
  5
27C7
330
21CC
100
AcDbEntity
  8
0
100
AcDbCircle
 10
751.4264531732246
 20
1242.763557786277
 30
0.0
 40
54.0
  0
CIRCLE
  5
27CC
330
21CC
100
AcDbEntity
  8
0
100
AcDbCircle
 10
751.4264531732246
 20
1242.763557786277
 30
0.0
 40
9.999999
  0
CIRCLE
  5
27CD
330
21CC
100
AcDbEntity
  8
0
100
AcDbCircle
 10
751.4264531732246
 20
1242.763557786277
 30
0.0
 40
9.999999
  0
CIRCLE
  5
27CE
330
21CC
100
AcDbEntity
  8
0
100
AcDbCircle
 10
751.4264531732246
 20
1242.763557786277
 30
0.0
 40
13.5
  0
CIRCLE
  5
27CF
330
21CC
100
AcDbEntity
  8
0
100
AcDbCircle
 10
751.4264531732246
 20
1242.763557786277
 30
0.0
 40
13.5
  0
LINE
  5
2981
330
21CC
100
AcDbEntity
  8
0
  6
Continuous
 62
     7
100
AcDbLine
 10
597.4429936732249
 20
1191.963558786277
 30
0.0
 11
657.2544481950949
 21
1191.963558786277
 31
0.0
  0
LINE
  5
2982
330
21CC
100
AcDbEntity
  8
0
  6
Continuous
 62
     7
100
AcDbLine
 10
597.4429936732249
 20
1293.563556786277
 30
0.0
 11
657.2544481950949
 21
1293.563556786277
 31
0.0
  0
LINE
  5
2983
330
21CC
100
AcDbEntity
  8
0
  6
Continuous
 62
     7
100
AcDbLine
 10
597.4429936732249
 20
1293.563556786277
 30
0.0
 11
597.4429936732249
 21
1191.963558786277
 31
0.0
  0
LINE
  5
2984
330
21CC
100
AcDbEntity
  8
0
  6
Continuous
 62
     7
100
AcDbLine
 10
591.4264531732246
 20
1183.263557786277
 30
0.0
 11
591.4264531732246
 21
1302.263557786277
 31
0.0
  0
LINE
  5
2985
330
21CC
100
AcDbEntity
  8
0
  6
Continuous
 62
     7
100
AcDbLine
 10
594.2764518732246
 20
1183.263556786277
 30
0.0
 11
597.442992973225
 21
1191.963556786277
 31
0.0
  0
LINE
  5
2986
330
21CC
100
AcDbEntity
  8
0
  6
Continuous
 62
     7
100
AcDbLine
 10
591.4264531732246
 20
1183.263557786277
 30
0.0
 11
594.2764521732247
 21
1183.263557786277
 31
0.0
  0
LINE
  5
2987
330
21CC
100
AcDbEntity
  8
0
  6
Continuous
 62
     7
100
AcDbLine
 10
594.2764518732246
 20
1302.263558786277
 30
0.0
 11
597.442992973225
 21
1293.563558786277
 31
0.0
  0
LINE
  5
2988
330
21CC
100
AcDbEntity
  8
0
  6
Continuous
 62
     7
100
AcDbLine
 10
591.4264531732246
 20
1302.263557786277
 30
0.0
 11
594.2764521732247
 21
1302.263557786277
 31
0.0
  0
LINE
  5
2A95
330
21CC
100
AcDbEntity
  8
0
  6
CENTER
100
AcDbLine
 10
563.6682830616232
 20
1242.763557786277
 30
0.0
 11
939.184623284826
 21
1242.763557786277
 31
0.0
  0
LINE
  5
2A96
330
21CC
100
AcDbEntity
  8
0
  6
CENTER
100
AcDbLine
 10
751.4264531732246
 20
1118.406221367288
 30
0.0
 11
751.4264531732246
 21
1367.120894205266
 31
0.0
  0
LINE
  5
2A97
330
21CC
100
AcDbEntity
  8
0
  6
CENTER
100
AcDbLine
 10
751.4264531732246
 20
134.698826413547
 30
0.0
 11
751.4264531732246
 21
950.9190768904741
 31
0.0
  0
LINE
  5
2A98
330
21CC
100
AcDbEntity
  8
0
  6
CENTER
100
AcDbLine
 10
563.6682830616232
 20
355.9617403926774
 30
0.0
 11
858.1751041879952
 21
355.9617403926774
 31
0.0
  0
LINE
  5
2A99
330
21CC
100
AcDbEntity
  8
0
  6
CENTER
100
AcDbLine
 10
644.8849477368085
 20
232.3617403926774
 30
0.0
 11
939.1846232848262
 21
232.3617403926774
 31
0.0
  0
ENDSEC
  0
SECTION
  2
OBJECTS
  0
DICTIONARY
  5
21BA
330
0
100
AcDbDictionary
281
     1
  3
ACAD_GROUP
350
21BB
  3
ACAD_LAYOUT
350
21C7
  3
ACAD_MLINESTYLE
350
21C4
  3
ACAD_PLOTSETTINGS
350
21C6
  3
ACAD_PLOTSTYLENAME
350
21BC
  3
AcDbVariableDictionary
350
2238
  3
DWGPROPS
350
2A4F
  0
DICTIONARY
  5
2A8A
330
21B0
100
AcDbDictionary
280
     1
281
     1
  3
ACAD_LAYERSTATES
360
2A8B
  0
DICTIONARY
  5
21F8
330
21CC
100
AcDbDictionary
280
     1
281
     1
  3
ACAD_LAYOUTSELFREF
360
2A80
  0
DICTIONARY
  5
21FA
330
21C8
100
AcDbDictionary
280
     1
281
     1
  3
ACAD_LAYOUTSELFREF
360
2A7F
  0
DICTIONARY
  5
21BB
102
{ACAD_REACTORS
330
21BA
102
}
330
21BA
100
AcDbDictionary
281
     1
  0
DICTIONARY
  5
21C7
102
{ACAD_REACTORS
330
21BA
102
}
330
21BA
100
AcDbDictionary
281
     1
  3
Model
350
21CF
  3
ﾚｲｱｳﾄ1
350
21CB
  0
DICTIONARY
  5
21C4
102
{ACAD_REACTORS
330
21BA
102
}
330
21BA
100
AcDbDictionary
281
     1
  3
Standard
350
21C5
  0
DICTIONARY
  5
21C6
102
{ACAD_REACTORS
330
21BA
102
}
330
21BA
100
AcDbDictionary
281
     1
  0
ACDBDICTIONARYWDFLT
  5
21BC
102
{ACAD_REACTORS
330
21BA
102
}
330
21BA
100
AcDbDictionary
281
     1
  3
Normal
350
21BD
100
AcDbDictionaryWithDefault
340
21BD
  0
DICTIONARY
  5
2238
102
{ACAD_REACTORS
330
21BA
102
}
330
21BA
100
AcDbDictionary
281
     1
  3
DIMASSOC
350
2239
  0
XRECORD
  5
2A4F
102
{ACAD_REACTORS
330
21BA
102
}
330
21BA
100
AcDbXrecord
280
     1
  1
DWGPROPS COOKIE
  2

  3

  4

  6

  7

  8
mg
  9

300
=
301
=
302
=
303
=
304
=
305
=
306
=
307
=
308
=
309
=
 40
0.2819833101851852
 41
2452488.423138738
 42
2452754.728911667
  1

 90
        0
  0
DICTIONARY
  5
2A8B
102
{ACAD_REACTORS
330
2A8A
102
}
330
2A8A
100
AcDbDictionary
281
     1
  0
XRECORD
  5
2A80
102
{ACAD_REACTORS
330
21F8
102
}
330
21F8
100
AcDbXrecord
280
     1
340
21CC
  0
XRECORD
  5
2A7F
102
{ACAD_REACTORS
330
21FA
102
}
330
21FA
100
AcDbXrecord
280
     1
340
21C8
  0
LAYOUT
  5
21CF
102
{ACAD_REACTORS
330
21C7
102
}
330
21C7
100
AcDbPlotSettings
  1

  2
SII LP-2150 (D-SCAN C2)
  4

  6

 40
0.0
 41
0.0
 42
0.0
 43
0.0
 44
0.0
 45
0.0
 46
0.0
 47
0.0
 48
0.0
 49
0.0
140
0.0
141
0.0
142
1.0
143
1.0
 70
  1712
 72
     0
 73
     0
 74
     0
  7

 75
     0
147
1.0
148
0.0
149
0.0
100
AcDbLayout
  1
Model
 70
     1
 71
     0
 10
0.0
 20
0.0
 11
12.0
 21
9.0
 12
0.0
 22
0.0
 32
0.0
 14
0.0
 24
0.0
 34
0.0
 15
0.0
 25
0.0
 35
0.0
146
0.0
 13
0.0
 23
0.0
 33
0.0
 16
1.0
 26
0.0
 36
0.0
 17
0.0
 27
1.0
 37
0.0
 76
     0
330
21CC
  0
LAYOUT
  5
21CB
102
{ACAD_REACTORS
330
21C7
102
}
330
21C7
100
AcDbPlotSettings
  1

  2
SII LP-2150 (D-SCAN C2)
  4

  6

 40
0.0
 41
0.0
 42
0.0
 43
0.0
 44
0.0
 45
0.0
 46
0.0
 47
0.0
 48
0.0
 49
0.0
140
0.0
141
0.0
142
1.0
143
1.0
 70
   688
 72
     0
 73
     0
 74
     5
  7

 75
    16
147
1.0
148
0.0
149
0.0
100
AcDbLayout
  1
ﾚｲｱｳﾄ1
 70
     1
 71
     1
 10
0.0
 20
0.0
 11
12.0
 21
9.0
 12
0.0
 22
0.0
 32
0.0
 14
1.000000000000000E+20
 24
1.000000000000000E+20
 34
1.000000000000000E+20
 15
-1.000000000000000E+20
 25
-1.000000000000000E+20
 35
-1.000000000000000E+20
146
0.0
 13
0.0
 23
0.0
 33
0.0
 16
1.0
 26
0.0
 36
0.0
 17
0.0
 27
1.0
 37
0.0
 76
     0
330
21C8
  0
MLINESTYLE
  5
21C5
102
{ACAD_REACTORS
330
21C4
102
}
330
21C4
100
AcDbMlineStyle
  2
STANDARD
 70
     0
  3

 62
   256
 51
90.0
 52
90.0
 71
     2
 49
0.5
 62
   256
  6
BYLAYER
 49
-0.5
 62
   256
  6
BYLAYER
  0
ACDBPLACEHOLDER
  5
21BD
102
{ACAD_REACTORS
330
21BC
102
}
330
21BC
  0
DICTIONARYVAR
  5
2239
102
{ACAD_REACTORS
330
2238
102
}
330
2238
100
DictionaryVariables
280
     0
  1
1
  0
ENDSEC
  0
EOF
