  0
SECTION
  2
HEADER
  9
$ACADVER
  1
AC1018
  9
$ACADMAINTVER
 70
   104
  9
$DWGCODEPAGE
  3
ANSI_932
  9
$LASTSAVEDBY
  1
kanatani
  9
$INSBASE
 10
0.0
 20
0.0
 30
0.0
  9
$EXTMIN
 10
-337.5
 20
-73.9998664855957
 30
0.0
  9
$EXTMAX
 10
337.5
 20
509.1666666666666
 30
0.0
  9
$LIMMIN
 10
-584.0
 20
0.0
  9
$LIMMAX
 10
0.0
 20
588.9623999834062
  9
$ORTHOMODE
 70
     0
  9
$REGENMODE
 70
     1
  9
$FILLMODE
 70
     1
  9
$QTEXTMODE
 70
     0
  9
$MIRRTEXT
 70
     1
  9
$LTSCALE
 40
1.0
  9
$ATTMODE
 70
     1
  9
$TEXTSIZE
 40
2.5
  9
$TRACEWID
 40
1.0
  9
$TEXTSTYLE
  7
STANDARD
  9
$CLAYER
  8
0
  9
$CELTYPE
  6
ByLayer
  9
$CECOLOR
 62
   256
  9
$CELTSCALE
 40
1.0
  9
$DISPSILH
 70
     0
  9
$DIMSCALE
 40
1.0
  9
$DIMASZ
 40
3.0
  9
$DIMEXO
 40
0.0625
  9
$DIMDLI
 40
0.38
  9
$DIMRND
 40
0.0
  9
$DIMDLE
 40
0.0
  9
$DIMEXE
 40
0.18
  9
$DIMTP
 40
0.0
  9
$DIMTM
 40
0.0
  9
$DIMTXT
 40
3.0
  9
$DIMCEN
 40
0.0
  9
$DIMTSZ
 40
0.0
  9
$DIMTOL
 70
     0
  9
$DIMLIM
 70
     0
  9
$DIMTIH
 70
     1
  9
$DIMTOH
 70
     1
  9
$DIMSE1
 70
     0
  9
$DIMSE2
 70
     0
  9
$DIMTAD
 70
     0
  9
$DIMZIN
 70
     0
  9
$DIMBLK
  1

  9
$DIMASO
 70
     1
  9
$DIMSHO
 70
     1
  9
$DIMPOST
  1

  9
$DIMAPOST
  1

  9
$DIMALT
 70
     0
  9
$DIMALTD
 70
     2
  9
$DIMALTF
 40
25.4
  9
$DIMLFAC
 40
1.0
  9
$DIMTOFL
 70
     0
  9
$DIMTVP
 40
0.0
  9
$DIMTIX
 70
     0
  9
$DIMSOXD
 70
     0
  9
$DIMSAH
 70
     0
  9
$DIMBLK1
  1

  9
$DIMBLK2
  1

  9
$DIMSTYLE
  2
STANDARD
  9
$DIMCLRD
 70
     0
  9
$DIMCLRE
 70
     0
  9
$DIMCLRT
 70
     0
  9
$DIMTFAC
 40
1.0
  9
$DIMGAP
 40
1.0
  9
$DIMJUST
 70
     0
  9
$DIMSD1
 70
     0
  9
$DIMSD2
 70
     0
  9
$DIMTOLJ
 70
     1
  9
$DIMTZIN
 70
     8
  9
$DIMALTZ
 70
     8
  9
$DIMALTTZ
 70
     8
  9
$DIMUPT
 70
     0
  9
$DIMDEC
 70
     8
  9
$DIMTDEC
 70
     8
  9
$DIMALTU
 70
     2
  9
$DIMALTTD
 70
     2
  9
$DIMTXSTY
  7
STANDARD
  9
$DIMAUNIT
 70
     0
  9
$DIMADEC
 70
     0
  9
$DIMALTRND
 40
0.0
  9
$DIMAZIN
 70
     0
  9
$DIMDSEP
 70
    46
  9
$DIMATFIT
 70
     3
  9
$DIMFRAC
 70
     0
  9
$DIMLDRBLK
  1

  9
$DIMLUNIT
 70
     2
  9
$DIMLWD
 70
    -2
  9
$DIMLWE
 70
    -2
  9
$DIMTMOVE
 70
     2
  9
$LUNITS
 70
     2
  9
$LUPREC
 70
     8
  9
$SKETCHINC
 40
1.0
  9
$FILLETRAD
 40
0.0
  9
$AUNITS
 70
     0
  9
$AUPREC
 70
     0
  9
$MENU
  1
.
  9
$ELEVATION
 40
0.0
  9
$PELEVATION
 40
0.0
  9
$THICKNESS
 40
0.0
  9
$LIMCHECK
 70
     0
  9
$CHAMFERA
 40
0.0
  9
$CHAMFERB
 40
0.0
  9
$CHAMFERC
 40
0.0
  9
$CHAMFERD
 40
0.0
  9
$SKPOLY
 70
     0
  9
$TDCREATE
 40
2456136.563759606
  9
$TDUCREATE
 40
2456136.188759606
  9
$TDUPDATE
 40
2456183.440847338
  9
$TDUUPDATE
 40
2456183.065847338
  9
$TDINDWG
 40
0.0566722338
  9
$TDUSRTIMER
 40
0.0566721412
  9
$USRTIMER
 70
     1
  9
$ANGBASE
 50
0.0
  9
$ANGDIR
 70
     0
  9
$PDMODE
 70
     0
  9
$PDSIZE
 40
0.0
  9
$PLINEWID
 40
0.0
  9
$SPLFRAME
 70
     0
  9
$SPLINETYPE
 70
     6
  9
$SPLINESEGS
 70
     8
  9
$HANDSEED
  5
236C
  9
$SURFTAB1
 70
     6
  9
$SURFTAB2
 70
     6
  9
$SURFTYPE
 70
     6
  9
$SURFU
 70
     6
  9
$SURFV
 70
     6
  9
$UCSBASE
  2

  9
$UCSNAME
  2

  9
$UCSORG
 10
0.0
 20
0.0
 30
0.0
  9
$UCSXDIR
 10
1.0
 20
0.0
 30
0.0
  9
$UCSYDIR
 10
0.0
 20
1.0
 30
0.0
  9
$UCSORTHOREF
  2

  9
$UCSORTHOVIEW
 70
     0
  9
$UCSORGTOP
 10
0.0
 20
0.0
 30
0.0
  9
$UCSORGBOTTOM
 10
0.0
 20
0.0
 30
0.0
  9
$UCSORGLEFT
 10
0.0
 20
0.0
 30
0.0
  9
$UCSORGRIGHT
 10
0.0
 20
0.0
 30
0.0
  9
$UCSORGFRONT
 10
0.0
 20
0.0
 30
0.0
  9
$UCSORGBACK
 10
0.0
 20
0.0
 30
0.0
  9
$PUCSBASE
  2

  9
$PUCSNAME
  2

  9
$PUCSORG
 10
0.0
 20
0.0
 30
0.0
  9
$PUCSXDIR
 10
1.0
 20
0.0
 30
0.0
  9
$PUCSYDIR
 10
0.0
 20
1.0
 30
0.0
  9
$PUCSORTHOREF
  2

  9
$PUCSORTHOVIEW
 70
     0
  9
$PUCSORGTOP
 10
0.0
 20
0.0
 30
0.0
  9
$PUCSORGBOTTOM
 10
0.0
 20
0.0
 30
0.0
  9
$PUCSORGLEFT
 10
0.0
 20
0.0
 30
0.0
  9
$PUCSORGRIGHT
 10
0.0
 20
0.0
 30
0.0
  9
$PUCSORGFRONT
 10
0.0
 20
0.0
 30
0.0
  9
$PUCSORGBACK
 10
0.0
 20
0.0
 30
0.0
  9
$USERI1
 70
     0
  9
$USERI2
 70
     0
  9
$USERI3
 70
     0
  9
$USERI4
 70
     0
  9
$USERI5
 70
     0
  9
$USERR1
 40
0.0
  9
$USERR2
 40
0.0
  9
$USERR3
 40
0.0
  9
$USERR4
 40
0.0
  9
$USERR5
 40
0.0
  9
$WORLDVIEW
 70
     1
  9
$SHADEDGE
 70
     3
  9
$SHADEDIF
 70
    70
  9
$TILEMODE
 70
     1
  9
$MAXACTVP
 70
    64
  9
$PINSBASE
 10
0.0
 20
0.0
 30
0.0
  9
$PLIMCHECK
 70
     0
  9
$PEXTMIN
 10
1.000000000000000E+20
 20
1.000000000000000E+20
 30
1.000000000000000E+20
  9
$PEXTMAX
 10
-1.000000000000000E+20
 20
-1.000000000000000E+20
 30
-1.000000000000000E+20
  9
$PLIMMIN
 10
-584.0
 20
0.0
  9
$PLIMMAX
 10
0.0
 20
588.9623999834062
  9
$UNITMODE
 70
     0
  9
$VISRETAIN
 70
     1
  9
$PLINEGEN
 70
     0
  9
$PSLTSCALE
 70
     1
  9
$TREEDEPTH
 70
  3020
  9
$CMLSTYLE
  2
Standard
  9
$CMLJUST
 70
     0
  9
$CMLSCALE
 40
1.0
  9
$PROXYGRAPHICS
 70
     1
  9
$MEASUREMENT
 70
     0
  9
$CELWEIGHT
370
    -1
  9
$ENDCAPS
280
     0
  9
$JOINSTYLE
280
     0
  9
$LWDISPLAY
290
     0
  9
$INSUNITS
 70
     0
  9
$HYPERLINKBASE
  1

  9
$STYLESHEET
  1

  9
$XEDIT
290
     1
  9
$CEPSNTYPE
380
     0
  9
$PSTYLEMODE
290
     1
  9
$FINGERPRINTGUID
  2
{F1AE29D1-B18A-408E-B2F4-8A08E115ADC0}
  9
$VERSIONGUID
  2
{66BC64F2-20A0-4E55-BDB9-03389B130D13}
  9
$EXTNAMES
290
     1
  9
$PSVPSCALE
 40
0.0
  9
$OLESTARTUP
290
     0
  9
$SORTENTS
280
   127
  9
$INDEXCTL
280
     0
  9
$HIDETEXT
280
     0
  9
$XCLIPFRAME
290
     0
  9
$HALOGAP
280
     0
  9
$OBSCOLOR
 70
   257
  9
$OBSLTYPE
280
     0
  9
$INTERSECTIONDISPLAY
280
     0
  9
$INTERSECTIONCOLOR
 70
   257
  9
$DIMASSOC
280
     1
  9
$PROJECTNAME
  1

  0
ENDSEC
  0
SECTION
  2
CLASSES
  0
CLASS
  1
ACDBDICTIONARYWDFLT
  2
AcDbDictionaryWithDefault
  3
ObjectDBX Classes
 90
        0
 91
        1
280
     0
281
     0
  0
CLASS
  1
MATERIAL
  2
AcDbMaterial
  3
ObjectDBX Classes
 90
     1153
 91
        3
280
     0
281
     0
  0
CLASS
  1
VISUALSTYLE
  2
AcDbVisualStyle
  3
ObjectDBX Classes
 90
     4095
 91
       26
280
     0
281
     0
  0
CLASS
  1
SCALE
  2
AcDbScale
  3
ObjectDBX Classes
 90
     1153
 91
       17
280
     0
281
     0
  0
CLASS
  1
TABLESTYLE
  2
AcDbTableStyle
  3
ObjectDBX Classes
 90
     4095
 91
        1
280
     0
281
     0
  0
CLASS
  1
MLEADERSTYLE
  2
AcDbMLeaderStyle
  3
ACDB_MLEADERSTYLE_CLASS
 90
     4095
 91
        1
280
     0
281
     0
  0
CLASS
  1
AMGSETTINGSOBJ
  2
AmgSettingsObj
  3
"AcadM|Product Description: AutoCAD Mechanical|Company: Autodesk, Inc."
 90
     1024
 91
        0
280
     0
281
     0
  0
CLASS
  1
ACME_DOCUMENT
  2
AcMeDbDoc
  3
AcMeServices
 90
     1024
 91
        0
280
     0
281
     0
  0
CLASS
  1
ACMESCOPE
  2
AcMeScope
  3
AcMeServices
 90
     1024
 91
        0
280
     0
281
     0
  0
CLASS
  1
ACMECOMMANDHISTORY
  2
AcMeCommandHistory
  3
AcMeServices
 90
     1024
 91
        0
280
     0
281
     0
  0
CLASS
  1
ACIMSYSVARMAN
  2
AcImSysVarManager
  3
AcMeServices
 90
     1024
 91
        0
280
     0
281
     0
  0
CLASS
  1
ACIMINTSYSVAR
  2
AcImIntSysVar
  3
AcMeServices
 90
     1024
 91
        0
280
     0
281
     0
  0
CLASS
  1
ACMESTATEMGR
  2
AcMeStateMgr
  3
AcMeServices
 90
     1024
 91
        0
280
     0
281
     0
  0
CLASS
  1
ACDBENTITYCACHE
  2
AcMeEntityCache
  3
AcMeServices
 90
     1024
 91
        0
280
     0
281
     0
  0
CLASS
  1
ACGREFMASTER
  2
AcGrefMaster
  3
AcAttribServices
 90
     1024
 91
        0
280
     0
281
     0
  0
CLASS
  1
ACME_DATABASE
  2
AcMeDbDatabase
  3
AcMeServices
 90
     1024
 91
        0
280
     0
281
     0
  0
CLASS
  1
ACRFINSADJUSTERMGR
  2
AcRfInsAdjusterMgr
  3
AcMeServices
 90
     1024
 91
        0
280
     0
281
     0
  0
CLASS
  1
ACGREFACADMASTER
  2
AcGrefacadMaster
  3
AcGrefServices
 90
     1024
 91
        0
280
     0
281
     0
  0
CLASS
  1
AMDTMENUSTATEMGR
  2
AmdtMenuStateMgr
  3
McadcomServices
 90
     1024
 91
        0
280
     0
281
     0
  0
CLASS
  1
AMDTMCOMMENUSTATE
  2
AmdtMcomMenuState
  3
McadcomServices
 90
     1024
 91
        0
280
     0
281
     0
  0
CLASS
  1
AMIMASTER
  2
AmiMaster
  3
AmiServices
 90
     1024
 91
        0
280
     0
281
     0
  0
CLASS
  1
MAPIAMMOUDLE
  2
MApiAmModule
  3
MApiAmServices
 90
     1024
 91
        0
280
     0
281
     0
  0
CLASS
  1
ACIMSTRSYSVAR
  2
AcImStrSysVar
  3
AcMeServices
 90
     1024
 91
        0
280
     0
281
     0
  0
CLASS
  1
AMDTAMMENUSTATE
  2
AmdtAmMenuState
  3
DesignerAssemblies
 90
     1024
 91
        0
280
     0
281
     0
  0
CLASS
  1
ACAMPROJECT
  2
AcAmProject
  3
DesignerAssemblies
 90
     1024
 91
        0
280
     0
281
     0
  0
CLASS
  1
ACAMGRCOMPDEF
  2
AcAmGrCompDef
  3
DesignerAssemblies
 90
     1024
 91
        0
280
     0
281
     0
  0
CLASS
  1
ACAMCOMPDEF
  2
AcAmCompDef
  3
DesignerAssemblies
 90
     1024
 91
        0
280
     0
281
     0
  0
CLASS
  1
ACAMCOMPDEFMGR
  2
AcAmCompDefMgr
  3
DesignerAssemblies
 90
     1024
 91
        0
280
     0
281
     0
  0
CLASS
  1
AMCONTEXTMGR
  2
AcAmContextMgr
  3
DesignerAssemblies
 90
     1024
 91
        0
280
     0
281
     0
  0
CLASS
  1
ACAMCONTEXTMODELER
  2
AcAmContextModeler
  3
DesignerAssemblies
 90
     1024
 91
        0
280
     0
281
     0
  0
CLASS
  1
ACMDATADICTIONARY
  2
AcmDataDictionary
  3
"AcmSymBB|Product Description: AutoCAD Mechanical|Company: Autodesk, Inc."
 90
     1024
 91
        0
280
     0
281
     0
  0
CLASS
  1
ACAMGRCOMPDEFSET
  2
AcAmGrCompDefSet
  3
DesignerAssemblies
 90
     1024
 91
        0
280
     0
281
     0
  0
CLASS
  1
AMDTBROWSERDBTAB
  2
AmdtBrowserDbTab
  3
McadcomServices
 90
     1024
 91
        0
280
     0
281
     0
  0
CLASS
  1
CBROWSERAPPOBJECT
  2
CBrowserAppObject
  3
McadcomServices
 90
     1024
 91
        0
280
     0
281
     0
  0
CLASS
  1
DM_PLACEHOLDER
  2
AcDmSelsetPlaceholder
  3
McadcomServices
 90
     1024
 91
        0
280
     0
281
     0
  0
CLASS
  1
EXACXREFPANELOBJECT
  2
ExAcXREFPanelObject
  3
EXAC_ESW
 90
     1025
 91
        0
280
     0
281
     0
  0
CLASS
  1
NPOCOLLECTION
  2
AcDbImpNonPersistentObjectsCollection
  3
ObjectDBX Classes
 90
     1153
 91
        0
280
     0
281
     0
  0
CLASS
  1
ACMSTANDARDANSI
  2
AcmStandardANSI
  3
"Amdt_StdImp|Product Description: AutoCAD Mechanical|Company: Autodesk, Inc."
 90
     1024
 91
        0
280
     0
281
     0
  0
CLASS
  1
ACMSURFSTANDARDANSI
  2
AcmSurfTextStdANSI
  3
"Amdt_StdImp|Product Description: AutoCAD Mechanical|Company: Autodesk, Inc."
 90
     1024
 91
        0
280
     0
281
     0
  0
CLASS
  1
ACMFCFSTANDARDANSI
  2
AcmFCFStdANSI
  3
"Amdt_StdImp|Product Description: AutoCAD Mechanical|Company: Autodesk, Inc."
 90
     1024
 91
        0
280
     0
281
     0
  0
CLASS
  1
ACMWELDSTANDARDANSI
  2
AcmWeldingStdANSI
  3
"Amdt_StdImp|Product Description: AutoCAD Mechanical|Company: Autodesk, Inc."
 90
     1024
 91
        0
280
     0
281
     0
  0
CLASS
  1
ACMIDSTANDARDANSI
  2
AcmIdStdANSI
  3
"Amdt_StdImp|Product Description: AutoCAD Mechanical|Company: Autodesk, Inc."
 90
     1024
 91
        0
280
     0
281
     0
  0
CLASS
  1
ACMDATUMSTANDARDANSI
  2
AcmDatumStdANSI
  3
"Amdt_StdImp|Product Description: AutoCAD Mechanical|Company: Autodesk, Inc."
 90
     1024
 91
        0
280
     0
281
     0
  0
CLASS
  1
ACMBOMSTANDARDANSI
  2
AcmBOMStdANSI
  3
"Amdt_StdImp|Product Description: AutoCAD Mechanical|Company: Autodesk, Inc."
 90
     1024
 91
        0
280
     0
281
     0
  0
CLASS
  1
ACMDETAILSTANDARDANSI
  2
AmdtDetailSymStdANSI
  3
"Amdt_StdImp|Product Description: AutoCAD Mechanical|Company: Autodesk, Inc."
 90
     1024
 91
        0
280
     0
281
     0
  0
CLASS
  1
ACMSECTIONSTANDARDANSI
  2
AmdtSectionSymStdANSI
  3
"Amdt_StdImp|Product Description: AutoCAD Mechanical|Company: Autodesk, Inc."
 90
     1024
 91
        0
280
     0
281
     0
  0
CLASS
  1
ACMCENTERLINESTANDARDANSI
  2
AmdtCenterLineStdANSI
  3
"Amdt_StdImp|Product Description: AutoCAD Mechanical|Company: Autodesk, Inc."
 90
     1024
 91
        0
280
     0
281
     0
  0
CLASS
  1
ACMTHREADLINESTANDARDANSI
  2
AmdtThreadLineStdANSI
  3
"Amdt_StdImp|Product Description: AutoCAD Mechanical|Company: Autodesk, Inc."
 90
     1024
 91
        0
280
     0
281
     0
  0
CLASS
  1
ACMNOTESTANDARDANSI
  2
AmdtNoteStdANSI
  3
"Amdt_StdImp|Product Description: AutoCAD Mechanical|Company: Autodesk, Inc."
 90
     1024
 91
        0
280
     0
281
     0
  0
CLASS
  1
ACMTAPERSTANDARDANSI
  2
AcmTaperStdANSI
  3
"Amdt_StdImp|Product Description: AutoCAD Mechanical|Company: Autodesk, Inc."
 90
     1024
 91
        0
280
     0
281
     0
  0
CLASS
  1
ACMANOOTATIONVIEWSTANDARDANSI
  2
AmdtAnViewStdANSI
  3
"Amdt_StdImp|Product Description: AutoCAD Mechanical|Company: Autodesk, Inc."
 90
     1024
 91
        0
280
     0
281
     0
  0
CLASS
  1
ACAMGLAYSTD
  2
AcAmgLayStd
  3
"AmgLay|Product Description: AutoCAD Mechanical|Company: Autodesk, Inc."
 90
     1024
 91
        0
280
     0
281
     0
  0
CLASS
  1
ACAMGDIMSTD
  2
AcAmgDimStd
  3
"AmgDim|Product Description: AutoCAD Mechanical|Company: Autodesk, Inc."
 90
     1024
 91
        0
280
     0
281
     0
  0
CLASS
  1
AMGOBJPROPCFG
  2
AmgObjPropCfg
  3
"AmgLay|Product Description: AutoCAD Mechanical|Company: Autodesk, Inc."
 90
     1025
 91
        0
280
     0
281
     0
  0
CLASS
  1
ACAMGHOLECHARTSTDANSI
  2
AcAmgHoleChartStdANSI
  3
AmgDim|Product Description: AutoCAD Mechanical|Company: Autodesk, Inc.
 90
     1024
 91
        0
280
     0
281
     0
  0
CLASS
  1
ACAMGTITLESTD
  2
AcAmgTitleStd
  3
"AmgTitle|Product Description: AutoCAD Mechanical|Company: Autodesk, Inc."
 90
     4095
 91
        0
280
     0
281
     0
  0
CLASS
  1
AMDTNOTETEMPLATEDB
  2
AmdtNoteTemplateDB
  3
AcmSymBB|Product Description: AutoCAD Mechanical|Company: Autodesk, Inc.
 90
     1024
 91
        0
280
     0
281
     0
  0
CLASS
  1
ACAMGFILTERDAT
  2
AcAmgFilterDat
  3
"AcadM|Product Description: AutoCAD Mechanical|Company: Autodesk, Inc."
 90
     1024
 91
        0
280
     0
281
     0
  0
CLASS
  1
CELLSTYLEMAP
  2
AcDbCellStyleMap
  3
ObjectDBX Classes
 90
     1152
 91
        2
280
     0
281
     0
  0
CLASS
  1
DICTIONARYVAR
  2
AcDbDictionaryVar
  3
ObjectDBX Classes
 90
        0
 91
       13
280
     0
281
     0
  0
CLASS
  1
SORTENTSTABLE
  2
AcDbSortentsTable
  3
ObjectDBX Classes
 90
        0
 91
        1
280
     0
281
     0
  0
ENDSEC
  0
SECTION
  2
TABLES
  0
TABLE
  2
VPORT
  5
FF9
102
{ACAD_XDICTIONARY
360
122E
102
}
330
0
100
AcDbSymbolTable
 70
     1
  0
VPORT
  5
1060
330
FF9
100
AcDbSymbolTableRecord
100
AcDbViewportTableRecord
  2
*ACTIVE
 70
     0
 10
0.0
 20
0.0
 11
1.0
 21
1.0
 12
359.5818604811193
 22
183.5620329709288
 13
0.0
 23
0.0
 14
10.0
 24
10.0
 15
10.0
 25
10.0
 16
0.0
 26
0.0
 36
1.0
 17
0.0
 27
0.0
 37
0.0
 40
930.0077422983504
 41
2.051413881748072
 42
50.0
 43
0.0
 44
0.0
 50
0.0
 51
0.0
 71
     0
 72
   100
 73
     1
 74
     3
 75
     0
 76
     0
 77
     0
 78
     0
281
     0
 65
     1
110
0.0
120
0.0
130
0.0
111
1.0
121
0.0
131
0.0
112
0.0
122
1.0
132
0.0
 79
     0
146
0.0
1001
ACAD_NAV_VCDISPLAY
1070
     3
  0
ENDTAB
  0
TABLE
  2
LTYPE
  5
FF6
330
0
100
AcDbSymbolTable
 70
     2
  0
LTYPE
  5
104B
330
FF6
100
AcDbSymbolTableRecord
100
AcDbLinetypeTableRecord
  2
ByBlock
 70
     0
  3

 72
    65
 73
     0
 40
0.0
  0
LTYPE
  5
104C
330
FF6
100
AcDbSymbolTableRecord
100
AcDbLinetypeTableRecord
  2
ByLayer
 70
     0
  3

 72
    65
 73
     0
 40
0.0
  0
LTYPE
  5
104D
330
FF6
100
AcDbSymbolTableRecord
100
AcDbLinetypeTableRecord
  2
CONTINUOUS
 70
     0
  3
Solid line
 72
    65
 73
     0
 40
0.0
  0
LTYPE
  5
1064
330
FF6
100
AcDbSymbolTableRecord
100
AcDbLinetypeTableRecord
  2
CENTER
 70
     0
  3
__ . __
 72
    65
 73
     4
 40
7.0
 49
4.0
 74
     0
 49
-1.0
 74
     0
 49
1.0
 74
     0
 49
-1.0
 74
     0
  0
ENDTAB
  0
TABLE
  2
LAYER
  5
FF3
102
{ACAD_XDICTIONARY
360
155F
102
}
330
0
100
AcDbSymbolTable
 70
     2
  0
LAYER
  5
1045
102
{ACAD_XDICTIONARY
360
1228
102
}
330
FF3
100
AcDbSymbolTableRecord
100
AcDbLayerTableRecord
  2
0
 70
     0
 62
     7
  6
CONTINUOUS
370
    -3
390
1000
  0
LAYER
  5
1570
330
FF3
100
AcDbSymbolTableRecord
100
AcDbLayerTableRecord
  2
Defpoints
 70
     0
 62
     7
  6
CONTINUOUS
290
     0
370
    -3
390
1000
  0
ENDTAB
  0
TABLE
  2
STYLE
  5
FF4
330
0
100
AcDbSymbolTable
 70
     1
  0
STYLE
  5
1046
330
FF4
100
AcDbSymbolTableRecord
100
AcDbTextStyleTableRecord
  2
STANDARD
 70
     0
 40
0.0
 41
1.0
 50
0.0
 71
     0
 42
2.5
  3
txt.shx
  4

  0
ENDTAB
  0
TABLE
  2
VIEW
  5
FF7
330
0
100
AcDbSymbolTable
 70
     0
  0
ENDTAB
  0
TABLE
  2
UCS
  5
FF8
330
0
100
AcDbSymbolTable
 70
     0
  0
ENDTAB
  0
TABLE
  2
APPID
  5
FFA
330
0
100
AcDbSymbolTable
 70
    87
  0
APPID
  5
1047
330
FFA
100
AcDbSymbolTableRecord
100
AcDbRegAppTableRecord
  2
ACAD
 70
     0
  0
APPID
  5
104E
330
FFA
100
AcDbSymbolTableRecord
100
AcDbRegAppTableRecord
  2
ACADANNOTATIVE
 70
     0
  0
APPID
  5
107C
330
FFA
100
AcDbSymbolTableRecord
100
AcDbRegAppTableRecord
  2
MCAD_NO_VIS
 70
     0
  0
APPID
  5
107D
330
FFA
100
AcDbSymbolTableRecord
100
AcDbRegAppTableRecord
  2
ACAD_TEMP_GRAPHIC
 70
     0
  0
APPID
  5
107E
330
FFA
100
AcDbSymbolTableRecord
100
AcDbRegAppTableRecord
  2
ACATTRIBSERVICES
 70
     0
  0
APPID
  5
107F
330
FFA
100
AcDbSymbolTableRecord
100
AcDbRegAppTableRecord
  2
AD_DRAW
 70
     0
  0
APPID
  5
1080
330
FFA
100
AcDbSymbolTableRecord
100
AcDbRegAppTableRecord
  2
DESIGNERASSEMBLIES
 70
     0
  0
APPID
  5
1081
330
FFA
100
AcDbSymbolTableRecord
100
AcDbRegAppTableRecord
  2
ASURF_PCURVE_APPNAME
 70
     0
  0
APPID
  5
1082
330
FFA
100
AcDbSymbolTableRecord
100
AcDbRegAppTableRecord
  2
ACADM_DIM_EDIT
 70
     0
  0
APPID
  5
1083
330
FFA
100
AcDbSymbolTableRecord
100
AcDbRegAppTableRecord
  2
GENIUS_GENDIM_13
 70
     0
  0
APPID
  5
1084
330
FFA
100
AcDbSymbolTableRecord
100
AcDbRegAppTableRecord
  2
GENIUS_GENDTOL_13
 70
     0
  0
APPID
  5
1085
330
FFA
100
AcDbSymbolTableRecord
100
AcDbRegAppTableRecord
  2
GENIUS_GE3DTOL_13
 70
     0
  0
APPID
  5
1086
330
FFA
100
AcDbSymbolTableRecord
100
AcDbRegAppTableRecord
  2
AMG_3D2D_5_0
 70
     0
  0
APPID
  5
1087
330
FFA
100
AcDbSymbolTableRecord
100
AcDbRegAppTableRecord
  2
AMDT_DM_ADJ
 70
     0
  0
APPID
  5
1088
330
FFA
100
AcDbSymbolTableRecord
100
AcDbRegAppTableRecord
  2
CK_MATE-SERIES
 70
     0
  0
APPID
  5
1089
330
FFA
100
AcDbSymbolTableRecord
100
AcDbRegAppTableRecord
  2
GEVID1042077799
 70
     0
  0
APPID
  5
108A
330
FFA
100
AcDbSymbolTableRecord
100
AcDbRegAppTableRecord
  2
GEVMK
 70
     0
  0
APPID
  5
108B
330
FFA
100
AcDbSymbolTableRecord
100
AcDbRegAppTableRecord
  2
GEVDC
 70
     0
  0
APPID
  5
108C
330
FFA
100
AcDbSymbolTableRecord
100
AcDbRegAppTableRecord
  2
GENIUS_GENBH_13
 70
     0
  0
APPID
  5
108D
330
FFA
100
AcDbSymbolTableRecord
100
AcDbRegAppTableRecord
  2
GENIUS_GENOLIS_13
 70
     0
  0
APPID
  5
108E
330
FFA
100
AcDbSymbolTableRecord
100
AcDbRegAppTableRecord
  2
GENIUS_GENOENT_13
 70
     0
  0
APPID
  5
108F
330
FFA
100
AcDbSymbolTableRecord
100
AcDbRegAppTableRecord
  2
GENIUS_GENODEF_13
 70
     0
  0
APPID
  5
1090
330
FFA
100
AcDbSymbolTableRecord
100
AcDbRegAppTableRecord
  2
GENIUS_GENOBJ-NBEHI-BHF_13
 70
     0
  0
APPID
  5
1091
330
FFA
100
AcDbSymbolTableRecord
100
AcDbRegAppTableRecord
  2
GENIUS_GENOREF_13
 70
     0
  0
APPID
  5
1092
330
FFA
100
AcDbSymbolTableRecord
100
AcDbRegAppTableRecord
  2
GENIUS_GENOBJ-NBEHI-BHB_13
 70
     0
  0
APPID
  5
1093
330
FFA
100
AcDbSymbolTableRecord
100
AcDbRegAppTableRecord
  2
GEVID1042183772
 70
     0
  0
APPID
  5
1094
330
FFA
100
AcDbSymbolTableRecord
100
AcDbRegAppTableRecord
  2
GEVID1042183773
 70
     0
  0
APPID
  5
1095
330
FFA
100
AcDbSymbolTableRecord
100
AcDbRegAppTableRecord
  2
GEVID1042183774
 70
     0
  0
APPID
  5
1096
330
FFA
100
AcDbSymbolTableRecord
100
AcDbRegAppTableRecord
  2
DCO15
 70
     0
  0
APPID
  5
1097
330
FFA
100
AcDbSymbolTableRecord
100
AcDbRegAppTableRecord
  2
ACAD_DSTYLE_DIMARC_LENGTH_
 70
     0
  0
APPID
  5
1098
330
FFA
100
AcDbSymbolTableRecord
100
AcDbRegAppTableRecord
  2
ACAD_DSTYLE_DIMJOGGED_JOGA
 70
     0
  0
APPID
  5
1099
330
FFA
100
AcDbSymbolTableRecord
100
AcDbRegAppTableRecord
  2
ACAD_MLEADERVER
 70
     0
  0
APPID
  5
109A
330
FFA
100
AcDbSymbolTableRecord
100
AcDbRegAppTableRecord
  2
GENIUS_GENOBJ-N-FIL_13
 70
     0
  0
APPID
  5
109B
330
FFA
100
AcDbSymbolTableRecord
100
AcDbRegAppTableRecord
  2
ACADANNOPO
 70
     0
  0
APPID
  5
109C
330
FFA
100
AcDbSymbolTableRecord
100
AcDbRegAppTableRecord
  2
GENIUS_GENOBJ-N-TIT_13
 70
     0
  0
APPID
  5
109D
330
FFA
100
AcDbSymbolTableRecord
100
AcDbRegAppTableRecord
  2
GENIUS_GENTITLE_13
 70
     0
  0
APPID
  5
109E
330
FFA
100
AcDbSymbolTableRecord
100
AcDbRegAppTableRecord
  2
GENIUS_GENSCREG_15
 70
     0
  0
APPID
  5
109F
330
FFA
100
AcDbSymbolTableRecord
100
AcDbRegAppTableRecord
  2
GENIUS_GENOBJ-N-SDF_13
 70
     0
  0
APPID
  5
10A0
330
FFA
100
AcDbSymbolTableRecord
100
AcDbRegAppTableRecord
  2
ACAD_PSEXT
 70
     0
  0
APPID
  5
10A1
330
FFA
100
AcDbSymbolTableRecord
100
AcDbRegAppTableRecord
  2
ACAECLAYERSTANDARD
 70
     0
  0
APPID
  5
10A2
330
FFA
100
AcDbSymbolTableRecord
100
AcDbRegAppTableRecord
  2
ACAD_EXEMPT_FROM_CAD_STANDARDS
 70
     0
  0
APPID
  5
10A3
330
FFA
100
AcDbSymbolTableRecord
100
AcDbRegAppTableRecord
  2
ACAD_DSTYLE_DIMINSPECT
 70
     0
  0
APPID
  5
10A4
330
FFA
100
AcDbSymbolTableRecord
100
AcDbRegAppTableRecord
  2
GENIUS_GENDIMSH_14
 70
     0
  0
APPID
  5
10A5
330
FFA
100
AcDbSymbolTableRecord
100
AcDbRegAppTableRecord
  2
GENIUS_GENOBJ-N-CEN_13
 70
     0
  0
APPID
  5
10A6
330
FFA
100
AcDbSymbolTableRecord
100
AcDbRegAppTableRecord
  2
GENIUS_GENCEN_19
 70
     0
  0
APPID
  5
10A7
330
FFA
100
AcDbSymbolTableRecord
100
AcDbRegAppTableRecord
  2
ACAD_DSTYLE_DIMJAG
 70
     0
  0
APPID
  5
10A8
330
FFA
100
AcDbSymbolTableRecord
100
AcDbRegAppTableRecord
  2
ACAD_DSTYLE_DIMTALN
 70
     0
  0
APPID
  5
10A9
330
FFA
100
AcDbSymbolTableRecord
100
AcDbRegAppTableRecord
  2
GENIUS_GENREC_14
 70
     0
  0
APPID
  5
10AA
330
FFA
100
AcDbSymbolTableRecord
100
AcDbRegAppTableRecord
  2
GENIUS_GENOBJ-N-REC_13
 70
     0
  0
APPID
  5
10AB
330
FFA
100
AcDbSymbolTableRecord
100
AcDbRegAppTableRecord
  2
ACAD_DIMASSOC_CALC_DIMLFAC
 70
     0
  0
APPID
  5
10AC
330
FFA
100
AcDbSymbolTableRecord
100
AcDbRegAppTableRecord
  2
ACAD_DIMASSOC_DIMLFAC
 70
     0
  0
APPID
  5
10AD
330
FFA
100
AcDbSymbolTableRecord
100
AcDbRegAppTableRecord
  2
ACAD_DIMASSOC_OVERRIDDEN_D
 70
     0
  0
APPID
  5
10AE
330
FFA
100
AcDbSymbolTableRecord
100
AcDbRegAppTableRecord
  2
ACAD_DSTYLE_DIMEXT_LENGTH
 70
     0
  0
APPID
  5
10AF
330
FFA
100
AcDbSymbolTableRecord
100
AcDbRegAppTableRecord
  2
ACAD_DSTYLE_DIMEXT_ENABLED
 70
     0
  0
APPID
  5
10B0
330
FFA
100
AcDbSymbolTableRecord
100
AcDbRegAppTableRecord
  2
ACAD_DSTYLE_DIMBREAK
 70
     0
  0
APPID
  5
10B1
330
FFA
100
AcDbSymbolTableRecord
100
AcDbRegAppTableRecord
  2
ACAD_DSTYLE_DIMANGULAR_EXT
 70
     0
  0
APPID
  5
10B2
330
FFA
100
AcDbSymbolTableRecord
100
AcDbRegAppTableRecord
  2
ACCMTRANSPARENCY
 70
     0
  0
APPID
  5
10B3
330
FFA
100
AcDbSymbolTableRecord
100
AcDbRegAppTableRecord
  2
GENIUS_GENBLLY_14
 70
     0
  0
APPID
  5
10B4
330
FFA
100
AcDbSymbolTableRecord
100
AcDbRegAppTableRecord
  2
GENIUS_GENTRA_14
 70
     0
  0
APPID
  5
10B5
330
FFA
100
AcDbSymbolTableRecord
100
AcDbRegAppTableRecord
  2
GENIUS_GENOBJ-N-REV_13
 70
     0
  0
APPID
  5
10B6
330
FFA
100
AcDbSymbolTableRecord
100
AcDbRegAppTableRecord
  2
GENIUS_GENOBJ-N-RSSYM_13
 70
     0
  0
APPID
  5
10B7
330
FFA
100
AcDbSymbolTableRecord
100
AcDbRegAppTableRecord
  2
GENIUS_GENSYMENT_13
 70
     0
  0
APPID
  5
10B8
330
FFA
100
AcDbSymbolTableRecord
100
AcDbRegAppTableRecord
  2
GENIUS_GENSCSYM_13
 70
     0
  0
APPID
  5
10B9
330
FFA
100
AcDbSymbolTableRecord
100
AcDbRegAppTableRecord
  2
ACDBBLOCKREPBTAG
 70
     0
  0
APPID
  5
10BA
330
FFA
100
AcDbSymbolTableRecord
100
AcDbRegAppTableRecord
  2
ACAUTHENVIRON
 70
     0
  0
APPID
  5
10BB
330
FFA
100
AcDbSymbolTableRecord
100
AcDbRegAppTableRecord
  2
ACDBDYNAMICBLOCKTRUENAME
 70
     0
  0
APPID
  5
10BC
330
FFA
100
AcDbSymbolTableRecord
100
AcDbRegAppTableRecord
  2
ACDBDYNAMICBLOCKGUID
 70
     0
  0
APPID
  5
10BD
330
FFA
100
AcDbSymbolTableRecord
100
AcDbRegAppTableRecord
  2
ACDBBLOCKREPETAG
 70
     0
  0
APPID
  5
10BE
330
FFA
100
AcDbSymbolTableRecord
100
AcDbRegAppTableRecord
  2
GENIUS_GENOBJ-N-HTC_13
 70
     0
  0
APPID
  5
10BF
330
FFA
100
AcDbSymbolTableRecord
100
AcDbRegAppTableRecord
  2
GENIUS_GENHATCH_13
 70
     0
  0
APPID
  5
10C0
330
FFA
100
AcDbSymbolTableRecord
100
AcDbRegAppTableRecord
  2
GRADIENTCOLOR1ACI
 70
     0
  0
APPID
  5
10C1
330
FFA
100
AcDbSymbolTableRecord
100
AcDbRegAppTableRecord
  2
GRADIENTCOLOR2ACI
 70
     0
  0
APPID
  5
10C2
330
FFA
100
AcDbSymbolTableRecord
100
AcDbRegAppTableRecord
  2
GENIUS_GENFIL_13
 70
     0
  0
APPID
  5
10C3
330
FFA
100
AcDbSymbolTableRecord
100
AcDbRegAppTableRecord
  2
GENIUS_GENOBJ-N-CHA_13
 70
     0
  0
APPID
  5
10C4
330
FFA
100
AcDbSymbolTableRecord
100
AcDbRegAppTableRecord
  2
ACAD_DSTYLE_DIM_LINETYPE
 70
     0
  0
APPID
  5
10C5
330
FFA
100
AcDbSymbolTableRecord
100
AcDbRegAppTableRecord
  2
ACAD_DSTYLE_DIM_EXT1_LINETYPE
 70
     0
  0
APPID
  5
10C6
330
FFA
100
AcDbSymbolTableRecord
100
AcDbRegAppTableRecord
  2
ACAD_DSTYLE_DIM_EXT2_LINETYPE
 70
     0
  0
APPID
  5
10C7
330
FFA
100
AcDbSymbolTableRecord
100
AcDbRegAppTableRecord
  2
ACDBATTR
 70
     0
  0
APPID
  5
10C8
330
FFA
100
AcDbSymbolTableRecord
100
AcDbRegAppTableRecord
  2
ACAD_DSTYLE_DIMRADIAL_EXTENSION
 70
     0
  0
APPID
  5
10C9
330
FFA
100
AcDbSymbolTableRecord
100
AcDbRegAppTableRecord
  2
ACADANNOAV
 70
     0
  0
APPID
  5
10CA
330
FFA
100
AcDbSymbolTableRecord
100
AcDbRegAppTableRecord
  2
ACAD_DSTYLE_DIMTEXT_FILL
 70
     0
  0
APPID
  5
10CB
330
FFA
100
AcDbSymbolTableRecord
100
AcDbRegAppTableRecord
  2
ACAD_DSTYLE_DIMFLIPARROW_W
 70
     0
  0
APPID
  5
10CC
330
FFA
100
AcDbSymbolTableRecord
100
AcDbRegAppTableRecord
  2
ACADBPTGRAPHNODEID
 70
     0
  0
APPID
  5
10CD
330
FFA
100
AcDbSymbolTableRecord
100
AcDbRegAppTableRecord
  2
PE_URL
 70
     0
  0
APPID
  5
10CE
330
FFA
100
AcDbSymbolTableRecord
100
AcDbRegAppTableRecord
  2
ACAD_NAV_VCDISPLAY
 70
     0
  0
APPID
  5
10CF
330
FFA
100
AcDbSymbolTableRecord
100
AcDbRegAppTableRecord
  2
CONTENTBLOCKICON
 70
     0
  0
APPID
  5
1268
330
FFA
100
AcDbSymbolTableRecord
100
AcDbRegAppTableRecord
  2
ACAD_DSTYLE_DIMARC_LENGTH_SYMBOL
 70
     0
  0
ENDTAB
  0
TABLE
  2
DIMSTYLE
  5
FFB
330
0
100
AcDbSymbolTable
 70
     1
100
AcDbDimStyleTable
 71
     1
340
1048
  0
DIMSTYLE
105
1048
330
FFB
100
AcDbSymbolTableRecord
100
AcDbDimStyleTableRecord
  2
STANDARD
 70
     0
271
     8
272
     8
274
     3
279
     2
284
     8
285
     8
286
     8
340
1046
  0
ENDTAB
  0
TABLE
  2
BLOCK_RECORD
  5
FF2
330
0
100
AcDbSymbolTable
 70
     0
  0
BLOCK_RECORD
  5
105C
102
{ACAD_XDICTIONARY
360
12F8
102
}
330
FF2
100
AcDbSymbolTableRecord
100
AcDbBlockTableRecord
  2
*Model_Space
340
105F
  0
BLOCK_RECORD
  5
1058
330
FF2
100
AcDbSymbolTableRecord
100
AcDbBlockTableRecord
  2
*Paper_Space
340
105B
  0
ENDTAB
  0
ENDSEC
  0
SECTION
  2
BLOCKS
  0
BLOCK
  5
105D
330
105C
100
AcDbEntity
  8
0
100
AcDbBlockBegin
  2
*Model_Space
 70
     0
 10
0.0
 20
0.0
 30
0.0
  3
*Model_Space
  1

  0
ENDBLK
  5
105E
330
105C
100
AcDbEntity
  8
0
100
AcDbBlockEnd
  0
BLOCK
  5
1059
330
1058
100
AcDbEntity
 67
     1
  8
0
100
AcDbBlockBegin
  2
*Paper_Space
 70
     0
 10
0.0
 20
0.0
 30
0.0
  3
*Paper_Space
  1

  0
ENDBLK
  5
105A
330
1058
100
AcDbEntity
 67
     1
  8
0
100
AcDbBlockEnd
  0
ENDSEC
  0
SECTION
  2
ENTITIES
  0
LINE
  5
1F82
330
105C
100
AcDbEntity
  8
0
  6
CENTER
100
AcDbLine
 10
-243.0
 20
238.5983276367189
 30
0.0
 11
-243.0
 21
-73.9998664855957
 31
0.0
  0
LINE
  5
1F83
330
105C
100
AcDbEntity
  8
0
100
AcDbLine
 10
-223.0000899440483
 20
56.85447505485808
 30
0.0
 11
-225.5000088459161
 21
58.29780393170882
 31
0.0
  0
LINE
  5
1F84
330
105C
100
AcDbEntity
  8
0
100
AcDbLine
 10
-222.9999277283456
 20
62.62787205375139
 30
0.0
 11
-225.4999259172068
 21
61.18449740053285
 31
0.0
  0
LINE
  5
1F85
330
105C
100
AcDbEntity
  8
0
100
AcDbLine
 10
-220.5
 20
58.2978515625
 30
0.0
 11
-220.5
 21
61.18450927734375
 31
0.0
  0
LINE
  5
1F86
330
105C
100
AcDbEntity
  8
0
100
AcDbLine
 10
-222.9999782946848
 20
62.62798378919706
 30
0.0
 11
-220.500059392817
 21
61.18465491234633
 31
0.0
  0
LINE
  5
1F87
330
105C
100
AcDbEntity
  8
0
100
AcDbLine
 10
-222.9999869187109
 20
56.85447611703136
 30
0.0
 11
-220.4999887298498
 21
58.29785077024997
 31
0.0
  0
LINE
  5
1F88
330
105C
100
AcDbEntity
  8
0
100
AcDbLine
 10
-225.5000610351562
 20
58.2978515625
 30
0.0
 11
-225.5000610351562
 21
61.18450927734375
 31
0.0
  0
LINE
  5
1F89
330
105C
100
AcDbEntity
  8
0
100
AcDbLine
 10
-182.5081787109375
 20
23.1727294921875
 30
0.0
 11
-182.5081787109375
 21
26.0595703125
 31
0.0
  0
LINE
  5
1F8A
330
105C
100
AcDbEntity
  8
0
100
AcDbLine
 10
-185.0081665512147
 20
27.50289917022616
 30
0.0
 11
-182.5082476493468
 21
26.05957029337537
 31
0.0
  0
LINE
  5
1F8B
330
105C
100
AcDbEntity
  8
0
100
AcDbLine
 10
-185.0081172626221
 20
21.72930878616458
 30
0.0
 11
-182.5081388955092
 21
23.17267199529121
 31
0.0
  0
LINE
  5
1F8C
330
105C
100
AcDbEntity
  8
0
100
AcDbLine
 10
-185.0082324242105
 20
21.72946972288054
 30
0.0
 11
-187.5081513260782
 21
23.1727985997313
 31
0.0
  0
LINE
  5
1F8D
330
105C
100
AcDbEntity
  8
0
100
AcDbLine
 10
-187.5082397460936
 20
23.1727294921875
 30
0.0
 11
-187.5082397460936
 21
26.0595703125
 31
0.0
  0
LINE
  5
1F8E
330
105C
100
AcDbEntity
  8
0
100
AcDbLine
 10
-182.5081787109375
 20
-26.05937576293945
 30
0.0
 11
-182.5081787109375
 21
-23.17254638671875
 31
0.0
  0
LINE
  5
1F8F
330
105C
100
AcDbEntity
  8
0
100
AcDbLine
 10
-185.0081694467408
 20
27.50285185277946
 30
0.0
 11
-187.5081478138535
 21
26.05948864365283
 31
0.0
  0
LINE
  5
1F90
330
105C
100
AcDbEntity
  8
0
100
AcDbLine
 10
-185.0082572399593
 20
-21.72919083831491
 30
0.0
 11
-182.5081797641048
 21
-23.17261126790129
 31
0.0
  0
LINE
  5
1F91
330
105C
100
AcDbEntity
  8
0
100
AcDbLine
 10
-185.0081945525832
 20
-27.50267338019455
 30
0.0
 11
-182.5081963637222
 21
-26.05929872697596
 31
0.0
  0
LINE
  5
1F92
330
105C
100
AcDbEntity
  8
0
100
AcDbLine
 10
-185.0081645389686
 20
-27.50271183839618
 30
0.0
 11
-187.508242014823
 21
-26.0592914088098
 31
0.0
  0
LINE
  5
1F93
330
105C
100
AcDbEntity
  8
0
100
AcDbLine
 10
-187.5082397460936
 20
-26.05937576293945
 30
0.0
 11
-187.5082397460936
 21
-23.17254638671875
 31
0.0
  0
LINE
  5
1F94
330
105C
100
AcDbEntity
  8
0
100
AcDbLine
 10
-185.008135362218
 20
-21.72927744347453
 30
0.0
 11
-187.5081335510792
 21
-23.17265209669313
 31
0.0
  0
LINE
  5
1F95
330
105C
100
AcDbEntity
  8
0
100
AcDbLine
 10
-220.5
 20
-61.18440628051757
 30
0.0
 11
-220.5
 21
-58.29756546020508
 31
0.0
  0
LINE
  5
1F96
330
105C
100
AcDbEntity
  8
0
100
AcDbLine
 10
-222.999995699816
 20
-56.85422248337879
 30
0.0
 11
-220.5000767979482
 21
-58.29755136022956
 31
0.0
  0
LINE
  5
1F97
330
105C
100
AcDbEntity
  8
0
100
AcDbLine
 10
-222.9999605196856
 20
-62.6278372861589
 30
0.0
 11
-220.4999623308244
 21
-61.18446263294032
 31
0.0
  0
LINE
  5
1F98
330
105C
100
AcDbEntity
  8
0
100
AcDbLine
 10
-223.0001073491798
 20
-62.62773121771783
 30
0.0
 11
-225.5000262510475
 21
-61.18440234086705
 31
0.0
  0
LINE
  5
1F99
330
105C
100
AcDbEntity
  8
0
100
AcDbLine
 10
-225.5000610351562
 20
-61.18440628051757
 30
0.0
 11
-225.5000610351562
 21
-58.29756546020508
 31
0.0
  0
LINE
  5
1F9A
330
105C
100
AcDbEntity
  8
0
100
AcDbLine
 10
-222.9999928820557
 20
-56.85428277545208
 30
0.0
 11
-225.499991070917
 21
-58.29765742867064
 31
0.0
  0
LINE
  5
1F9B
330
105C
100
AcDbEntity
  8
0
  6
CENTER
100
AcDbLine
 10
-317.0000610351562
 20
0.0
 30
0.0
 11
-168.9999389648437
 21
0.0
 31
0.0
  0
LINE
  5
1F9C
330
105C
100
AcDbEntity
  8
0
100
AcDbLine
 10
52.0
 20
59.49999999999997
 30
0.0
 11
52.0
 21
-59.49999999999997
 31
0.0
  0
LINE
  5
1F9D
330
105C
100
AcDbEntity
  8
0
100
AcDbLine
 10
15.60744970901703
 20
53.96759033203125
 30
0.0
 11
22.40036918679539
 21
50.80000000000001
 31
0.0
  0
LINE
  5
1F9E
330
105C
100
AcDbEntity
  8
0
100
AcDbLine
 10
6.66339111328125
 20
-68.89992141723633
 30
0.0
 11
12.0
 21
-68.89992141723633
 31
0.0
  0
LINE
  5
1F9F
330
105C
100
AcDbEntity
  8
0
100
AcDbLine
 10
17.59987669152383
 20
-61.74093243155224
 30
0.0
 11
16.59987557067313
 21
-62.74093346810912
 31
0.0
  0
LINE
  5
1FA0
330
105C
100
AcDbEntity
  8
0
100
AcDbLine
 10
16.59994056111111
 20
-56.74099173344846
 30
0.0
 11
17.59987686011141
 21
-57.7409281167371
 31
0.0
  0
LINE
  5
1FA1
330
105C
100
AcDbEntity
  8
0
100
AcDbLine
 10
17.59998321533203
 20
-61.7409553527832
 30
0.0
 11
17.59998321533203
 21
-57.74092483520508
 31
0.0
  0
LINE
  5
1FA2
330
105C
100
AcDbEntity
  8
0
100
AcDbLine
 10
16.5999526977539
 20
-62.74098587036132
 30
0.0
 11
15.59992218017578
 21
-62.74098587036132
 31
0.0
  0
LINE
  5
1FA3
330
105C
100
AcDbEntity
  8
0
100
AcDbLine
 10
16.5999526977539
 20
-56.74098587036133
 30
0.0
 11
15.59992218017578
 21
-56.74098587036133
 31
0.0
  0
LINE
  5
1FA4
330
105C
100
AcDbEntity
  8
0
100
AcDbLine
 10
15.12439727783203
 20
-56.85423660278321
 30
0.0
 11
12.0
 21
-56.85423660278317
 31
0.0
  0
LINE
  5
1FA5
330
105C
100
AcDbEntity
  8
0
100
AcDbLine
 10
15.12439727783203
 20
-62.62773513793945
 30
0.0
 11
12.0
 21
-62.62773513793945
 31
0.0
  0
LINE
  5
1FA6
330
105C
100
AcDbEntity
  8
0
100
AcDbLine
 10
15.59992218017578
 20
-64.07106399536131
 30
0.0
 11
15.59992218017578
 21
-55.41090774536133
 31
0.0
  0
LINE
  5
1FA7
330
105C
100
AcDbEntity
  8
0
100
AcDbLine
 10
15.12439727783203
 20
-65.51448440551758
 30
0.0
 11
12.0
 21
-65.51448440551758
 31
0.0
  0
LINE
  5
1FA8
330
105C
100
AcDbEntity
  8
0
100
AcDbLine
 10
48.95856473193589
 20
58.97361727250689
 30
0.0
 11
46.46258140636223
 21
52.11595969171961
 31
0.0
  0
LINE
  5
1FA9
330
105C
100
AcDbEntity
  8
0
100
AcDbLine
 10
52.0
 20
59.49999999999997
 30
0.0
 11
49.71017456054688
 21
59.49999999999997
 31
0.0
  0
LINE
  5
1FAA
330
105C
100
AcDbEntity
  8
0
  6
CENTER
100
AcDbLine
 10
0.0
 20
238.5983276367189
 30
0.0
 11
0.0
 21
-73.9998664855957
 31
0.0
  0
LINE
  5
1FAB
330
105C
100
AcDbEntity
  8
0
  6
CENTER
100
AcDbLine
 10
-57.0
 20
0.0
 30
0.0
 11
56.99986267089844
 21
0.0
 31
0.0
  0
LINE
  5
1FAC
330
105C
100
AcDbEntity
  8
0
100
AcDbLine
 10
18.12439727783203
 20
53.96759033203125
 30
0.0
 11
14.9999771118164
 21
53.96759033203125
 31
0.0
  0
LINE
  5
1FAD
330
105C
100
AcDbEntity
  8
0
100
AcDbLine
 10
18.0955581665039
 20
65.51458740234375
 30
0.0
 11
14.99988555908203
 21
65.51458740234375
 31
0.0
  0
LINE
  5
1FAE
330
105C
100
AcDbEntity
  8
0
100
AcDbLine
 10
18.59992218017578
 20
55.4110107421875
 30
0.0
 11
18.59992218017578
 21
64.07135009765625
 31
0.0
  0
LINE
  5
1FAF
330
105C
100
AcDbEntity
  8
0
100
AcDbLine
 10
18.12439727783203
 20
56.85443115234375
 30
0.0
 11
14.99988555908203
 21
56.85443115234375
 31
0.0
  0
LINE
  5
1FB0
330
105C
100
AcDbEntity
  8
0
100
AcDbLine
 10
18.12439727783203
 20
62.6279296875
 30
0.0
 11
14.99988555908203
 21
62.6279296875
 31
0.0
  0
LINE
  5
1FB1
330
105C
100
AcDbEntity
  8
0
100
AcDbLine
 10
20.59989166259766
 20
62.7410888671875
 30
0.0
 11
18.59992218017578
 21
62.7410888671875
 31
0.0
  0
LINE
  5
1FB2
330
105C
100
AcDbEntity
  8
0
100
AcDbLine
 10
20.59989166259766
 20
56.7410888671875
 30
0.0
 11
18.59992218017578
 21
56.7410888671875
 31
0.0
  0
LINE
  5
1FB3
330
105C
100
AcDbEntity
  8
0
100
AcDbLine
 10
21.59989929199219
 20
57.7412109375
 30
0.0
 11
21.59989929199219
 21
61.74114990234375
 31
0.0
  0
LINE
  5
1FB4
330
105C
100
AcDbEntity
  8
0
100
AcDbLine
 10
20.59973546856355
 20
62.74131394377764
 30
0.0
 11
21.59980124267702
 21
61.74124808536487
 31
0.0
  0
LINE
  5
1FB5
330
105C
100
AcDbEntity
  8
0
100
AcDbLine
 10
21.59980107408944
 20
57.74124377054966
 30
0.0
 11
20.5997999532388
 21
56.74124273399286
 31
0.0
  0
LINE
  5
1FB6
330
105C
100
AcDbEntity
  8
0
100
AcDbLine
 10
7.5
 20
68.9000244140625
 30
0.0
 11
7.5
 21
70.7984619140625
 31
0.0
  0
LINE
  5
1FB7
330
105C
100
AcDbEntity
  8
0
100
AcDbLine
 10
-267.2999063461705
 20
185.3264032805031
 30
0.0
 11
-262.2998901466997
 21
188.2131640310323
 31
0.0
  0
LINE
  5
1FB8
330
105C
100
AcDbEntity
  8
0
100
AcDbLine
 10
-262.2999572753906
 20
188.21337890625
 30
0.0
 11
-262.2999572753906
 21
193.9866943359375
 31
0.0
  0
LINE
  5
1FB9
330
105C
100
AcDbEntity
  8
0
100
AcDbLine
 10
-262.2999716345797
 20
193.9868028862872
 30
0.0
 11
-267.2999680123021
 21
196.8735521927244
 31
0.0
  0
LINE
  5
1FBA
330
105C
100
AcDbEntity
  8
0
100
AcDbLine
 10
-272.2999420166015
 20
188.21337890625
 30
0.0
 11
-272.2999420166015
 21
193.9866943359375
 31
0.0
  0
LINE
  5
1FBB
330
105C
100
AcDbEntity
  8
0
100
AcDbLine
 10
-267.2999883911864
 20
185.3265199805855
 30
0.0
 11
-272.2999847689087
 21
188.2132692870227
 31
0.0
  0
LINE
  5
1FBC
330
105C
100
AcDbEntity
  8
0
100
AcDbLine
 10
-267.2999512491626
 20
196.8735237460088
 30
0.0
 11
-272.2999674486332
 21
193.9867629954797
 31
0.0
  0
LINE
  5
1FBD
330
105C
100
AcDbEntity
  8
0
100
AcDbLine
 10
-213.6999049884014
 20
121.9867927500397
 30
0.0
 11
-218.6999013661236
 21
124.8735420564768
 31
0.0
  0
LINE
  5
1FBE
330
105C
100
AcDbEntity
  8
0
100
AcDbLine
 10
-218.699967624376
 20
185.3264528520178
 30
0.0
 11
-213.699931603157
 21
188.2132250466388
 31
0.0
  0
LINE
  5
1FBF
330
105C
100
AcDbEntity
  8
0
100
AcDbLine
 10
-218.7000024625129
 20
185.3265521737829
 30
0.0
 11
-223.6999988402351
 21
188.21330148022
 31
0.0
  0
LINE
  5
1FC0
330
105C
100
AcDbEntity
  8
0
100
AcDbLine
 10
-223.699951171875
 20
188.21337890625
 30
0.0
 11
-223.699951171875
 21
193.9866943359375
 31
0.0
  0
LINE
  5
1FC1
330
105C
100
AcDbEntity
  8
0
100
AcDbLine
 10
-218.6999203144964
 20
113.3265123220566
 30
0.0
 11
-223.6999166922187
 21
116.2132616284938
 31
0.0
  0
LINE
  5
1FC2
330
105C
100
AcDbEntity
  8
0
100
AcDbLine
 10
-213.7000329127854
 20
193.9867533147726
 30
0.0
 11
-218.7000292905078
 21
196.8735026212098
 31
0.0
  0
LINE
  5
1FC3
330
105C
100
AcDbEntity
  8
0
100
AcDbLine
 10
-267.2999376080284
 20
113.3266089087983
 30
0.0
 11
-272.2999339857507
 21
116.2133582152355
 31
0.0
  0
LINE
  5
1FC4
330
105C
100
AcDbEntity
  8
0
100
AcDbLine
 10
-262.2999694888125
 20
121.9868075720695
 30
0.0
 11
-267.2999658665349
 21
124.8735568785067
 31
0.0
  0
LINE
  5
1FC5
330
105C
100
AcDbEntity
  8
0
100
AcDbLine
 10
-213.6999664306641
 20
188.21337890625
 30
0.0
 11
-213.6999664306641
 21
193.9866943359375
 31
0.0
  0
LINE
  5
1FC6
330
105C
100
AcDbEntity
  8
0
100
AcDbLine
 10
-213.6999664306641
 20
116.21337890625
 30
0.0
 11
-213.6999664306641
 21
121.9866943359375
 31
0.0
  0
LINE
  5
1FC7
330
105C
100
AcDbEntity
  8
0
100
AcDbLine
 10
-218.6999513789065
 20
113.3264714596106
 30
0.0
 11
-213.6999153576875
 21
116.2132436542317
 31
0.0
  0
LINE
  5
1FC8
330
105C
100
AcDbEntity
  8
0
100
AcDbLine
 10
-222.9999639131818
 20
162.6055792559318
 30
0.0
 11
-229.4999710972697
 21
158.8527982911083
 31
0.0
  0
LINE
  5
1FC9
330
105C
100
AcDbEntity
  8
0
100
AcDbLine
 10
-273.7999420166016
 20
130.8511962890625
 30
0.0
 11
-273.7999420166016
 21
111.6000366210937
 31
0.0
  0
LINE
  5
1FCA
330
105C
100
AcDbEntity
  8
0
100
AcDbLine
 10
-273.7999420166016
 20
198.6000366210936
 30
0.0
 11
-273.7999420166016
 21
179.348876953125
 31
0.0
  0
LINE
  5
1FCB
330
105C
100
AcDbEntity
  8
0
100
AcDbLine
 10
-218.6999764601503
 20
124.8736033692082
 30
0.0
 11
-223.7000124813694
 21
121.9868311745871
 31
0.0
  0
LINE
  5
1FCC
330
105C
100
AcDbEntity
  8
0
100
AcDbLine
 10
-212.199966430664
 20
130.8513793945312
 30
0.0
 11
-212.199966430664
 21
111.6000366210937
 31
0.0
  0
LINE
  5
1FCD
330
105C
100
AcDbEntity
  8
0
100
AcDbLine
 10
-212.199966430664
 20
198.6000366210936
 30
0.0
 11
-225.199951171875
 21
198.6000366210936
 31
0.0
  0
LINE
  5
1FCE
330
105C
100
AcDbEntity
  8
0
100
AcDbLine
 10
-212.199966430664
 20
198.6000366210936
 30
0.0
 11
-212.199966430664
 21
179.3486938476561
 31
0.0
  0
LINE
  5
1FCF
330
105C
100
AcDbEntity
  8
0
100
AcDbLine
 10
-227.199966430664
 20
113.60009765625
 30
0.0
 11
-258.7999420166016
 21
113.60009765625
 31
0.0
  0
LINE
  5
1FD0
330
105C
100
AcDbEntity
  8
0
100
AcDbLine
 10
-225.2000615577369
 20
111.6000814856126
 30
0.0
 11
-227.199934240026
 21
113.5999541679015
 31
0.0
  0
LINE
  5
1FD1
330
105C
100
AcDbEntity
  8
0
100
AcDbLine
 10
-260.8000789198852
 20
198.6000539499187
 30
0.0
 11
-258.8000767624776
 21
196.6000517925109
 31
0.0
  0
LINE
  5
1FD2
330
105C
100
AcDbEntity
  8
0
100
AcDbLine
 10
-260.7999572753906
 20
198.6000366210936
 30
0.0
 11
-273.7999420166016
 21
198.6000366210936
 31
0.0
  0
LINE
  5
1FD3
330
105C
100
AcDbEntity
  8
0
100
AcDbLine
 10
-258.8000201171131
 20
113.6000836430202
 30
0.0
 11
-260.8000222745208
 21
111.6000814856126
 31
0.0
  0
LINE
  5
1FD4
330
105C
100
AcDbEntity
  8
0
100
AcDbLine
 10
-227.199966430664
 20
196.5999755859375
 30
0.0
 11
-258.7999420166016
 21
196.5999755859375
 31
0.0
  0
LINE
  5
1FD5
330
105C
100
AcDbEntity
  8
0
100
AcDbLine
 10
-225.1999887279828
 20
198.6001834250373
 30
0.0
 11
-227.1999908853903
 21
196.6001812676297
 31
0.0
  0
LINE
  5
1FD6
330
105C
100
AcDbEntity
  8
0
100
AcDbLine
 10
-216.5000152587891
 20
158.852783203125
 30
0.0
 11
-216.5000152587891
 21
151.3472900390625
 31
0.0
  0
LINE
  5
1FD7
330
105C
100
AcDbEntity
  8
0
100
AcDbLine
 10
-257.7999572753906
 20
198.6000366210936
 30
0.0
 11
-257.7999572753906
 21
196.5999755859375
 31
0.0
  0
LINE
  5
1FD8
330
105C
100
AcDbEntity
  8
0
100
AcDbLine
 10
-228.199951171875
 20
111.6000366210937
 30
0.0
 11
-228.199951171875
 21
113.60009765625
 31
0.0
  0
LINE
  5
1FD9
330
105C
100
AcDbEntity
  8
0
100
AcDbLine
 10
-257.7999572753906
 20
111.6000366210937
 30
0.0
 11
-257.7999572753906
 21
113.60009765625
 31
0.0
  0
LINE
  5
1FDA
330
105C
100
AcDbEntity
  8
0
100
AcDbLine
 10
-228.199951171875
 20
198.6000366210936
 30
0.0
 11
-228.199951171875
 21
196.5999755859375
 31
0.0
  0
LINE
  5
1FDB
330
105C
100
AcDbEntity
  8
0
100
AcDbLine
 10
-228.199951171875
 20
198.6000366210936
 30
0.0
 11
-257.7999572753906
 21
198.6000366210936
 31
0.0
  0
LINE
  5
1FDC
330
105C
100
AcDbEntity
  8
0
100
AcDbLine
 10
-229.4998594202773
 20
151.3472752849502
 30
0.0
 11
-222.9999117014345
 21
147.5945286524025
 31
0.0
  0
LINE
  5
1FDD
330
105C
100
AcDbEntity
  8
0
100
AcDbLine
 10
-222.9999099746151
 20
147.5943623764362
 30
0.0
 11
-216.4999027905271
 21
151.3471433412597
 31
0.0
  0
LINE
  5
1FDE
330
105C
100
AcDbEntity
  8
0
100
AcDbLine
 10
-229.5
 20
158.852783203125
 30
0.0
 11
-229.5
 21
151.3472900390625
 31
0.0
  0
LINE
  5
1FDF
330
105C
100
AcDbEntity
  8
0
100
AcDbLine
 10
-222.999890207986
 20
162.6055520062058
 30
0.0
 11
-216.4999424891432
 21
158.852805373658
 31
0.0
  0
LINE
  5
1FE0
330
105C
100
AcDbEntity
  8
0
100
AcDbLine
 10
-218.6999011528843
 20
196.8734261876285
 30
0.0
 11
-223.6999371741033
 21
193.9866539930075
 31
0.0
  0
LINE
  5
1FE1
330
105C
100
AcDbEntity
  8
0
100
AcDbLine
 10
-223.699951171875
 20
116.21337890625
 30
0.0
 11
-223.699951171875
 21
121.9866943359375
 31
0.0
  0
LINE
  5
1FE2
330
105C
100
AcDbEntity
  8
0
100
AcDbLine
 10
-267.2999618316881
 20
113.3265919061748
 30
0.0
 11
-262.299925810469
 21
116.2133641007958
 31
0.0
  0
LINE
  5
1FE3
330
105C
100
AcDbEntity
  8
0
100
AcDbLine
 10
-272.2999420166015
 20
116.21337890625
 30
0.0
 11
-272.2999420166015
 21
121.9866943359375
 31
0.0
  0
LINE
  5
1FE4
330
105C
100
AcDbEntity
  8
0
100
AcDbLine
 10
-267.2998953601963
 20
124.8735652417855
 30
0.0
 11
-272.2999313814153
 21
121.9867930471645
 31
0.0
  0
LINE
  5
1FE5
330
105C
100
AcDbEntity
  8
0
100
AcDbLine
 10
-262.2999572753906
 20
116.21337890625
 30
0.0
 11
-262.2999572753906
 21
121.9866943359375
 31
0.0
  0
LINE
  5
1FE6
330
105C
100
AcDbEntity
  8
0
100
AcDbLine
 10
-212.0000152587891
 20
111.6000366210937
 30
0.0
 11
-212.0000152587891
 21
59.7916259765625
 31
0.0
  0
LINE
  5
1FE7
330
105C
100
AcDbEntity
  8
0
100
AcDbLine
 10
-216.6616630160822
 20
53.47329514843806
 30
0.0
 11
-213.1716611935329
 21
56.96329697098747
 31
0.0
  0
LINE
  5
1FE8
330
105C
100
AcDbEntity
  8
0
100
AcDbLine
 10
-273.9999847412109
 20
111.6000366210937
 30
0.0
 11
-212.0000152587891
 21
111.6000366210937
 31
0.0
  0
LINE
  5
1FE9
330
105C
100
AcDbEntity
  8
0
100
AcDbLine
 10
86.09999084472656
 20
197.3483276367186
 30
0.0
 11
84.49999237060547
 21
197.3483276367186
 31
0.0
  0
LINE
  5
1FEA
330
105C
100
AcDbEntity
  8
0
100
AcDbLine
 10
86.09999084472656
 20
197.3483276367186
 30
0.0
 11
86.09999084472656
 21
184.8482666015625
 31
0.0
  0
LINE
  5
1FEB
330
105C
100
AcDbEntity
  8
0
100
AcDbLine
 10
86.09999084472656
 20
184.8482666015625
 30
0.0
 11
84.49999237060547
 21
184.8482666015625
 31
0.0
  0
LINE
  5
1FEC
330
105C
100
AcDbEntity
  8
0
100
AcDbLine
 10
87.59999084472656
 20
197.1983642578125
 30
0.0
 11
87.59999084472656
 21
184.9982299804686
 31
0.0
  0
LINE
  5
1FED
330
105C
100
AcDbEntity
  8
0
100
AcDbLine
 10
87.59999084472656
 20
184.9982299804686
 30
0.0
 11
86.09999084472656
 21
184.9982299804686
 31
0.0
  0
LINE
  5
1FEE
330
105C
100
AcDbEntity
  8
0
100
AcDbLine
 10
87.59999084472656
 20
197.1983642578125
 30
0.0
 11
86.09999084472656
 21
197.1983642578125
 31
0.0
  0
LINE
  5
1FEF
330
105C
100
AcDbEntity
  8
0
100
AcDbLine
 10
91.09565734863281
 20
196.8718872070311
 30
0.0
 11
87.59999084472656
 21
196.8718872070311
 31
0.0
  0
LINE
  5
1FF0
330
105C
100
AcDbEntity
  8
0
100
AcDbLine
 10
91.59999847412109
 20
186.7681274414061
 30
0.0
 11
91.59999847412109
 21
195.428466796875
 31
0.0
  0
LINE
  5
1FF1
330
105C
100
AcDbEntity
  8
0
100
AcDbLine
 10
91.09565734863281
 20
185.3248901367186
 30
0.0
 11
87.59999084472656
 21
185.3248901367186
 31
0.0
  0
LINE
  5
1FF2
330
105C
100
AcDbEntity
  8
0
100
AcDbLine
 10
91.09565734863281
 20
188.2115478515625
 30
0.0
 11
87.59999084472656
 21
188.2115478515625
 31
0.0
  0
LINE
  5
1FF3
330
105C
100
AcDbEntity
  8
0
100
AcDbLine
 10
91.09565734863281
 20
193.9850463867186
 30
0.0
 11
87.59999084472656
 21
193.9850463867186
 31
0.0
  0
LINE
  5
1FF4
330
105C
100
AcDbEntity
  8
0
100
AcDbLine
 10
86.09999084472656
 20
125.3483276367187
 30
0.0
 11
84.49999237060547
 21
125.3483276367187
 31
0.0
  0
LINE
  5
1FF5
330
105C
100
AcDbEntity
  8
0
100
AcDbLine
 10
86.09999084472656
 20
125.3483276367187
 30
0.0
 11
86.09999084472656
 21
112.8482666015625
 31
0.0
  0
LINE
  5
1FF6
330
105C
100
AcDbEntity
  8
0
100
AcDbLine
 10
86.09999084472656
 20
112.8482666015625
 30
0.0
 11
84.49999237060547
 21
112.8482666015625
 31
0.0
  0
LINE
  5
1FF7
330
105C
100
AcDbEntity
  8
0
100
AcDbLine
 10
87.59999084472656
 20
125.1983642578125
 30
0.0
 11
87.59999084472656
 21
112.9984130859375
 31
0.0
  0
LINE
  5
1FF8
330
105C
100
AcDbEntity
  8
0
100
AcDbLine
 10
87.59999084472656
 20
112.9984130859375
 30
0.0
 11
86.09999084472656
 21
112.9984130859375
 31
0.0
  0
LINE
  5
1FF9
330
105C
100
AcDbEntity
  8
0
100
AcDbLine
 10
87.59999084472656
 20
125.1983642578125
 30
0.0
 11
86.09999084472656
 21
125.1983642578125
 31
0.0
  0
LINE
  5
1FFA
330
105C
100
AcDbEntity
  8
0
100
AcDbLine
 10
91.09565734863281
 20
124.8718872070312
 30
0.0
 11
87.59999084472656
 21
124.8718872070312
 31
0.0
  0
LINE
  5
1FFB
330
105C
100
AcDbEntity
  8
0
100
AcDbLine
 10
91.59999847412109
 20
114.7681274414062
 30
0.0
 11
91.59999847412109
 21
123.428466796875
 31
0.0
  0
LINE
  5
1FFC
330
105C
100
AcDbEntity
  8
0
100
AcDbLine
 10
91.09565734863281
 20
113.3248901367187
 30
0.0
 11
87.59999084472656
 21
113.3248901367187
 31
0.0
  0
LINE
  5
1FFD
330
105C
100
AcDbEntity
  8
0
100
AcDbLine
 10
91.09565734863281
 20
116.2115478515625
 30
0.0
 11
87.59999084472656
 21
116.2115478515625
 31
0.0
  0
LINE
  5
1FFE
330
105C
100
AcDbEntity
  8
0
100
AcDbLine
 10
91.09565734863281
 20
121.9850463867187
 30
0.0
 11
87.59999084472656
 21
121.9850463867187
 31
0.0
  0
LINE
  5
1FFF
330
105C
100
AcDbEntity
  8
0
100
AcDbLine
 10
-66.0999755859375
 20
184.8482666015625
 30
0.0
 11
-64.5
 21
184.8482666015625
 31
0.0
  0
LINE
  5
2000
330
105C
100
AcDbEntity
  8
0
100
AcDbLine
 10
-66.0999755859375
 20
184.8482666015625
 30
0.0
 11
-66.0999755859375
 21
197.3483276367186
 31
0.0
  0
LINE
  5
2001
330
105C
100
AcDbEntity
  8
0
100
AcDbLine
 10
-66.0999755859375
 20
197.3483276367186
 30
0.0
 11
-64.5
 21
197.3483276367186
 31
0.0
  0
LINE
  5
2002
330
105C
100
AcDbEntity
  8
0
100
AcDbLine
 10
-67.5999755859375
 20
184.9982299804686
 30
0.0
 11
-67.5999755859375
 21
197.1983642578125
 31
0.0
  0
LINE
  5
2003
330
105C
100
AcDbEntity
  8
0
100
AcDbLine
 10
-67.5999755859375
 20
197.1983642578125
 30
0.0
 11
-66.0999755859375
 21
197.1983642578125
 31
0.0
  0
LINE
  5
2004
330
105C
100
AcDbEntity
  8
0
100
AcDbLine
 10
-67.5999755859375
 20
184.9982299804686
 30
0.0
 11
-66.0999755859375
 21
184.9982299804686
 31
0.0
  0
LINE
  5
2005
330
105C
100
AcDbEntity
  8
0
100
AcDbLine
 10
-71.09568786621093
 20
185.3248901367186
 30
0.0
 11
-67.5999755859375
 21
185.3248901367186
 31
0.0
  0
LINE
  5
2006
330
105C
100
AcDbEntity
  8
0
100
AcDbLine
 10
-71.59996032714843
 20
195.428466796875
 30
0.0
 11
-71.59996032714843
 21
186.7681274414061
 31
0.0
  0
LINE
  5
2007
330
105C
100
AcDbEntity
  8
0
100
AcDbLine
 10
-71.09568786621093
 20
196.8718872070311
 30
0.0
 11
-67.5999755859375
 21
196.8718872070311
 31
0.0
  0
LINE
  5
2008
330
105C
100
AcDbEntity
  8
0
100
AcDbLine
 10
-71.09568786621093
 20
193.9850463867186
 30
0.0
 11
-67.5999755859375
 21
193.9850463867186
 31
0.0
  0
LINE
  5
2009
330
105C
100
AcDbEntity
  8
0
100
AcDbLine
 10
-71.09568786621093
 20
188.2115478515625
 30
0.0
 11
-67.5999755859375
 21
188.2115478515625
 31
0.0
  0
LINE
  5
200A
330
105C
100
AcDbEntity
  8
0
100
AcDbLine
 10
-66.0999755859375
 20
112.8482666015625
 30
0.0
 11
-64.5
 21
112.8482666015625
 31
0.0
  0
LINE
  5
200B
330
105C
100
AcDbEntity
  8
0
100
AcDbLine
 10
-66.0999755859375
 20
112.8482666015625
 30
0.0
 11
-66.0999755859375
 21
125.3483276367187
 31
0.0
  0
LINE
  5
200C
330
105C
100
AcDbEntity
  8
0
100
AcDbLine
 10
-66.0999755859375
 20
125.3483276367187
 30
0.0
 11
-64.5
 21
125.3483276367187
 31
0.0
  0
LINE
  5
200D
330
105C
100
AcDbEntity
  8
0
100
AcDbLine
 10
-67.5999755859375
 20
112.9984130859375
 30
0.0
 11
-67.5999755859375
 21
125.1983642578125
 31
0.0
  0
LINE
  5
200E
330
105C
100
AcDbEntity
  8
0
100
AcDbLine
 10
-67.5999755859375
 20
125.1983642578125
 30
0.0
 11
-66.0999755859375
 21
125.1983642578125
 31
0.0
  0
LINE
  5
200F
330
105C
100
AcDbEntity
  8
0
100
AcDbLine
 10
-67.5999755859375
 20
112.9984130859375
 30
0.0
 11
-66.0999755859375
 21
112.9984130859375
 31
0.0
  0
LINE
  5
2010
330
105C
100
AcDbEntity
  8
0
100
AcDbLine
 10
-71.09568786621093
 20
113.3248901367187
 30
0.0
 11
-67.5999755859375
 21
113.3248901367187
 31
0.0
  0
LINE
  5
2011
330
105C
100
AcDbEntity
  8
0
100
AcDbLine
 10
-71.59996032714843
 20
123.428466796875
 30
0.0
 11
-71.59996032714843
 21
114.7681274414062
 31
0.0
  0
LINE
  5
2012
330
105C
100
AcDbEntity
  8
0
100
AcDbLine
 10
-71.09568786621093
 20
124.8718872070312
 30
0.0
 11
-67.5999755859375
 21
124.8718872070312
 31
0.0
  0
LINE
  5
2013
330
105C
100
AcDbEntity
  8
0
100
AcDbLine
 10
-71.09568786621093
 20
121.9850463867187
 30
0.0
 11
-67.5999755859375
 21
121.9850463867187
 31
0.0
  0
LINE
  5
2014
330
105C
100
AcDbEntity
  8
0
100
AcDbLine
 10
-71.09568786621093
 20
116.2115478515625
 30
0.0
 11
-67.5999755859375
 21
116.2115478515625
 31
0.0
  0
LINE
  5
2015
330
105C
100
AcDbEntity
  8
0
100
AcDbLine
 10
-80.00001525878905
 20
160.7274169921875
 30
0.0
 11
-80.00001525878905
 21
149.4691772460937
 31
0.0
  0
LINE
  5
2016
330
105C
100
AcDbEntity
  8
0
100
AcDbLine
 10
-79.27510070800781
 20
162.6038818359375
 30
0.0
 11
-74.49998474121094
 21
162.6038818359375
 31
0.0
  0
LINE
  5
2017
330
105C
100
AcDbEntity
  8
0
100
AcDbLine
 10
-79.27510070800781
 20
147.5927124023437
 30
0.0
 11
-74.49998474121094
 21
147.5927124023437
 31
0.0
  0
LINE
  5
2018
330
105C
100
AcDbEntity
  8
0
100
AcDbLine
 10
-79.27510070800781
 20
158.8511352539062
 30
0.0
 11
-74.49998474121094
 21
158.8511352539062
 31
0.0
  0
LINE
  5
2019
330
105C
100
AcDbEntity
  8
0
100
AcDbLine
 10
-79.27510070800781
 20
151.345458984375
 30
0.0
 11
-74.49998474121094
 21
151.345458984375
 31
0.0
  0
LINE
  5
201A
330
105C
100
AcDbEntity
  8
0
100
AcDbLine
 10
-74.49998474121094
 20
162.6038818359375
 30
0.0
 11
-74.49998474121094
 21
147.5927124023437
 31
0.0
  0
LINE
  5
201B
330
105C
100
AcDbEntity
  8
0
100
AcDbLine
 10
-66.0999755859375
 20
146.5982666015625
 30
0.0
 11
-66.0999755859375
 21
163.5983276367187
 31
0.0
  0
LINE
  5
201C
330
105C
100
AcDbEntity
  8
0
100
AcDbLine
 10
-66.0999755859375
 20
146.5982666015625
 30
0.0
 11
-64.5
 21
146.5982666015625
 31
0.0
  0
LINE
  5
201D
330
105C
100
AcDbEntity
  8
0
100
AcDbLine
 10
-66.0999755859375
 20
163.5983276367187
 30
0.0
 11
-64.5
 21
163.5983276367187
 31
0.0
  0
LINE
  5
201E
330
105C
100
AcDbEntity
  8
0
100
AcDbLine
 10
-71.09999084472656
 20
160.7274169921875
 30
0.0
 11
-71.09999084472656
 21
149.4691772460937
 31
0.0
  0
LINE
  5
201F
330
105C
100
AcDbEntity
  8
0
100
AcDbLine
 10
-70.3751220703125
 20
162.6038818359375
 30
0.0
 11
-66.82489013671875
 21
162.6038818359375
 31
0.0
  0
LINE
  5
2020
330
105C
100
AcDbEntity
  8
0
100
AcDbLine
 10
-70.3751220703125
 20
147.5927124023437
 30
0.0
 11
-66.82489013671875
 21
147.5927124023437
 31
0.0
  0
LINE
  5
2021
330
105C
100
AcDbEntity
  8
0
100
AcDbLine
 10
-70.3751220703125
 20
158.8511352539062
 30
0.0
 11
-66.82489013671875
 21
158.8511352539062
 31
0.0
  0
LINE
  5
2022
330
105C
100
AcDbEntity
  8
0
100
AcDbLine
 10
-70.3751220703125
 20
151.345458984375
 30
0.0
 11
-66.82489013671875
 21
151.345458984375
 31
0.0
  0
LINE
  5
2023
330
105C
100
AcDbEntity
  8
0
100
AcDbLine
 10
-74.49998474121094
 20
151.0982666015625
 30
0.0
 11
-71.09999084472656
 21
151.0982666015625
 31
0.0
  0
LINE
  5
2024
330
105C
100
AcDbEntity
  8
0
100
AcDbLine
 10
-74.49998474121094
 20
159.0983276367187
 30
0.0
 11
-71.09999084472656
 21
159.0983276367187
 31
0.0
  0
LINE
  5
2025
330
105C
100
AcDbEntity
  8
0
100
AcDbLine
 10
99.99998474121094
 20
149.4691772460937
 30
0.0
 11
99.99998474121094
 21
160.7274169921875
 31
0.0
  0
LINE
  5
2026
330
105C
100
AcDbEntity
  8
0
100
AcDbLine
 10
99.27509307861328
 20
147.5927124023437
 30
0.0
 11
94.49997711181641
 21
147.5927124023437
 31
0.0
  0
LINE
  5
2027
330
105C
100
AcDbEntity
  8
0
100
AcDbLine
 10
99.27509307861328
 20
162.6038818359375
 30
0.0
 11
94.49997711181641
 21
162.6038818359375
 31
0.0
  0
LINE
  5
2028
330
105C
100
AcDbEntity
  8
0
100
AcDbLine
 10
99.27509307861328
 20
151.345458984375
 30
0.0
 11
94.49997711181641
 21
151.345458984375
 31
0.0
  0
LINE
  5
2029
330
105C
100
AcDbEntity
  8
0
100
AcDbLine
 10
99.27509307861328
 20
158.8511352539062
 30
0.0
 11
94.49997711181641
 21
158.8511352539062
 31
0.0
  0
LINE
  5
202A
330
105C
100
AcDbEntity
  8
0
100
AcDbLine
 10
94.49997711181641
 20
147.5927124023437
 30
0.0
 11
94.49997711181641
 21
162.6038818359375
 31
0.0
  0
LINE
  5
202B
330
105C
100
AcDbEntity
  8
0
100
AcDbLine
 10
89.49998474121088
 20
149.4691772460937
 30
0.0
 11
89.49998474121088
 21
160.7274169921875
 31
0.0
  0
LINE
  5
202C
330
105C
100
AcDbEntity
  8
0
100
AcDbLine
 10
88.77509307861329
 20
147.5927124023437
 30
0.0
 11
85.22486114501953
 21
147.5927124023437
 31
0.0
  0
LINE
  5
202D
330
105C
100
AcDbEntity
  8
0
100
AcDbLine
 10
88.77509307861329
 20
162.6038818359375
 30
0.0
 11
85.22486114501953
 21
162.6038818359375
 31
0.0
  0
LINE
  5
202E
330
105C
100
AcDbEntity
  8
0
100
AcDbLine
 10
88.77509307861329
 20
151.345458984375
 30
0.0
 11
85.22486114501953
 21
151.345458984375
 31
0.0
  0
LINE
  5
202F
330
105C
100
AcDbEntity
  8
0
100
AcDbLine
 10
88.77509307861329
 20
158.8511352539062
 30
0.0
 11
85.22486114501953
 21
158.8511352539062
 31
0.0
  0
LINE
  5
2030
330
105C
100
AcDbEntity
  8
0
100
AcDbLine
 10
94.49997711181641
 20
159.0983276367187
 30
0.0
 11
89.49998474121088
 21
159.0983276367187
 31
0.0
  0
LINE
  5
2031
330
105C
100
AcDbEntity
  8
0
100
AcDbLine
 10
94.49997711181641
 20
151.0982666015625
 30
0.0
 11
89.49998474121088
 21
151.0982666015625
 31
0.0
  0
LINE
  5
2032
330
105C
100
AcDbEntity
  8
0
100
AcDbLine
 10
84.49999237060547
 20
198.598388671875
 30
0.0
 11
84.49999237060547
 21
111.598388671875
 31
0.0
  0
LINE
  5
2033
330
105C
100
AcDbEntity
  8
0
100
AcDbLine
 10
-64.5
 20
198.598388671875
 30
0.0
 11
84.49999237060547
 21
198.598388671875
 31
0.0
  0
LINE
  5
2034
330
105C
100
AcDbEntity
  8
0
100
AcDbLine
 10
-64.5
 20
198.598388671875
 30
0.0
 11
-64.5
 21
111.598388671875
 31
0.0
  0
LINE
  5
2035
330
105C
100
AcDbEntity
  8
0
100
AcDbLine
 10
-64.5
 20
111.598388671875
 30
0.0
 11
84.49999237060547
 21
111.598388671875
 31
0.0
  0
LINE
  5
2036
330
105C
100
AcDbEntity
  8
0
100
AcDbLine
 10
-64.5
 20
131.1743774414062
 30
0.0
 11
84.49999237060547
 21
131.1743774414062
 31
0.0
  0
LINE
  5
2037
330
105C
100
AcDbEntity
  8
0
100
AcDbLine
 10
-64.5
 20
179.0223999023436
 30
0.0
 11
84.49999237060547
 21
179.0223999023436
 31
0.0
  0
LINE
  5
2038
330
105C
100
AcDbEntity
  8
0
100
AcDbLine
 10
-59.49998474121094
 20
198.598388671875
 30
0.0
 11
-59.49998474121094
 21
111.598388671875
 31
0.0
  0
LINE
  5
2039
330
105C
100
AcDbEntity
  8
0
100
AcDbLine
 10
79.49997711181641
 20
198.598388671875
 30
0.0
 11
79.49997711181641
 21
111.598388671875
 31
0.0
  0
LINE
  5
203A
330
105C
100
AcDbEntity
  8
0
100
AcDbLine
 10
15.99996185302734
 20
85.09844970703126
 30
0.0
 11
15.99996185302734
 21
75.6851799764018
 31
0.0
  0
LINE
  5
203B
330
105C
100
AcDbEntity
  8
0
100
AcDbLine
 10
11.53604005517189
 20
70.7984619140625
 30
0.0
 11
17.9999771118164
 21
74.5304177807231
 31
0.0
  0
LINE
  5
203C
330
105C
100
AcDbEntity
  8
0
100
AcDbLine
 10
17.9999771118164
 20
85.09844970703126
 30
0.0
 11
17.9999771118164
 21
74.5304177807231
 31
0.0
  0
LINE
  5
203D
330
105C
100
AcDbEntity
  8
0
100
AcDbLine
 10
10.99980815968939
 20
72.79833984375
 30
0.0
 11
15.99996185302734
 21
75.6851799764018
 31
0.0
  0
LINE
  5
203E
330
105C
100
AcDbEntity
  8
0
100
AcDbLine
 10
15.99996185302734
 20
85.09844970703126
 30
0.0
 11
17.9999771118164
 21
85.09844970703126
 31
0.0
  0
LINE
  5
203F
330
105C
100
AcDbEntity
  8
0
100
AcDbLine
 10
9.233139038085937
 20
73.7984619140625
 30
0.0
 11
9.233139038085937
 21
72.79833984375
 31
0.0
  0
LINE
  5
2040
330
105C
100
AcDbEntity
  8
0
100
AcDbLine
 10
13.7999038696289
 20
110.098388671875
 30
0.0
 11
13.7999038696289
 21
111.598388671875
 31
0.0
  0
LINE
  5
2041
330
105C
100
AcDbEntity
  8
0
100
AcDbLine
 10
11.49998474121094
 20
108.79833984375
 30
0.0
 11
11.49998474121094
 21
110.098388671875
 31
0.0
  0
LINE
  5
2042
330
105C
100
AcDbEntity
  8
0
100
AcDbLine
 10
14.9999771118164
 20
87.29844298048822
 30
0.0
 11
14.9999771118164
 21
108.79833984375
 31
0.0
  0
LINE
  5
2043
330
105C
100
AcDbEntity
  8
0
100
AcDbLine
 10
11.49998474121094
 20
73.7984619140625
 30
0.0
 11
11.49998474121094
 21
83.79845060988277
 31
0.0
  0
LINE
  5
2044
330
105C
100
AcDbEntity
  8
0
100
AcDbLine
 10
14.9999771118164
 20
87.29844298048822
 30
0.0
 11
11.49998474121094
 21
83.79845060988277
 31
0.0
  0
LINE
  5
2045
330
105C
100
AcDbEntity
  8
0
100
AcDbLine
 10
14.9999771118164
 20
66.67571954086628
 30
0.0
 11
14.9999771118164
 21
52.29156494140625
 31
0.0
  0
LINE
  5
2046
330
105C
100
AcDbEntity
  8
0
100
AcDbLine
 10
34.99996948242188
 20
82.26416015625
 30
0.0
 11
34.99996948242188
 21
107.5984497070312
 31
0.0
  0
LINE
  5
2047
330
105C
100
AcDbEntity
  8
0
100
AcDbLine
 10
15.49994659423828
 20
108.598388671875
 30
0.0
 11
33.99996185302735
 21
108.598388671875
 31
0.0
  0
LINE
  5
2048
330
105C
100
AcDbEntity
  8
0
100
AcDbLine
 10
37.99996948242188
 20
82.26416015625
 30
0.0
 11
37.99996948242188
 21
107.5984497070312
 31
0.0
  0
LINE
  5
2049
330
105C
100
AcDbEntity
  8
0
100
AcDbLine
 10
13.99994743512116
 20
69.56245375814728
 30
0.0
 11
34.49998920549359
 21
81.39815860510038
 31
0.0
  0
LINE
  5
204A
330
105C
100
AcDbEntity
  8
0
100
AcDbLine
 10
14.9999771118164
 20
66.67571954086628
 30
0.0
 11
35.99998922568534
 21
78.8000824054048
 31
0.0
  0
LINE
  5
204B
330
105C
100
AcDbEntity
  8
0
100
AcDbLine
 10
12.0
 20
68.9000244140625
 30
0.0
 11
12.0
 21
-68.89992141723633
 31
0.0
  0
LINE
  5
204C
330
105C
100
AcDbEntity
  8
0
100
AcDbLine
 10
15.49994659423828
 20
108.598388671875
 30
0.0
 11
15.49994659423828
 21
111.598388671875
 31
0.0
  0
LINE
  5
204D
330
105C
100
AcDbEntity
  8
0
100
AcDbLine
 10
5.25
 20
228.9270751953125
 30
0.0
 11
5.25
 21
227.3999755859375
 31
0.0
  0
LINE
  5
204E
330
105C
100
AcDbEntity
  8
0
100
AcDbLine
 10
-5.25
 20
228.9270751953125
 30
0.0
 11
-5.25
 21
227.3999755859375
 31
0.0
  0
LINE
  5
204F
330
105C
100
AcDbEntity
  8
0
100
AcDbLine
 10
-40.00003051757812
 20
225.8
 30
0.0
 11
39.99993896484375
 21
225.8
 31
0.0
  0
LINE
  5
2050
330
105C
100
AcDbEntity
  8
0
100
AcDbLine
 10
-40.00003051757812
 20
225.8
 30
0.0
 11
-40.00003051757812
 21
200.8000610351563
 31
0.0
  0
LINE
  5
2051
330
105C
100
AcDbEntity
  8
0
100
AcDbLine
 10
39.99993896484375
 20
225.8
 30
0.0
 11
39.99993896484375
 21
200.8000610351563
 31
0.0
  0
LINE
  5
2052
330
105C
100
AcDbEntity
  8
0
100
AcDbLine
 10
-40.00003051757812
 20
200.8000610351563
 30
0.0
 11
39.99993896484375
 21
200.8000610351563
 31
0.0
  0
LINE
  5
2053
330
105C
100
AcDbEntity
  8
0
100
AcDbLine
 10
-6.250030517578125
 20
227.3999755859375
 30
0.0
 11
6.249984741210937
 21
227.3999755859375
 31
0.0
  0
LINE
  5
2054
330
105C
100
AcDbEntity
  8
0
100
AcDbLine
 10
11.49998474121094
 20
200.098388671875
 30
0.0
 11
11.49998474121094
 21
200.8000610351563
 31
0.0
  0
LINE
  5
2055
330
105C
100
AcDbEntity
  8
0
100
AcDbLine
 10
-11.49998474121094
 20
200.098388671875
 30
0.0
 11
-11.49998474121094
 21
200.8000610351563
 31
0.0
  0
LINE
  5
2056
330
105C
100
AcDbEntity
  8
0
100
AcDbLine
 10
13.7999038696289
 20
200.098388671875
 30
0.0
 11
13.7999038696289
 21
198.598388671875
 31
0.0
  0
LINE
  5
2057
330
105C
100
AcDbEntity
  8
0
100
AcDbLine
 10
-13.80006408691406
 20
200.098388671875
 30
0.0
 11
-13.80006408691406
 21
198.598388671875
 31
0.0
  0
LINE
  5
2058
330
105C
100
AcDbEntity
  8
0
100
AcDbLine
 10
13.7999038696289
 20
200.098388671875
 30
0.0
 11
-13.80006408691406
 21
200.098388671875
 31
0.0
  0
LINE
  5
2059
330
105C
100
AcDbEntity
  8
0
100
AcDbLine
 10
-6.250030517578125
 20
227.3999755859375
 30
0.0
 11
-6.250030517578125
 21
225.8
 31
0.0
  0
LINE
  5
205A
330
105C
100
AcDbEntity
  8
0
100
AcDbLine
 10
6.249984741210937
 20
227.3999755859375
 30
0.0
 11
6.249984741210937
 21
225.8
 31
0.0
  0
LINE
  5
205B
330
105C
100
AcDbEntity
  8
0
100
AcDbLine
 10
99.27503299713135
 20
336.4999084472656
 30
0.0
 11
94.49991703033447
 21
336.4999084472656
 31
0.0
  0
LINE
  5
205C
330
105C
100
AcDbEntity
  8
0
100
AcDbLine
 10
-74.50007629394531
 20
323.4997863769531
 30
0.0
 11
-74.50007629394531
 21
336.4999084472656
 31
0.0
  0
LINE
  5
205D
330
105C
100
AcDbEntity
  8
0
100
AcDbLine
 10
99.99991607666022
 20
326.7499084472656
 30
0.0
 11
99.99991607666022
 21
333.2497863769531
 31
0.0
  0
LINE
  5
205E
330
105C
100
AcDbEntity
  8
0
100
AcDbLine
 10
99.27503299713135
 20
329.9998474121094
 30
0.0
 11
94.49991703033447
 21
329.9998474121094
 31
0.0
  0
LINE
  5
205F
330
105C
100
AcDbEntity
  8
0
100
AcDbLine
 10
94.49991703033447
 20
323.4997863769531
 30
0.0
 11
94.49991703033447
 21
336.4999084472656
 31
0.0
  0
LINE
  5
2060
330
105C
100
AcDbEntity
  8
0
100
AcDbLine
 10
99.27503299713135
 20
323.4997863769531
 30
0.0
 11
94.49991703033447
 21
323.4997863769531
 31
0.0
  0
LINE
  5
2061
330
105C
100
AcDbEntity
  8
0
100
AcDbLine
 10
-79.27516937255856
 20
329.9998474121094
 30
0.0
 11
-74.50007629394531
 21
329.9998474121094
 31
0.0
  0
LINE
  5
2062
330
105C
100
AcDbEntity
  8
0
100
AcDbLine
 10
-79.27516937255856
 20
323.4997863769531
 30
0.0
 11
-74.50007629394531
 21
323.4997863769531
 31
0.0
  0
LINE
  5
2063
330
105C
100
AcDbEntity
  8
0
100
AcDbLine
 10
91.06305599212646
 20
333.9997863769531
 30
0.0
 11
94.49991703033447
 21
333.9997863769531
 31
0.0
  0
LINE
  5
2064
330
105C
100
AcDbEntity
  8
0
100
AcDbLine
 10
91.59680843353271
 20
325.9999084472656
 30
0.0
 11
94.49991703033447
 21
325.9999084472656
 31
0.0
  0
LINE
  5
2065
330
105C
100
AcDbEntity
  8
0
100
AcDbLine
 10
86.09992218017579
 20
338.4997863769531
 30
0.0
 11
84.49991798400878
 21
338.4997863769531
 31
0.0
  0
LINE
  5
2066
330
105C
100
AcDbEntity
  8
0
100
AcDbLine
 10
91.0999231338501
 20
333.1997985839844
 30
0.0
 11
94.49991703033447
 21
333.1997985839844
 31
0.0
  0
LINE
  5
2067
330
105C
100
AcDbEntity
  8
0
100
AcDbLine
 10
91.57193756103522
 20
326.7998962402344
 30
0.0
 11
94.49991703033447
 21
326.7998962402344
 31
0.0
  0
LINE
  5
2068
330
105C
100
AcDbEntity
  8
0
100
AcDbLine
 10
90.37503719329833
 20
336.4999084472656
 30
0.0
 11
86.82480812072753
 21
336.4999084472656
 31
0.0
  0
LINE
  5
2069
330
105C
100
AcDbEntity
  8
0
100
AcDbLine
 10
91.0999231338501
 20
330.6998596191406
 30
0.0
 11
91.0999231338501
 21
333.2497863769531
 31
0.0
  0
LINE
  5
206A
330
105C
100
AcDbEntity
  8
0
100
AcDbLine
 10
-71.06318664550781
 20
333.9997863769531
 30
0.0
 11
-74.50007629394531
 21
333.9997863769531
 31
0.0
  0
LINE
  5
206B
330
105C
100
AcDbEntity
  8
0
100
AcDbLine
 10
-71.59700775146484
 20
325.9999084472656
 30
0.0
 11
-74.50007629394531
 21
325.9999084472656
 31
0.0
  0
LINE
  5
206C
330
105C
100
AcDbEntity
  8
0
100
AcDbLine
 10
-71.09994506835938
 20
333.1997985839844
 30
0.0
 11
-74.50007629394531
 21
333.1997985839844
 31
0.0
  0
LINE
  5
206D
330
105C
100
AcDbEntity
  8
0
100
AcDbLine
 10
-71.57210540771484
 20
326.7998962402344
 30
0.0
 11
-74.50007629394531
 21
326.7998962402344
 31
0.0
  0
LINE
  5
206E
330
105C
100
AcDbEntity
  8
0
100
AcDbLine
 10
-79.27516937255856
 20
336.4999084472656
 30
0.0
 11
-74.50007629394531
 21
336.4999084472656
 31
0.0
  0
LINE
  5
206F
330
105C
100
AcDbEntity
  8
0
100
AcDbLine
 10
-70.37521362304687
 20
336.4999084472656
 30
0.0
 11
-66.82498168945312
 21
336.4999084472656
 31
0.0
  0
LINE
  5
2070
330
105C
100
AcDbEntity
  8
0
100
AcDbLine
 10
-71.10005950927734
 20
330.6998596191406
 30
0.0
 11
-71.10005950927734
 21
333.2497863769531
 31
0.0
  0
LINE
  5
2071
330
105C
100
AcDbEntity
  8
0
100
AcDbLine
 10
-80.00008392333981
 20
326.7499084472656
 30
0.0
 11
-80.00008392333981
 21
333.2497863769531
 31
0.0
  0
LINE
  5
2072
330
105C
100
AcDbEntity
  8
0
100
AcDbLine
 10
-66.10006713867187
 20
338.4997863769531
 30
0.0
 11
-64.50009155273438
 21
338.4997863769531
 31
0.0
  0
LINE
  5
2073
330
105C
100
AcDbEntity
  8
0
100
AcDbLine
 10
-71.09577941894531
 20
330.6998596191406
 30
0.0
 11
-67.60006713867188
 21
330.6998596191406
 31
0.0
  0
LINE
  5
2074
330
105C
100
AcDbEntity
  8
0
100
AcDbLine
 10
-71.09577941894531
 20
325.6997985839844
 30
0.0
 11
-67.60006713867188
 21
325.6997985839844
 31
0.0
  0
LINE
  5
2075
330
105C
100
AcDbEntity
  8
0
100
AcDbLine
 10
-71.09577941894531
 20
320.6997375488281
 30
0.0
 11
-67.60006713867188
 21
320.6997375488281
 31
0.0
  0
LINE
  5
2076
330
105C
100
AcDbEntity
  8
0
100
AcDbLine
 10
-71.60005187988281
 20
323.1998596191406
 30
0.0
 11
-71.60005187988281
 21
328.1997375488281
 31
0.0
  0
LINE
  5
2077
330
105C
100
AcDbEntity
  8
0
100
AcDbLine
 10
-71.09577941894531
 20
379.2998962402344
 30
0.0
 11
-67.60006713867188
 21
379.2998962402344
 31
0.0
  0
LINE
  5
2078
330
105C
100
AcDbEntity
  8
0
100
AcDbLine
 10
-71.09577941894531
 20
374.2998352050781
 30
0.0
 11
-67.60006713867188
 21
374.2998352050781
 31
0.0
  0
LINE
  5
2079
330
105C
100
AcDbEntity
  8
0
100
AcDbLine
 10
-71.09577941894531
 20
369.2997741699218
 30
0.0
 11
-67.60006713867188
 21
369.2997741699218
 31
0.0
  0
LINE
  5
207A
330
105C
100
AcDbEntity
  8
0
100
AcDbLine
 10
-71.60005187988281
 20
371.7998962402344
 30
0.0
 11
-71.60005187988281
 21
376.7997741699218
 31
0.0
  0
LINE
  5
207B
330
105C
100
AcDbEntity
  8
0
100
AcDbLine
 10
91.09558868408203
 20
320.6997375488281
 30
0.0
 11
87.59992218017584
 21
320.6997375488281
 31
0.0
  0
LINE
  5
207C
330
105C
100
AcDbEntity
  8
0
100
AcDbLine
 10
91.09558868408203
 20
325.6997985839844
 30
0.0
 11
87.59992218017584
 21
325.6997985839844
 31
0.0
  0
LINE
  5
207D
330
105C
100
AcDbEntity
  8
0
100
AcDbLine
 10
91.09558868408203
 20
330.6998596191406
 30
0.0
 11
87.59992218017584
 21
330.6998596191406
 31
0.0
  0
LINE
  5
207E
330
105C
100
AcDbEntity
  8
0
100
AcDbLine
 10
91.59992122650146
 20
328.1997375488281
 30
0.0
 11
91.59992122650146
 21
323.1998596191406
 31
0.0
  0
LINE
  5
207F
330
105C
100
AcDbEntity
  8
0
100
AcDbLine
 10
91.09558868408203
 20
369.2997741699218
 30
0.0
 11
87.59992218017584
 21
369.2997741699218
 31
0.0
  0
LINE
  5
2080
330
105C
100
AcDbEntity
  8
0
100
AcDbLine
 10
91.09558868408203
 20
374.2998352050781
 30
0.0
 11
87.59992218017584
 21
374.2998352050781
 31
0.0
  0
LINE
  5
2081
330
105C
100
AcDbEntity
  8
0
100
AcDbLine
 10
91.09558868408203
 20
379.2998962402344
 30
0.0
 11
87.59992218017584
 21
379.2998962402344
 31
0.0
  0
LINE
  5
2082
330
105C
100
AcDbEntity
  8
0
100
AcDbLine
 10
91.59992122650146
 20
376.7997741699218
 30
0.0
 11
91.59992122650146
 21
371.7998962402344
 31
0.0
  0
LINE
  5
2083
330
105C
100
AcDbEntity
  8
0
100
AcDbLine
 10
87.59992218017584
 20
380.3998107910156
 30
0.0
 11
86.09992218017579
 21
380.3998107910156
 31
0.0
  0
LINE
  5
2084
330
105C
100
AcDbEntity
  8
0
100
AcDbLine
 10
87.59992218017584
 20
368.1998596191406
 30
0.0
 11
86.09992218017579
 21
368.1998596191406
 31
0.0
  0
LINE
  5
2085
330
105C
100
AcDbEntity
  8
0
100
AcDbLine
 10
87.59992218017584
 20
380.3998107910156
 30
0.0
 11
87.59992218017584
 21
368.1998596191406
 31
0.0
  0
LINE
  5
2086
330
105C
100
AcDbEntity
  8
0
100
AcDbLine
 10
86.09992218017579
 20
368.0498962402344
 30
0.0
 11
84.49991798400878
 21
368.0498962402344
 31
0.0
  0
LINE
  5
2087
330
105C
100
AcDbEntity
  8
0
100
AcDbLine
 10
86.09992218017579
 20
380.5497741699218
 30
0.0
 11
86.09992218017579
 21
368.0498962402344
 31
0.0
  0
LINE
  5
2088
330
105C
100
AcDbEntity
  8
0
100
AcDbLine
 10
86.09992218017579
 20
380.5497741699218
 30
0.0
 11
84.49991798400878
 21
380.5497741699218
 31
0.0
  0
LINE
  5
2089
330
105C
100
AcDbEntity
  8
0
100
AcDbLine
 10
87.59992218017584
 20
331.7997741699219
 30
0.0
 11
86.09992218017579
 21
331.7997741699219
 31
0.0
  0
LINE
  5
208A
330
105C
100
AcDbEntity
  8
0
100
AcDbLine
 10
87.59992218017584
 20
319.5998229980469
 30
0.0
 11
86.09992218017579
 21
319.5998229980469
 31
0.0
  0
LINE
  5
208B
330
105C
100
AcDbEntity
  8
0
100
AcDbLine
 10
87.59992218017584
 20
331.7997741699219
 30
0.0
 11
87.59992218017584
 21
319.5998229980469
 31
0.0
  0
LINE
  5
208C
330
105C
100
AcDbEntity
  8
0
100
AcDbLine
 10
86.09992218017579
 20
319.4498596191406
 30
0.0
 11
84.49991798400878
 21
319.4498596191406
 31
0.0
  0
LINE
  5
208D
330
105C
100
AcDbEntity
  8
0
100
AcDbLine
 10
86.09992218017579
 20
338.4997863769531
 30
0.0
 11
86.09992218017579
 21
319.4498596191406
 31
0.0
  0
LINE
  5
208E
330
105C
100
AcDbEntity
  8
0
100
AcDbLine
 10
86.09992218017579
 20
331.9497375488281
 30
0.0
 11
84.49991798400878
 21
331.9497375488281
 31
0.0
  0
LINE
  5
208F
330
105C
100
AcDbEntity
  8
0
100
AcDbLine
 10
-67.60006713867188
 20
319.5998229980469
 30
0.0
 11
-66.10006713867187
 21
319.5998229980469
 31
0.0
  0
LINE
  5
2090
330
105C
100
AcDbEntity
  8
0
100
AcDbLine
 10
-67.60006713867188
 20
331.7997741699219
 30
0.0
 11
-66.10006713867187
 21
331.7997741699219
 31
0.0
  0
LINE
  5
2091
330
105C
100
AcDbEntity
  8
0
100
AcDbLine
 10
-67.60006713867188
 20
319.5998229980469
 30
0.0
 11
-67.60006713867188
 21
331.7997741699219
 31
0.0
  0
LINE
  5
2092
330
105C
100
AcDbEntity
  8
0
100
AcDbLine
 10
-66.10006713867187
 20
331.9497375488281
 30
0.0
 11
-64.50009155273438
 21
331.9497375488281
 31
0.0
  0
LINE
  5
2093
330
105C
100
AcDbEntity
  8
0
100
AcDbLine
 10
-66.10006713867187
 20
319.4498596191406
 30
0.0
 11
-66.10006713867187
 21
338.4997863769531
 31
0.0
  0
LINE
  5
2094
330
105C
100
AcDbEntity
  8
0
100
AcDbLine
 10
-66.10006713867187
 20
319.4498596191406
 30
0.0
 11
-64.50009155273438
 21
319.4498596191406
 31
0.0
  0
LINE
  5
2095
330
105C
100
AcDbEntity
  8
0
100
AcDbLine
 10
-67.60006713867188
 20
368.1998596191406
 30
0.0
 11
-66.10006713867187
 21
368.1998596191406
 31
0.0
  0
LINE
  5
2096
330
105C
100
AcDbEntity
  8
0
100
AcDbLine
 10
-67.60006713867188
 20
380.3998107910156
 30
0.0
 11
-66.10006713867187
 21
380.3998107910156
 31
0.0
  0
LINE
  5
2097
330
105C
100
AcDbEntity
  8
0
100
AcDbLine
 10
-67.60006713867188
 20
368.1998596191406
 30
0.0
 11
-67.60006713867188
 21
380.3998107910156
 31
0.0
  0
LINE
  5
2098
330
105C
100
AcDbEntity
  8
0
100
AcDbLine
 10
-66.10006713867187
 20
380.5497741699218
 30
0.0
 11
-64.50009155273438
 21
380.5497741699218
 31
0.0
  0
LINE
  5
2099
330
105C
100
AcDbEntity
  8
0
100
AcDbLine
 10
-66.10006713867187
 20
368.0498962402344
 30
0.0
 11
-66.10006713867187
 21
380.5497741699218
 31
0.0
  0
LINE
  5
209A
330
105C
100
AcDbEntity
  8
0
100
AcDbLine
 10
-66.10006713867187
 20
368.0498962402344
 30
0.0
 11
-64.50009155273438
 21
368.0498962402344
 31
0.0
  0
LINE
  5
209B
330
105C
100
AcDbEntity
  8
0
100
AcDbLine
 10
-64.50009155273438
 20
319.1999206542969
 30
0.0
 11
84.49991798400878
 21
319.1999206542969
 31
0.0
  0
LINE
  5
209C
330
105C
100
AcDbEntity
  8
0
100
AcDbLine
 10
-64.50009155273438
 20
380.7998962402344
 30
0.0
 11
84.49991798400878
 21
380.7998962402344
 31
0.0
  0
LINE
  5
209D
330
105C
100
AcDbEntity
  8
0
100
AcDbLine
 10
-64.50009155273438
 20
365.7998962402344
 30
0.0
 11
-5.677631378173828
 21
365.7998962402344
 31
0.0
  0
LINE
  5
209E
330
105C
100
AcDbEntity
  8
0
100
AcDbLine
 10
-64.50009155273438
 20
334.1999206542969
 30
0.0
 11
-5.677253723144531
 21
334.1999206542969
 31
0.0
  0
LINE
  5
209F
330
105C
100
AcDbEntity
  8
0
100
AcDbLine
 10
-64.50009155273438
 20
332.1998596191406
 30
0.0
 11
-0.51580810546875
 21
332.1998596191406
 31
0.0
  0
LINE
  5
20A0
330
105C
100
AcDbEntity
  8
0
100
AcDbLine
 10
-59.50021362304688
 20
389.1998596191406
 30
0.0
 11
-59.50021362304688
 21
310.7997741699219
 31
0.0
  0
LINE
  5
20A1
330
105C
100
AcDbEntity
  8
0
100
AcDbLine
 10
79.49991989135742
 20
389.1998596191406
 30
0.0
 11
79.49991989135742
 21
310.7997741699219
 31
0.0
  0
LINE
  5
20A2
330
105C
100
AcDbEntity
  8
0
100
AcDbLine
 10
-64.50009155273438
 20
367.7999572753906
 30
0.0
 11
-0.5161857604980469
 21
367.7999572753906
 31
0.0
  0
LINE
  5
20A3
330
105C
100
AcDbEntity
  8
0
  6
CENTER
100
AcDbLine
 10
-70.00007629394531
 20
349.9999084472656
 30
0.0
 11
89.99991703033447
 21
349.9999084472656
 31
0.0
  0
LINE
  5
20A4
330
105C
100
AcDbEntity
  8
0
  6
CENTER
100
AcDbLine
 10
0.0
 20
427.6032130872557
 30
0.0
 11
0.0
 21
272.3966038072755
 31
0.0
  0
LINE
  5
20A5
330
105C
100
AcDbEntity
  8
0
100
AcDbLine
 10
84.49991798400878
 20
389.1998596191406
 30
0.0
 11
84.49991798400878
 21
310.7997741699219
 31
0.0
  0
LINE
  5
20A6
330
105C
100
AcDbEntity
  8
0
100
AcDbLine
 10
-64.50009155273438
 20
389.1998596191406
 30
0.0
 11
-64.50009155273438
 21
310.7997741699219
 31
0.0
  0
LINE
  5
20A7
330
105C
100
AcDbEntity
  8
0
100
AcDbLine
 10
-64.50009155273438
 20
389.1998596191406
 30
0.0
 11
84.49991798400878
 21
389.1998596191406
 31
0.0
  0
LINE
  5
20A8
330
105C
100
AcDbEntity
  8
0
100
AcDbLine
 10
-64.50009155273438
 20
310.7997741699219
 30
0.0
 11
84.49991798400878
 21
310.7997741699219
 31
0.0
  0
LINE
  5
20A9
330
105C
100
AcDbEntity
  8
0
100
AcDbLine
 10
17.30005645751953
 20
100.0984268188476
 30
0.0
 11
17.30005645751953
 21
108.5984115600586
 31
0.0
  0
LINE
  5
20AA
330
105C
100
AcDbEntity
  8
0
100
AcDbLine
 10
17.30005645751953
 20
107.5984268188476
 30
0.0
 11
30.30010986328125
 21
107.5984268188476
 31
0.0
  0
LINE
  5
20AB
330
105C
100
AcDbEntity
  8
0
100
AcDbLine
 10
18.16606327519537
 20
99.59845495114349
 30
0.0
 11
17.30009073329239
 21
100.0984244402955
 31
0.0
  0
LINE
  5
20AC
330
105C
100
AcDbEntity
  8
0
100
AcDbLine
 10
18.16605377197265
 20
99.59845733642579
 30
0.0
 11
29.43402099609375
 21
99.59845733642579
 31
0.0
  0
LINE
  5
20AD
330
105C
100
AcDbEntity
  8
0
100
AcDbLine
 10
29.43400680728183
 20
99.59848610407773
 30
0.0
 11
30.3000388144298
 21
100.0984899255056
 31
0.0
  0
LINE
  5
20AE
330
105C
100
AcDbEntity
  8
0
100
AcDbLine
 10
30.30010986328125
 20
100.0984268188476
 30
0.0
 11
30.30010986328125
 21
108.5984115600586
 31
0.0
  0
LINE
  5
20AF
330
105C
100
AcDbEntity
  8
0
100
AcDbLine
 10
5.677677154541015
 20
365.7998962402344
 30
0.0
 11
84.49991798400878
 21
365.7998962402344
 31
0.0
  0
LINE
  5
20B0
330
105C
100
AcDbEntity
  8
0
100
AcDbLine
 10
0.5162315368652344
 20
367.7999572753906
 30
0.0
 11
84.49991798400878
 21
367.7999572753906
 31
0.0
  0
LINE
  5
20B1
330
105C
100
AcDbEntity
  8
0
100
AcDbLine
 10
5.677299499511718
 20
334.1999206542969
 30
0.0
 11
84.49991798400878
 21
334.1999206542969
 31
0.0
  0
LINE
  5
20B2
330
105C
100
AcDbEntity
  8
0
100
AcDbLine
 10
0.5158538818359375
 20
332.1998596191406
 30
0.0
 11
84.49991798400878
 21
332.1998596191406
 31
0.0
  0
ARC
  5
20B3
330
105C
100
AcDbEntity
  8
0
100
AcDbCircle
 10
-222.9999389648437
 20
59.7410888671875
 30
0.0
 40
4.999999880790709
100
AcDbArc
 50
295.4164701142178
 51
207.5647360461592
  0
ARC
  5
20B4
330
105C
100
AcDbEntity
  8
0
100
AcDbCircle
 10
-222.9999389648437
 20
59.7410888671875
 30
0.0
 40
4.5
100
AcDbArc
 50
289.1283998888154
 51
213.8527994413723
  0
ARC
  5
20B5
330
105C
100
AcDbEntity
  8
0
100
AcDbCircle
 10
-185.0081176757811
 20
24.61614990234375
 30
0.0
 40
4.999999880790709
100
AcDbArc
 50
246.9258767809788
 51
159.0741085619788
  0
ARC
  5
20B6
330
105C
100
AcDbEntity
  8
0
100
AcDbCircle
 10
-185.0081176757811
 20
24.61614990234375
 30
0.0
 40
4.5
100
AcDbArc
 50
240.6377997253914
 51
165.3621719571876
  0
ARC
  5
20B7
330
105C
100
AcDbEntity
  8
0
100
AcDbCircle
 10
-185.0081176757811
 20
-24.6159553527832
 30
0.0
 40
4.999999880790709
100
AcDbArc
 50
200.9258914380204
 51
113.0741163888318
  0
ARC
  5
20B8
330
105C
100
AcDbEntity
  8
0
100
AcDbCircle
 10
-185.0081176757811
 20
-24.6159553527832
 30
0.0
 40
4.5
100
AcDbArc
 50
194.6378143824333
 51
119.3621866142313
  0
ARC
  5
20B9
330
105C
100
AcDbEntity
  8
0
100
AcDbCircle
 10
-222.9999389648437
 20
-59.74098587036133
 30
0.0
 40
4.999999880790709
100
AcDbArc
 50
152.4352876321304
 51
64.58351941312869
  0
ARC
  5
20BA
330
105C
100
AcDbEntity
  8
0
100
AcDbCircle
 10
-222.9999389648437
 20
-59.74098587036133
 30
0.0
 40
4.5
100
AcDbArc
 50
146.147210576541
 51
70.87158280833822
  0
CIRCLE
  5
20BB
330
105C
100
AcDbEntity
  8
0
100
AcDbCircle
 10
-243.0
 20
0.0
 30
0.0
 40
59.50000190734863
  0
CIRCLE
  5
20BC
330
105C
100
AcDbEntity
  8
0
100
AcDbCircle
 10
-243.0
 20
0.0
 30
0.0
 40
48.79999923706055
  0
ARC
  5
20BD
330
105C
100
AcDbEntity
  8
0
100
AcDbCircle
 10
6.17669677734375
 20
-68.2064094543457
 30
0.0
 40
0.8000000417232513
100
AcDbArc
 50
262.7014076126066
 51
291.7393489820803
  0
ARC
  5
20BE
330
105C
100
AcDbEntity
  8
0
100
AcDbCircle
 10
6.768310546875
 20
-69.69295120239258
 30
0.0
 40
0.8000000417232513
100
AcDbArc
 50
97.53238293249365
 51
111.7393539910373
  0
ARC
  5
20BF
330
105C
100
AcDbEntity
  8
0
100
AcDbCircle
 10
13.17157745361328
 20
-64.07106399536131
 30
0.0
 40
2.42832201719284
100
AcDbArc
 50
323.530683039958
 51
36.46931354494542
  0
ARC
  5
20C0
330
105C
100
AcDbEntity
  8
0
100
AcDbCircle
 10
6.599945068359375
 20
-59.74098587036133
 30
0.0
 40
9.0
100
AcDbArc
 50
341.2917037595304
 51
18.70829965556086
  0
ARC
  5
20C1
330
105C
100
AcDbEntity
  8
0
100
AcDbCircle
 10
13.17157745361328
 20
-55.41090774536133
 30
0.0
 40
2.42832201719284
100
AcDbArc
 50
323.530683039958
 51
36.47062835353923
  0
ARC
  5
20C2
330
105C
100
AcDbEntity
  8
0
100
AcDbCircle
 10
9.599945068359375
 20
59.7410888671875
 30
0.0
 40
9.0
100
AcDbArc
 50
341.2917037595304
 51
18.70829965556086
  0
ARC
  5
20C3
330
105C
100
AcDbEntity
  8
0
100
AcDbCircle
 10
16.17157745361328
 20
64.07135009765625
 30
0.0
 40
2.42832201719284
100
AcDbArc
 50
323.530683039958
 51
36.46931354494542
  0
ARC
  5
20C4
330
105C
100
AcDbEntity
  8
0
100
AcDbCircle
 10
16.17157745361328
 20
55.4110107421875
 30
0.0
 40
2.42832201719284
100
AcDbArc
 50
323.5306864550546
 51
36.46931354494542
  0
ARC
  5
20C5
330
105C
100
AcDbEntity
  8
0
100
AcDbCircle
 10
49.71017456054688
 20
58.70001220703122
 30
0.0
 40
0.8000000417232513
100
AcDbArc
 50
90.00000250447845
 51
159.9999953454879
  0
CIRCLE
  5
20C6
330
105C
100
AcDbEntity
  8
0
100
AcDbCircle
 10
-218.6999816894531
 20
119.1000366210937
 30
0.0
 40
4.999999880790709
  0
CIRCLE
  5
20C7
330
105C
100
AcDbEntity
  8
0
100
AcDbCircle
 10
-218.6999816894531
 20
191.1000366210936
 30
0.0
 40
4.999999880790709
  0
ARC
  5
20C8
330
105C
100
AcDbEntity
  8
0
100
AcDbCircle
 10
-243.0
 20
155.1000366210937
 30
0.0
 40
39.19999980926513
100
AcDbArc
 50
141.786612904732
 51
218.2133834528027
  0
CIRCLE
  5
20C9
330
105C
100
AcDbEntity
  8
0
100
AcDbCircle
 10
-263.0000152587891
 20
155.1000366210937
 30
0.0
 40
4.282999992370604
  0
CIRCLE
  5
20CA
330
105C
100
AcDbEntity
  8
0
100
AcDbCircle
 10
-267.2999267578125
 20
119.1000366210937
 30
0.0
 40
6.0
  0
CIRCLE
  5
20CB
330
105C
100
AcDbEntity
  8
0
100
AcDbCircle
 10
-267.2999267578125
 20
191.1000366210936
 30
0.0
 40
6.0
  0
CIRCLE
  5
20CC
330
105C
100
AcDbEntity
  8
0
100
AcDbCircle
 10
-223.0000305175781
 20
155.1000366210937
 30
0.0
 40
7.5
  0
CIRCLE
  5
20CD
330
105C
100
AcDbEntity
  8
0
100
AcDbCircle
 10
-218.6999816894531
 20
119.1000366210937
 30
0.0
 40
6.0
  0
CIRCLE
  5
20CE
330
105C
100
AcDbEntity
  8
0
100
AcDbCircle
 10
-218.6999816894531
 20
191.1000366210936
 30
0.0
 40
6.0
  0
CIRCLE
  5
20CF
330
105C
100
AcDbEntity
  8
0
100
AcDbCircle
 10
-267.2999267578125
 20
119.1000366210937
 30
0.0
 40
4.999999880790709
  0
CIRCLE
  5
20D0
330
105C
100
AcDbEntity
  8
0
100
AcDbCircle
 10
-263.0000152587891
 20
155.1000366210937
 30
0.0
 40
4.863999724388121
  0
CIRCLE
  5
20D1
330
105C
100
AcDbEntity
  8
0
100
AcDbCircle
 10
-223.0000305175781
 20
155.1000366210937
 30
0.0
 40
6.500000238418579
  0
CIRCLE
  5
20D2
330
105C
100
AcDbEntity
  8
0
100
AcDbCircle
 10
-267.2999267578125
 20
191.1000366210936
 30
0.0
 40
4.999999880790709
  0
ARC
  5
20D3
330
105C
100
AcDbEntity
  8
0
100
AcDbCircle
 10
-243.0
 20
155.1000366210937
 30
0.0
 40
39.19999980926513
100
AcDbArc
 50
321.7869050090027
 51
38.2131018211853
  0
ARC
  5
20D4
330
105C
100
AcDbEntity
  8
0
100
AcDbCircle
 10
-216.0
 20
59.7916259765625
 30
0.0
 40
4.000000119209288
100
AcDbArc
 50
314.9999987477614
 51
0.0
  0
ARC
  5
20D5
330
105C
100
AcDbEntity
  8
0
100
AcDbCircle
 10
-219.5000152587891
 20
56.291748046875
 30
0.0
 40
4.000000119209288
100
AcDbArc
 50
313.5641632106295
 51
315.20202891322
  0
ARC
  5
20D6
330
105C
100
AcDbEntity
  8
0
100
AcDbCircle
 10
89.28234100341796
 20
195.428466796875
 30
0.0
 40
2.317658007144927
100
AcDbArc
 50
321.4810525530649
 51
38.51894403184155
  0
ARC
  5
20D7
330
105C
100
AcDbEntity
  8
0
100
AcDbCircle
 10
83.08582305908203
 20
191.098388671875
 30
0.0
 40
8.514156103134155
100
AcDbArc
 50
340.1808008117857
 51
19.8191957731195
  0
ARC
  5
20D8
330
105C
100
AcDbEntity
  8
0
100
AcDbCircle
 10
89.28234100341796
 20
186.7681274414061
 30
0.0
 40
2.317658007144927
100
AcDbArc
 50
321.4810525530649
 51
38.51894403184155
  0
ARC
  5
20D9
330
105C
100
AcDbEntity
  8
0
100
AcDbCircle
 10
89.28234100341796
 20
123.428466796875
 30
0.0
 40
2.317658007144927
100
AcDbArc
 50
321.4810525530649
 51
38.51894403184155
  0
ARC
  5
20DA
330
105C
100
AcDbEntity
  8
0
100
AcDbCircle
 10
83.08582305908203
 20
119.098388671875
 30
0.0
 40
8.514156103134155
100
AcDbArc
 50
340.1808008117857
 51
19.8191957731195
  0
ARC
  5
20DB
330
105C
100
AcDbEntity
  8
0
100
AcDbCircle
 10
89.28234100341796
 20
114.7681274414062
 30
0.0
 40
2.317658007144927
100
AcDbArc
 50
321.4810525530649
 51
38.51894403184155
  0
ARC
  5
20DC
330
105C
100
AcDbEntity
  8
0
100
AcDbCircle
 10
-69.2823486328125
 20
186.7681274414061
 30
0.0
 40
2.317658007144927
100
AcDbArc
 50
141.4810575620204
 51
218.5189387955113
  0
ARC
  5
20DD
330
105C
100
AcDbEntity
  8
0
100
AcDbCircle
 10
-63.08583068847656
 20
191.098388671875
 30
0.0
 40
8.514156103134155
100
AcDbArc
 50
160.1808041131953
 51
199.8191922443395
  0
ARC
  5
20DE
330
105C
100
AcDbEntity
  8
0
100
AcDbCircle
 10
-69.2823486328125
 20
195.428466796875
 30
0.0
 40
2.317658007144927
100
AcDbArc
 50
141.4810575620204
 51
218.5189387955113
  0
ARC
  5
20DF
330
105C
100
AcDbEntity
  8
0
100
AcDbCircle
 10
-69.2823486328125
 20
114.7681274414062
 30
0.0
 40
2.317658007144927
100
AcDbArc
 50
141.4810575620204
 51
218.5189387955113
  0
ARC
  5
20E0
330
105C
100
AcDbEntity
  8
0
100
AcDbCircle
 10
-63.08583068847656
 20
119.098388671875
 30
0.0
 40
8.514156103134155
100
AcDbArc
 50
160.1808041131953
 51
199.8191922443395
  0
ARC
  5
20E1
330
105C
100
AcDbEntity
  8
0
100
AcDbCircle
 10
-69.2823486328125
 20
123.428466796875
 30
0.0
 40
2.317658007144927
100
AcDbArc
 50
141.4810575620204
 51
218.5189387955113
  0
ARC
  5
20E2
330
105C
100
AcDbEntity
  8
0
100
AcDbCircle
 10
-77.20903015136719
 20
149.4691772460937
 30
0.0
 40
2.790960788726806
100
AcDbArc
 50
137.7544653697277
 51
222.2455309878086
  0
ARC
  5
20E3
330
105C
100
AcDbEntity
  8
0
100
AcDbCircle
 10
-69.92353820800781
 20
155.098388671875
 30
0.0
 40
10.07649993896484
100
AcDbArc
 50
158.1345204189944
 51
201.8654759385395
  0
ARC
  5
20E4
330
105C
100
AcDbEntity
  8
0
100
AcDbCircle
 10
-77.20903015136719
 20
160.7274169921875
 30
0.0
 40
2.790960788726806
100
AcDbArc
 50
137.7544653697277
 51
222.2455309878086
  0
ARC
  5
20E5
330
105C
100
AcDbEntity
  8
0
100
AcDbCircle
 10
-61.02351379394531
 20
155.098388671875
 30
0.0
 40
10.07651138305664
100
AcDbArc
 50
158.1345477397496
 51
201.8654486177837
  0
ARC
  5
20E6
330
105C
100
AcDbEntity
  8
0
100
AcDbCircle
 10
-68.30900573730469
 20
149.4691772460937
 30
0.0
 40
2.790962934494018
100
AcDbArc
 50
137.7545063508627
 51
222.2454900066725
  0
ARC
  5
20E7
330
105C
100
AcDbEntity
  8
0
100
AcDbCircle
 10
-68.30900573730469
 20
160.7274169921875
 30
0.0
 40
2.790962934494018
100
AcDbArc
 50
137.7545063508627
 51
222.2454900066725
  0
ARC
  5
20E8
330
105C
100
AcDbEntity
  8
0
100
AcDbCircle
 10
-68.89100646972656
 20
160.7274169921875
 30
0.0
 40
2.790962934494018
100
AcDbArc
 50
317.7545047569993
 51
42.24549524300075
  0
ARC
  5
20E9
330
105C
100
AcDbEntity
  8
0
100
AcDbCircle
 10
-68.89100646972656
 20
149.4691772460937
 30
0.0
 40
2.790962934494018
100
AcDbArc
 50
317.7545047569993
 51
42.24549524300075
  0
ARC
  5
20EA
330
105C
100
AcDbEntity
  8
0
100
AcDbCircle
 10
-76.17649841308594
 20
155.098388671875
 30
0.0
 40
10.07651138305664
100
AcDbArc
 50
338.1345546836254
 51
21.86544873146893
  0
ARC
  5
20EB
330
105C
100
AcDbEntity
  8
0
100
AcDbCircle
 10
97.20902252197266
 20
160.7274169921875
 30
0.0
 40
2.790960788726806
100
AcDbArc
 50
317.7544637758661
 51
42.24553622413391
  0
ARC
  5
20EC
330
105C
100
AcDbEntity
  8
0
100
AcDbCircle
 10
89.9234848022461
 20
155.098388671875
 30
0.0
 40
10.07649993896484
100
AcDbArc
 50
338.1345239477752
 51
21.86547263712932
  0
ARC
  5
20ED
330
105C
100
AcDbEntity
  8
0
100
AcDbCircle
 10
97.20902252197266
 20
149.4691772460937
 30
0.0
 40
2.790960788726806
100
AcDbArc
 50
317.7544637758661
 51
42.24553622413391
  0
ARC
  5
20EE
330
105C
100
AcDbEntity
  8
0
100
AcDbCircle
 10
79.42348480224609
 20
155.098388671875
 30
0.0
 40
10.07651138305664
100
AcDbArc
 50
338.1345512685311
 51
21.86544531637467
  0
ARC
  5
20EF
330
105C
100
AcDbEntity
  8
0
100
AcDbCircle
 10
86.70902252197265
 20
160.7274169921875
 30
0.0
 40
2.790962934494018
100
AcDbArc
 50
317.7545047569993
 51
42.24549524300075
  0
ARC
  5
20F0
330
105C
100
AcDbEntity
  8
0
100
AcDbCircle
 10
87.29093170166015
 20
149.4691772460937
 30
0.0
 40
2.790962934494018
100
AcDbArc
 50
137.7545063508627
 51
222.2454900066725
  0
ARC
  5
20F1
330
105C
100
AcDbEntity
  8
0
100
AcDbCircle
 10
86.70902252197265
 20
149.4691772460937
 30
0.0
 40
2.790962934494018
100
AcDbArc
 50
317.7545047569993
 51
42.24549524300075
  0
ARC
  5
20F2
330
105C
100
AcDbEntity
  8
0
100
AcDbCircle
 10
87.29093170166015
 20
160.7274169921875
 30
0.0
 40
2.790962934494018
100
AcDbArc
 50
137.7545063508627
 51
222.2454900066725
  0
ARC
  5
20F3
330
105C
100
AcDbEntity
  8
0
100
AcDbCircle
 10
94.57649230957031
 20
155.098388671875
 30
0.0
 40
10.07651138305664
100
AcDbArc
 50
158.1345477397496
 51
201.8654486177837
  0
ARC
  5
20F4
330
105C
100
AcDbEntity
  8
0
100
AcDbCircle
 10
33.99996185302735
 20
107.5984497070312
 30
0.0
 40
1.000000029802321
100
AcDbArc
 50
0.0
 51
90.00000250447845
  0
ARC
  5
20F5
330
105C
100
AcDbEntity
  8
0
100
AcDbCircle
 10
15.99996185302734
 20
66.09832763671875
 30
0.0
 40
4.000000119209288
100
AcDbArc
 50
120.0000033393032
 51
180.0000050089569
  0
ARC
  5
20F6
330
105C
100
AcDbEntity
  8
0
100
AcDbCircle
 10
33.99996185302735
 20
82.26416015625
 30
0.0
 40
4.000000119209288
100
AcDbArc
 50
299.9999983303486
 51
0.0
  0
ARC
  5
20F7
330
105C
100
AcDbEntity
  8
0
100
AcDbCircle
 10
33.99996185302735
 20
82.26416015625
 30
0.0
 40
1.000000029802321
100
AcDbArc
 50
299.9999983303486
 51
0.0
  0
ARC
  5
20F8
330
105C
100
AcDbEntity
  8
0
100
AcDbCircle
 10
33.99996185302735
 20
107.5984497070312
 30
0.0
 40
4.000000119209288
100
AcDbArc
 50
0.0
 51
90.00000250447845
  0
ARC
  5
20F9
330
105C
100
AcDbEntity
  8
0
100
AcDbCircle
 10
-3.350006103515625
 20
228.9270751953125
 30
0.0
 40
1.899999976158142
100
AcDbArc
 50
106.0728583008641
 51
180.0000050089569
  0
ARC
  5
20FA
330
105C
100
AcDbEntity
  8
0
100
AcDbCircle
 10
3.350006103515625
 20
228.9270751953125
 30
0.0
 40
1.899999976158142
100
AcDbArc
 50
0.0
 51
73.92713987790152
  0
ARC
  5
20FB
330
105C
100
AcDbEntity
  8
0
100
AcDbCircle
 10
0.0
 20
217.3000610351563
 30
0.0
 40
13.99999952316284
100
AcDbArc
 50
73.92713987790152
 51
106.0728583008641
  0
ARC
  5
20FC
330
105C
100
AcDbEntity
  8
0
100
AcDbCircle
 10
92.35190677642822
 20
326.7499084472656
 30
0.0
 40
7.647994279861449
100
AcDbArc
 50
334.8526282968681
 51
25.14737511822657
  0
ARC
  5
20FD
330
105C
100
AcDbEntity
  8
0
100
AcDbCircle
 10
92.35190677642822
 20
333.2497863769531
 30
0.0
 40
7.647994279861449
100
AcDbArc
 50
334.8526282968681
 51
25.14737511822657
  0
ARC
  5
20FE
330
105C
100
AcDbEntity
  8
0
100
AcDbCircle
 10
-72.352066040039
 20
333.2497863769531
 30
0.0
 40
7.647994279861449
100
AcDbArc
 50
154.8526281831827
 51
205.1473681743515
  0
ARC
  5
20FF
330
105C
100
AcDbEntity
  8
0
100
AcDbCircle
 10
83.45191383361822
 20
333.2497863769531
 30
0.0
 40
7.647994995117185
100
AcDbArc
 50
340.5230803741168
 51
25.14736828803961
  0
ARC
  5
2100
330
105C
100
AcDbEntity
  8
0
100
AcDbCircle
 10
-72.352066040039
 20
326.7499084472656
 30
0.0
 40
7.647994279861449
100
AcDbArc
 50
154.8526281831827
 51
205.1473681743515
  0
ARC
  5
2101
330
105C
100
AcDbEntity
  8
0
100
AcDbCircle
 10
93.74790287017821
 20
333.2497863769531
 30
0.0
 40
7.647994995117185
100
AcDbArc
 50
154.8526281831827
 51
190.929359530109
  0
ARC
  5
2102
330
105C
100
AcDbEntity
  8
0
100
AcDbCircle
 10
-63.45211029052734
 20
333.2497863769531
 30
0.0
 40
7.647994995117185
100
AcDbArc
 50
154.8526281831827
 51
199.4769178046502
  0
ARC
  5
2103
330
105C
100
AcDbEntity
  8
0
100
AcDbCircle
 10
-73.748062133789
 20
333.2497863769531
 30
0.0
 40
7.647994995117185
100
AcDbArc
 50
349.0706420637518
 51
25.14736828803961
  0
ARC
  5
2104
330
105C
100
AcDbEntity
  8
0
100
AcDbCircle
 10
-65.15144348144531
 20
328.1997375488281
 30
0.0
 40
6.448659181594847
100
AcDbArc
 50
157.1899325775384
 51
202.8100637799971
  0
ARC
  5
2105
330
105C
100
AcDbEntity
  8
0
100
AcDbCircle
 10
-65.15144348144531
 20
323.1998596191406
 30
0.0
 40
6.448659181594847
100
AcDbArc
 50
157.1899325775384
 51
202.8100637799971
  0
ARC
  5
2106
330
105C
100
AcDbEntity
  8
0
100
AcDbCircle
 10
-65.15144348144531
 20
376.7997741699218
 30
0.0
 40
6.448659181594847
100
AcDbArc
 50
157.1899325775384
 51
202.8100637799971
  0
ARC
  5
2107
330
105C
100
AcDbEntity
  8
0
100
AcDbCircle
 10
-65.15144348144531
 20
371.7998962402344
 30
0.0
 40
6.448659181594847
100
AcDbArc
 50
157.1899325775384
 51
202.8100637799971
  0
ARC
  5
2108
330
105C
100
AcDbEntity
  8
0
100
AcDbCircle
 10
85.15125274658203
 20
323.1998596191406
 30
0.0
 40
6.448659181594847
100
AcDbArc
 50
337.1899361063181
 51
22.81006047858827
  0
ARC
  5
2109
330
105C
100
AcDbEntity
  8
0
100
AcDbCircle
 10
85.15125274658203
 20
328.1997375488281
 30
0.0
 40
6.448659181594847
100
AcDbArc
 50
337.1899361063181
 51
22.81006047858827
  0
ARC
  5
210A
330
105C
100
AcDbEntity
  8
0
100
AcDbCircle
 10
85.15125274658203
 20
371.7998962402344
 30
0.0
 40
6.448659181594847
100
AcDbArc
 50
337.1899361063181
 51
22.81006047858827
  0
ARC
  5
210B
330
105C
100
AcDbEntity
  8
0
100
AcDbCircle
 10
85.15125274658203
 20
376.7997741699218
 30
0.0
 40
6.448659181594847
100
AcDbArc
 50
337.1899361063181
 51
22.81006047858827
  0
CIRCLE
  5
210C
330
105C
100
AcDbEntity
  8
0
100
AcDbCircle
 10
-23.79428100585938
 20
326.2057189941406
 30
0.0
 40
3.49999988079071
  0
CIRCLE
  5
210D
330
105C
100
AcDbEntity
  8
0
100
AcDbCircle
 10
-23.79428100585938
 20
326.2057189941406
 30
0.0
 40
4.000000119209288
  0
CIRCLE
  5
210E
330
105C
100
AcDbEntity
  8
0
100
AcDbCircle
 10
23.79398345947266
 20
326.2057189941406
 30
0.0
 40
3.49999988079071
  0
CIRCLE
  5
210F
330
105C
100
AcDbEntity
  8
0
100
AcDbCircle
 10
-23.79428100585938
 20
373.7940979003905
 30
0.0
 40
3.49999988079071
  0
CIRCLE
  5
2110
330
105C
100
AcDbEntity
  8
0
100
AcDbCircle
 10
-23.79428100585938
 20
373.7940979003905
 30
0.0
 40
4.000000119209288
  0
CIRCLE
  5
2111
330
105C
100
AcDbEntity
  8
0
100
AcDbCircle
 10
23.79398345947266
 20
373.7940979003905
 30
0.0
 40
3.49999988079071
  0
CIRCLE
  5
2112
330
105C
100
AcDbEntity
  8
0
100
AcDbCircle
 10
23.79398345947266
 20
326.2057189941406
 30
0.0
 40
4.000000119209288
  0
CIRCLE
  5
2113
330
105C
100
AcDbEntity
  8
0
100
AcDbCircle
 10
23.79398345947266
 20
373.7940979003905
 30
0.0
 40
4.000000119209288
  0
POINT
  5
2114
330
105C
100
AcDbEntity
  8
0
100
AcDbPoint
 10
-243.0
 20
200.8000610351563
 30
0.0
  0
POINT
  5
2115
330
105C
100
AcDbEntity
  8
0
100
AcDbPoint
 10
-243.0
 20
198.6000366210936
 30
0.0
  0
LINE
  5
2116
330
105C
100
AcDbEntity
  8
0
100
AcDbLine
 10
-224.9999885559082
 20
225.8
 30
0.0
 11
-224.9999885559082
 21
200.8000610351563
 31
0.0
  0
LINE
  5
2117
330
105C
100
AcDbEntity
  8
0
100
AcDbLine
 10
-245.4999961853027
 20
225.8
 30
0.0
 11
-245.4999961853027
 21
200.8000610351563
 31
0.0
  0
LINE
  5
2118
330
105C
100
AcDbEntity
  8
0
100
AcDbLine
 10
-240.4999809265137
 20
225.8
 30
0.0
 11
-240.4999809265137
 21
200.8000610351563
 31
0.0
  0
LINE
  5
2119
330
105C
100
AcDbEntity
  8
0
100
AcDbLine
 10
-261.0000114440918
 20
200.8000610351563
 30
0.0
 11
-224.9999885559082
 21
200.8000610351563
 31
0.0
  0
LINE
  5
211A
330
105C
100
AcDbEntity
  8
0
100
AcDbLine
 10
-236.7499809265137
 20
227.4000213623047
 30
0.0
 11
-236.7499809265137
 21
225.8
 31
0.0
  0
LINE
  5
211B
330
105C
100
AcDbEntity
  8
0
100
AcDbLine
 10
-248.2500114440918
 20
228.9270751953125
 30
0.0
 11
-248.2500114440918
 21
227.4000213623047
 31
0.0
  0
LINE
  5
211C
330
105C
100
AcDbEntity
  8
0
100
AcDbLine
 10
-261.0000114440918
 20
225.8
 30
0.0
 11
-261.0000114440918
 21
200.8000610351563
 31
0.0
  0
LINE
  5
211D
330
105C
100
AcDbEntity
  8
0
100
AcDbLine
 10
-261.0000114440918
 20
225.8
 30
0.0
 11
-224.9999885559082
 21
225.8
 31
0.0
  0
LINE
  5
211E
330
105C
100
AcDbEntity
  8
0
100
AcDbLine
 10
-237.7500114440918
 20
228.9270751953125
 30
0.0
 11
-237.7500114440918
 21
227.4000213623047
 31
0.0
  0
LINE
  5
211F
330
105C
100
AcDbEntity
  8
0
100
AcDbLine
 10
-249.2499961853027
 20
227.4000213623047
 30
0.0
 11
-236.7499809265137
 21
227.4000213623047
 31
0.0
  0
LINE
  5
2120
330
105C
100
AcDbEntity
  8
0
100
AcDbLine
 10
-249.2499961853027
 20
227.4000213623047
 30
0.0
 11
-249.2499961853027
 21
225.8
 31
0.0
  0
LINE
  5
2121
330
105C
100
AcDbEntity
  8
0
100
AcDbLine
 10
-231.4982652664185
 20
200.8000610351563
 30
0.0
 11
-231.4982652664185
 21
200.1000366210937
 31
0.0
  0
LINE
  5
2122
330
105C
100
AcDbEntity
  8
0
100
AcDbLine
 10
-229.1982164382935
 20
200.1000366210937
 30
0.0
 11
-229.1982164382935
 21
198.6000366210936
 31
0.0
  0
LINE
  5
2123
330
105C
100
AcDbEntity
  8
0
100
AcDbLine
 10
-256.7981920242309
 20
200.1000366210937
 30
0.0
 11
-256.7981920242309
 21
198.6000366210936
 31
0.0
  0
LINE
  5
2124
330
105C
100
AcDbEntity
  8
0
100
AcDbLine
 10
-256.7981920242309
 20
200.1000366210937
 30
0.0
 11
-229.1982164382935
 21
200.1000366210937
 31
0.0
  0
LINE
  5
2125
330
105C
100
AcDbEntity
  8
0
100
AcDbLine
 10
-254.4982652664184
 20
200.8000610351563
 30
0.0
 11
-254.4982652664184
 21
200.1000366210937
 31
0.0
  0
ARC
  5
2126
330
105C
100
AcDbEntity
  8
0
100
AcDbCircle
 10
-239.6500053405762
 20
228.9270751953125
 30
0.0
 40
1.899999976158142
100
AcDbArc
 50
0.0
 51
73.92713987790152
  0
ARC
  5
2127
330
105C
100
AcDbEntity
  8
0
100
AcDbCircle
 10
-246.3500175476074
 20
228.9270751953125
 30
0.0
 40
1.899999976158142
100
AcDbArc
 50
106.0728583008641
 51
180.0000050089569
  0
ARC
  5
2128
330
105C
100
AcDbEntity
  8
0
100
AcDbCircle
 10
-243.0000114440918
 20
217.3000610351563
 30
0.0
 40
14.0
100
AcDbArc
 50
73.92713987790152
 51
106.0728583008641
  0
LINE
  5
2129
330
105C
100
AcDbEntity
  8
0
100
AcDbLine
 10
48.95856473193589
 20
-58.97361727250689
 30
0.0
 11
46.46258140636223
 21
-52.11595969171959
 31
0.0
  0
LINE
  5
212A
330
105C
100
AcDbEntity
  8
0
100
AcDbLine
 10
52.0
 20
-59.49999999999997
 30
0.0
 11
49.71017456054688
 21
-59.49999999999997
 31
0.0
  0
ARC
  5
212B
330
105C
100
AcDbEntity
  8
0
100
AcDbCircle
 10
49.71017456054688
 20
-58.70001220703122
 30
0.0
 40
0.8000000417232513
100
AcDbArc
 50
200.0000046545121
 51
269.9999974955215
  0
LINE
  5
212C
330
105C
100
AcDbEntity
  8
0
100
AcDbLine
 10
22.40036918679539
 20
50.80000000000001
 30
0.0
 11
44.58319617266278
 21
50.80000000000001
 31
0.0
  0
ARC
  5
212D
330
105C
100
AcDbEntity
  8
0
100
AcDbCircle
 10
44.58319617266278
 20
52.80000000000001
 30
0.0
 40
2.0
100
AcDbArc
 50
270.0
 51
339.9999993406062
  0
LINE
  5
212E
330
105C
100
AcDbEntity
  8
0
100
AcDbLine
 10
22.40036918679539
 20
-50.80000000000001
 30
0.0
 11
44.58319617266278
 21
-50.80000000000001
 31
0.0
  0
ARC
  5
212F
330
105C
100
AcDbEntity
  8
0
100
AcDbCircle
 10
44.58319617266278
 20
-52.80000000000001
 30
0.0
 40
2.0
100
AcDbArc
 50
20.00000065939382
 51
90.0
  0
LINE
  5
2130
330
105C
100
AcDbEntity
  8
0
100
AcDbLine
 10
15.24008663548341
 20
-54.13889454428891
 30
0.0
 11
22.40036918679539
 21
-50.80000000000001
 31
0.0
  0
LINE
  5
2131
330
105C
100
AcDbEntity
  8
0
100
AcDbLine
 10
49.25131339983011
 20
59.35533388524953
 30
0.0
 11
49.25131339983011
 21
-59.35533388524952
 31
0.0
  0
LINE
  5
2132
330
105C
100
AcDbEntity
  8
0
100
AcDbLine
 10
45.73034903593759
 20
-51.16169590482098
 30
0.0
 11
45.73034903593759
 21
51.16169590482098
 31
0.0
  0
LINE
  5
2133
330
105C
100
AcDbEntity
  8
0
100
AcDbLine
 10
22.40036918679539
 20
50.80000000000001
 30
0.0
 11
22.40036918679539
 21
-50.80000000000001
 31
0.0
  0
LINE
  5
2134
330
105C
100
AcDbEntity
  8
0
100
AcDbLine
 10
6.0750732421875
 20
-68.99989700317383
 30
0.0
 11
-6.0750732421875
 21
-68.99989700317383
 31
0.0
  0
LINE
  5
2135
330
105C
100
AcDbEntity
  8
0
100
AcDbLine
 10
12.0
 20
68.9000244140625
 30
0.0
 11
-12.0
 21
68.9000244140625
 31
0.0
  0
LINE
  5
2136
330
105C
100
AcDbEntity
  8
0
100
AcDbLine
 10
-52.0
 20
59.49999999999997
 30
0.0
 11
-52.0
 21
-59.49999999999997
 31
0.0
  0
LINE
  5
2137
330
105C
100
AcDbEntity
  8
0
100
AcDbLine
 10
-14.9999771118164
 20
54.25085945249728
 30
0.0
 11
-22.40036918679539
 21
50.80000000000001
 31
0.0
  0
LINE
  5
2138
330
105C
100
AcDbEntity
  8
0
100
AcDbLine
 10
-6.66339111328125
 20
-68.89992141723633
 30
0.0
 11
-12.0
 21
-68.89992141723633
 31
0.0
  0
LINE
  5
2139
330
105C
100
AcDbEntity
  8
0
100
AcDbLine
 10
-48.95856473193589
 20
58.97361727250689
 30
0.0
 11
-46.46258140636223
 21
52.11595969171961
 31
0.0
  0
LINE
  5
213A
330
105C
100
AcDbEntity
  8
0
100
AcDbLine
 10
-52.0
 20
59.49999999999997
 30
0.0
 11
-49.71017456054688
 21
59.49999999999997
 31
0.0
  0
LINE
  5
213B
330
105C
100
AcDbEntity
  8
0
100
AcDbLine
 10
-22.40036918679539
 20
50.80000000000001
 30
0.0
 11
-44.58319617266278
 21
50.80000000000001
 31
0.0
  0
ARC
  5
213C
330
105C
100
AcDbEntity
  8
0
100
AcDbCircle
 10
-44.58319617266278
 20
52.80000000000001
 30
0.0
 40
2.0
100
AcDbArc
 50
200.0000006593938
 51
270.0
  0
LINE
  5
213D
330
105C
100
AcDbEntity
  8
0
100
AcDbLine
 10
-7.5
 20
68.9000244140625
 30
0.0
 11
-7.5
 21
70.7984619140625
 31
0.0
  0
LINE
  5
213E
330
105C
100
AcDbEntity
  8
0
100
AcDbLine
 10
-15.99996185302734
 20
85.09844970703126
 30
0.0
 11
-15.99996185302734
 21
75.6851799764018
 31
0.0
  0
LINE
  5
213F
330
105C
100
AcDbEntity
  8
0
100
AcDbLine
 10
-10.99980815968939
 20
72.79833984375
 30
0.0
 11
10.99980815968939
 21
72.79833984375
 31
0.0
  0
LINE
  5
2140
330
105C
100
AcDbEntity
  8
0
100
AcDbLine
 10
-11.53604005517189
 20
70.7984619140625
 30
0.0
 11
-17.9999771118164
 21
74.5304177807231
 31
0.0
  0
LINE
  5
2141
330
105C
100
AcDbEntity
  8
0
100
AcDbLine
 10
-11.53604005517189
 20
70.7984619140625
 30
0.0
 11
11.53604005517189
 21
70.7984619140625
 31
0.0
  0
LINE
  5
2142
330
105C
100
AcDbEntity
  8
0
100
AcDbLine
 10
-17.9999771118164
 20
85.09844970703126
 30
0.0
 11
-17.9999771118164
 21
74.5304177807231
 31
0.0
  0
LINE
  5
2143
330
105C
100
AcDbEntity
  8
0
100
AcDbLine
 10
-10.99980815968939
 20
72.79833984375
 30
0.0
 11
-15.99996185302734
 21
75.6851799764018
 31
0.0
  0
LINE
  5
2144
330
105C
100
AcDbEntity
  8
0
100
AcDbLine
 10
-15.99996185302734
 20
85.09844970703126
 30
0.0
 11
-17.9999771118164
 21
85.09844970703126
 31
0.0
  0
LINE
  5
2145
330
105C
100
AcDbEntity
  8
0
100
AcDbLine
 10
-9.233139038085937
 20
73.7984619140625
 30
0.0
 11
-9.233139038085937
 21
72.79833984375
 31
0.0
  0
LINE
  5
2146
330
105C
100
AcDbEntity
  8
0
100
AcDbLine
 10
-13.7999038696289
 20
110.098388671875
 30
0.0
 11
-13.7999038696289
 21
111.598388671875
 31
0.0
  0
LINE
  5
2147
330
105C
100
AcDbEntity
  8
0
100
AcDbLine
 10
-13.7999038696289
 20
110.098388671875
 30
0.0
 11
13.7999038696289
 21
110.098388671875
 31
0.0
  0
LINE
  5
2148
330
105C
100
AcDbEntity
  8
0
100
AcDbLine
 10
-11.49998474121094
 20
108.79833984375
 30
0.0
 11
-11.49998474121094
 21
110.098388671875
 31
0.0
  0
LINE
  5
2149
330
105C
100
AcDbEntity
  8
0
100
AcDbLine
 10
-14.9999771118164
 20
87.29844298048822
 30
0.0
 11
-14.9999771118164
 21
108.79833984375
 31
0.0
  0
LINE
  5
214A
330
105C
100
AcDbEntity
  8
0
100
AcDbLine
 10
-11.49998474121094
 20
73.7984619140625
 30
0.0
 11
-11.49998474121094
 21
83.79845060988277
 31
0.0
  0
LINE
  5
214B
330
105C
100
AcDbEntity
  8
0
100
AcDbLine
 10
-14.9999771118164
 20
108.79833984375
 30
0.0
 11
14.9999771118164
 21
108.79833984375
 31
0.0
  0
LINE
  5
214C
330
105C
100
AcDbEntity
  8
0
100
AcDbLine
 10
-14.9999771118164
 20
87.29844298048822
 30
0.0
 11
-11.49998474121094
 21
83.79845060988277
 31
0.0
  0
LINE
  5
214D
330
105C
100
AcDbEntity
  8
0
100
AcDbLine
 10
11.49998474121094
 20
73.7984619140625
 30
0.0
 11
-11.49998474121094
 21
73.7984619140625
 31
0.0
  0
LINE
  5
214E
330
105C
100
AcDbEntity
  8
0
100
AcDbLine
 10
-14.9999771118164
 20
66.67571954086628
 30
0.0
 11
-14.9999771118164
 21
52.29156494140625
 31
0.0
  0
LINE
  5
214F
330
105C
100
AcDbEntity
  8
0
100
AcDbLine
 10
-34.99996948242188
 20
82.26416015625
 30
0.0
 11
-34.99996948242188
 21
107.5984497070312
 31
0.0
  0
LINE
  5
2150
330
105C
100
AcDbEntity
  8
0
100
AcDbLine
 10
-15.49994659423828
 20
108.598388671875
 30
0.0
 11
-33.99996185302735
 21
108.598388671875
 31
0.0
  0
LINE
  5
2151
330
105C
100
AcDbEntity
  8
0
100
AcDbLine
 10
-37.99996948242188
 20
82.26416015625
 30
0.0
 11
-37.99996948242188
 21
107.5984497070312
 31
0.0
  0
LINE
  5
2152
330
105C
100
AcDbEntity
  8
0
100
AcDbLine
 10
-13.99994743512116
 20
69.56245375814728
 30
0.0
 11
-34.49998920549359
 21
81.39815860510038
 31
0.0
  0
LINE
  5
2153
330
105C
100
AcDbEntity
  8
0
100
AcDbLine
 10
-14.9999771118164
 20
66.67571954086628
 30
0.0
 11
-35.99998922568534
 21
78.8000824054048
 31
0.0
  0
LINE
  5
2154
330
105C
100
AcDbEntity
  8
0
100
AcDbLine
 10
-12.0
 20
68.9000244140625
 30
0.0
 11
-12.0
 21
-68.89992141723633
 31
0.0
  0
LINE
  5
2155
330
105C
100
AcDbEntity
  8
0
100
AcDbLine
 10
-15.49994659423828
 20
108.598388671875
 30
0.0
 11
-15.49994659423828
 21
111.598388671875
 31
0.0
  0
LINE
  5
2156
330
105C
100
AcDbEntity
  8
0
100
AcDbLine
 10
-17.30005645751953
 20
100.0984268188476
 30
0.0
 11
-17.30005645751953
 21
108.5984115600586
 31
0.0
  0
LINE
  5
2157
330
105C
100
AcDbEntity
  8
0
100
AcDbLine
 10
-17.30005645751953
 20
107.5984268188476
 30
0.0
 11
-30.30010986328125
 21
107.5984268188476
 31
0.0
  0
LINE
  5
2158
330
105C
100
AcDbEntity
  8
0
100
AcDbLine
 10
-18.16606327519537
 20
99.59845495114349
 30
0.0
 11
-17.30009073329239
 21
100.0984244402955
 31
0.0
  0
LINE
  5
2159
330
105C
100
AcDbEntity
  8
0
100
AcDbLine
 10
-18.16605377197265
 20
99.59845733642579
 30
0.0
 11
-29.43402099609375
 21
99.59845733642579
 31
0.0
  0
LINE
  5
215A
330
105C
100
AcDbEntity
  8
0
100
AcDbLine
 10
-29.43400680728183
 20
99.59848610407773
 30
0.0
 11
-30.3000388144298
 21
100.0984899255056
 31
0.0
  0
LINE
  5
215B
330
105C
100
AcDbEntity
  8
0
100
AcDbLine
 10
-30.30010986328125
 20
100.0984268188476
 30
0.0
 11
-30.30010986328125
 21
108.5984115600586
 31
0.0
  0
ARC
  5
215C
330
105C
100
AcDbEntity
  8
0
100
AcDbCircle
 10
-6.17669677734375
 20
-68.2064094543457
 30
0.0
 40
0.8000000417232513
100
AcDbArc
 50
248.2606510179197
 51
277.2985923873934
  0
ARC
  5
215D
330
105C
100
AcDbEntity
  8
0
100
AcDbCircle
 10
-6.768310546875
 20
-69.69295120239258
 30
0.0
 40
0.8000000417232513
100
AcDbArc
 50
68.2606460089627
 51
82.46761706750634
  0
ARC
  5
215E
330
105C
100
AcDbEntity
  8
0
100
AcDbCircle
 10
-49.71017456054688
 20
58.70001220703122
 30
0.0
 40
0.8000000417232513
100
AcDbArc
 50
20.00000465451203
 51
89.99999749552477
  0
ARC
  5
215F
330
105C
100
AcDbEntity
  8
0
100
AcDbCircle
 10
-33.99996185302735
 20
107.5984497070312
 30
0.0
 40
1.000000029802321
100
AcDbArc
 50
89.99999749552477
 51
180.0
  0
ARC
  5
2160
330
105C
100
AcDbEntity
  8
0
100
AcDbCircle
 10
-15.99996185302734
 20
66.09832763671875
 30
0.0
 40
4.000000119209288
100
AcDbArc
 50
359.9999949910431
 51
59.99999666069722
  0
ARC
  5
2161
330
105C
100
AcDbEntity
  8
0
100
AcDbCircle
 10
-33.99996185302735
 20
82.26416015625
 30
0.0
 40
4.000000119209288
100
AcDbArc
 50
180.0
 51
240.0000016696514
  0
ARC
  5
2162
330
105C
100
AcDbEntity
  8
0
100
AcDbCircle
 10
-33.99996185302735
 20
82.26416015625
 30
0.0
 40
1.000000029802321
100
AcDbArc
 50
180.0
 51
240.0000016696514
  0
ARC
  5
2163
330
105C
100
AcDbEntity
  8
0
100
AcDbCircle
 10
-33.99996185302735
 20
107.5984497070312
 30
0.0
 40
4.000000119209288
100
AcDbArc
 50
89.99999749552477
 51
180.0
  0
LINE
  5
2164
330
105C
100
AcDbEntity
  8
0
100
AcDbLine
 10
-48.95856473193589
 20
-58.97361727250689
 30
0.0
 11
-46.46258140636223
 21
-52.11595969171959
 31
0.0
  0
LINE
  5
2165
330
105C
100
AcDbEntity
  8
0
100
AcDbLine
 10
-52.0
 20
-59.49999999999997
 30
0.0
 11
-49.71017456054688
 21
-59.49999999999997
 31
0.0
  0
ARC
  5
2166
330
105C
100
AcDbEntity
  8
0
100
AcDbCircle
 10
-49.71017456054688
 20
-58.70001220703122
 30
0.0
 40
0.8000000417232513
100
AcDbArc
 50
270.0000025044817
 51
339.999995345488
  0
LINE
  5
2167
330
105C
100
AcDbEntity
  8
0
100
AcDbLine
 10
-22.40036918679539
 20
-50.80000000000001
 30
0.0
 11
-44.58319617266278
 21
-50.80000000000001
 31
0.0
  0
ARC
  5
2168
330
105C
100
AcDbEntity
  8
0
100
AcDbCircle
 10
-44.58319617266278
 20
-52.80000000000001
 30
0.0
 40
2.0
100
AcDbArc
 50
90.0
 51
159.9999993406061
  0
LINE
  5
2169
330
105C
100
AcDbEntity
  8
0
100
AcDbLine
 10
-14.21209363693686
 20
-54.61825554573226
 30
0.0
 11
-22.40036918679539
 21
-50.80000000000001
 31
0.0
  0
ARC
  5
216A
330
105C
100
AcDbEntity
  8
0
100
AcDbCircle
 10
-15.05733015128129
 20
-56.43087112406622
 30
0.0
 40
2.0
100
AcDbArc
 50
57.66578934129876
 51
65.00000028881633
  0
LINE
  5
216B
330
105C
100
AcDbEntity
  8
0
100
AcDbLine
 10
-49.25131339983011
 20
59.35533388524953
 30
0.0
 11
-49.25131339983011
 21
-59.35533388524952
 31
0.0
  0
LINE
  5
216C
330
105C
100
AcDbEntity
  8
0
100
AcDbLine
 10
-45.73034903593759
 20
-51.16169590482098
 30
0.0
 11
-45.73034903593759
 21
51.16169590482098
 31
0.0
  0
LINE
  5
216D
330
105C
100
AcDbEntity
  8
0
100
AcDbLine
 10
-22.40036918679539
 20
50.80000000000001
 30
0.0
 11
-22.40036918679539
 21
-50.80000000000001
 31
0.0
  0
ARC
  5
216E
330
105C
100
AcDbEntity
  8
0
100
AcDbCircle
 10
-243.0
 20
0.0
 30
0.0
 40
69.0
100
AcDbArc
 50
116.6971872670629
 51
63.30281273293713
  0
LINE
  5
216F
330
105C
100
AcDbEntity
  8
0
100
AcDbLine
 10
-262.9999100559516
 20
56.85447505485808
 30
0.0
 11
-260.4999911540839
 21
58.29780393170882
 31
0.0
  0
LINE
  5
2170
330
105C
100
AcDbEntity
  8
0
100
AcDbLine
 10
-263.0000722716544
 20
62.62787205375139
 30
0.0
 11
-260.5000740827932
 21
61.18449740053285
 31
0.0
  0
LINE
  5
2171
330
105C
100
AcDbEntity
  8
0
100
AcDbLine
 10
-265.5
 20
58.2978515625
 30
0.0
 11
-265.5
 21
61.18450927734375
 31
0.0
  0
LINE
  5
2172
330
105C
100
AcDbEntity
  8
0
100
AcDbLine
 10
-263.0000217053153
 20
62.62798378919706
 30
0.0
 11
-265.499940607183
 21
61.18465491234633
 31
0.0
  0
LINE
  5
2173
330
105C
100
AcDbEntity
  8
0
100
AcDbLine
 10
-263.0000130812891
 20
56.85447611703136
 30
0.0
 11
-265.5000112701503
 21
58.29785077024997
 31
0.0
  0
LINE
  5
2174
330
105C
100
AcDbEntity
  8
0
100
AcDbLine
 10
-260.4999389648437
 20
58.2978515625
 30
0.0
 11
-260.4999389648437
 21
61.18450927734375
 31
0.0
  0
LINE
  5
2175
330
105C
100
AcDbEntity
  8
0
100
AcDbLine
 10
-303.4918212890625
 20
23.1727294921875
 30
0.0
 11
-303.4918212890625
 21
26.0595703125
 31
0.0
  0
LINE
  5
2176
330
105C
100
AcDbEntity
  8
0
100
AcDbLine
 10
-300.9918334487853
 20
27.50289917022616
 30
0.0
 11
-303.4917523506531
 21
26.05957029337537
 31
0.0
  0
LINE
  5
2177
330
105C
100
AcDbEntity
  8
0
100
AcDbLine
 10
-300.9918827373779
 20
21.72930878616458
 30
0.0
 11
-303.4918611044908
 21
23.17267199529121
 31
0.0
  0
LINE
  5
2178
330
105C
100
AcDbEntity
  8
0
100
AcDbLine
 10
-300.9917675757894
 20
21.72946972288054
 30
0.0
 11
-298.4918486739217
 21
23.1727985997313
 31
0.0
  0
LINE
  5
2179
330
105C
100
AcDbEntity
  8
0
100
AcDbLine
 10
-298.4917602539062
 20
23.1727294921875
 30
0.0
 11
-298.4917602539062
 21
26.0595703125
 31
0.0
  0
LINE
  5
217A
330
105C
100
AcDbEntity
  8
0
100
AcDbLine
 10
-303.4918212890625
 20
-26.05937576293945
 30
0.0
 11
-303.4918212890625
 21
-23.17254638671875
 31
0.0
  0
LINE
  5
217B
330
105C
100
AcDbEntity
  8
0
100
AcDbLine
 10
-300.9918305532592
 20
27.50285185277946
 30
0.0
 11
-298.4918521861465
 21
26.05948864365283
 31
0.0
  0
LINE
  5
217C
330
105C
100
AcDbEntity
  8
0
100
AcDbLine
 10
-300.9917427600407
 20
-21.72919083831491
 30
0.0
 11
-303.4918202358952
 21
-23.17261126790129
 31
0.0
  0
LINE
  5
217D
330
105C
100
AcDbEntity
  8
0
100
AcDbLine
 10
-300.9918054474168
 20
-27.50267338019455
 30
0.0
 11
-303.4918036362777
 21
-26.05929872697596
 31
0.0
  0
LINE
  5
217E
330
105C
100
AcDbEntity
  8
0
100
AcDbLine
 10
-300.9918354610314
 20
-27.50271183839618
 30
0.0
 11
-298.4917579851769
 21
-26.0592914088098
 31
0.0
  0
LINE
  5
217F
330
105C
100
AcDbEntity
  8
0
100
AcDbLine
 10
-298.4917602539062
 20
-26.05937576293945
 30
0.0
 11
-298.4917602539062
 21
-23.17254638671875
 31
0.0
  0
LINE
  5
2180
330
105C
100
AcDbEntity
  8
0
100
AcDbLine
 10
-300.991864637782
 20
-21.72927744347453
 30
0.0
 11
-298.4918664489208
 21
-23.17265209669313
 31
0.0
  0
LINE
  5
2181
330
105C
100
AcDbEntity
  8
0
100
AcDbLine
 10
-265.5
 20
-61.18440628051757
 30
0.0
 11
-265.5
 21
-58.29756546020508
 31
0.0
  0
LINE
  5
2182
330
105C
100
AcDbEntity
  8
0
100
AcDbLine
 10
-263.0000043001841
 20
-56.85422248337879
 30
0.0
 11
-265.4999232020517
 21
-58.29755136022956
 31
0.0
  0
LINE
  5
2183
330
105C
100
AcDbEntity
  8
0
100
AcDbLine
 10
-263.0000394803144
 20
-62.6278372861589
 30
0.0
 11
-265.5000376691756
 21
-61.18446263294032
 31
0.0
  0
LINE
  5
2184
330
105C
100
AcDbEntity
  8
0
100
AcDbLine
 10
-262.9998926508203
 20
-62.62773121771783
 30
0.0
 11
-260.4999737489525
 21
-61.18440234086705
 31
0.0
  0
LINE
  5
2185
330
105C
100
AcDbEntity
  8
0
100
AcDbLine
 10
-260.4999389648437
 20
-61.18440628051757
 30
0.0
 11
-260.4999389648437
 21
-58.29756546020508
 31
0.0
  0
LINE
  5
2186
330
105C
100
AcDbEntity
  8
0
100
AcDbLine
 10
-263.0000071179443
 20
-56.85428277545208
 30
0.0
 11
-260.500008929083
 21
-58.29765742867064
 31
0.0
  0
LINE
  5
2187
330
105C
100
AcDbEntity
  8
0
100
AcDbLine
 10
-212.0000152587891
 20
79.95648193359375
 30
0.0
 11
-273.9999847412109
 21
79.95648193359375
 31
0.0
  0
LINE
  5
2188
330
105C
100
AcDbEntity
  8
0
100
AcDbLine
 10
-212.0000152587891
 20
66.67730712890625
 30
0.0
 11
-273.9999847412109
 21
66.67730712890625
 31
0.0
  0
LINE
  5
2189
330
105C
100
AcDbEntity
  8
0
100
AcDbLine
 10
-273.9999847412109
 20
111.6000366210937
 30
0.0
 11
-273.9999847412109
 21
59.7916259765625
 31
0.0
  0
LINE
  5
218A
330
105C
100
AcDbEntity
  8
0
100
AcDbLine
 10
-269.3383369839176
 20
53.47329514843806
 30
0.0
 11
-272.8283388064671
 21
56.96329697098747
 31
0.0
  0
ARC
  5
218B
330
105C
100
AcDbEntity
  8
0
100
AcDbCircle
 10
-263.0000610351562
 20
59.7410888671875
 30
0.0
 40
4.999999880790709
100
AcDbArc
 50
332.4352639538408
 51
244.5835298857858
  0
ARC
  5
218C
330
105C
100
AcDbEntity
  8
0
100
AcDbCircle
 10
-263.0000610351562
 20
59.7410888671875
 30
0.0
 40
4.5
100
AcDbArc
 50
326.1472005586315
 51
250.8716001111846
  0
ARC
  5
218D
330
105C
100
AcDbEntity
  8
0
100
AcDbCircle
 10
-300.9918823242188
 20
24.61614990234375
 30
0.0
 40
4.999999880790709
100
AcDbArc
 50
20.92589143802114
 51
293.0741232190212
  0
ARC
  5
218E
330
105C
100
AcDbEntity
  8
0
100
AcDbCircle
 10
-300.9918823242188
 20
24.61614990234375
 30
0.0
 40
4.5
100
AcDbArc
 50
14.63782804281156
 51
299.3622002746087
  0
ARC
  5
218F
330
105C
100
AcDbEntity
  8
0
100
AcDbCircle
 10
-300.9918823242188
 20
-24.6159553527832
 30
0.0
 40
4.999999880790709
100
AcDbArc
 50
66.92588361117152
 51
339.0741085619788
  0
ARC
  5
2190
330
105C
100
AcDbEntity
  8
0
100
AcDbCircle
 10
-300.9918823242188
 20
-24.6159553527832
 30
0.0
 40
4.5
100
AcDbArc
 50
60.63781338577226
 51
345.3621856175682
  0
ARC
  5
2191
330
105C
100
AcDbEntity
  8
0
100
AcDbCircle
 10
-263.0000610351562
 20
-59.74098587036133
 30
0.0
 40
4.999999880790709
100
AcDbArc
 50
115.4164805868677
 51
27.56471236786957
  0
ARC
  5
2192
330
105C
100
AcDbEntity
  8
0
100
AcDbCircle
 10
-263.0000610351562
 20
-59.74098587036133
 30
0.0
 40
4.5
100
AcDbArc
 50
109.1284171916582
 51
33.85278942345895
  0
ARC
  5
2193
330
105C
100
AcDbEntity
  8
0
100
AcDbCircle
 10
-270.0
 20
59.7916259765625
 30
0.0
 40
4.000000119209288
100
AcDbArc
 50
180.0
 51
225.0000012522427
  0
ARC
  5
2194
330
105C
100
AcDbEntity
  8
0
100
AcDbCircle
 10
-266.4999847412109
 20
56.291748046875
 30
0.0
 40
4.000000119209288
100
AcDbArc
 50
224.7979710867799
 51
226.4358367893664
  0
POINT
  5
2195
330
105C
100
AcDbEntity
  8
0
100
AcDbPoint
 10
-0.000091552734375
 20
349.9999084472656
 30
0.0
  0
LINE
  5
2196
330
105C
100
AcDbEntity
  8
0
100
AcDbLine
 10
-40.00001726120371
 20
352.4999709517171
 30
0.0
 11
0.000021575964297
 21
367.9999856175804
 31
0.0
  0
LINE
  5
2197
330
105C
100
AcDbEntity
  8
0
100
AcDbLine
 10
-40.00003051757807
 20
352.499984741211
 30
0.0
 11
-40.00003051757807
 21
347.4999694824219
 31
0.0
  0
LINE
  5
2198
330
105C
100
AcDbEntity
  8
0
100
AcDbLine
 10
-40.00003591312889
 20
347.4999984039509
 30
0.0
 11
-0.0000375366302023
 21
331.9999994165969
 31
0.0
  0
LINE
  5
2199
330
105C
100
AcDbEntity
  8
0
100
AcDbLine
 10
40.00002116405989
 20
347.4999756837277
 30
0.0
 11
0.0000010010469396
 21
331.9999682540995
 31
0.0
  0
LINE
  5
219A
330
105C
100
AcDbEntity
  8
0
100
AcDbLine
 10
39.99998474121094
 20
352.499984741211
 30
0.0
 11
39.99998474121094
 21
347.4999694824219
 31
0.0
  0
LINE
  5
219B
330
105C
100
AcDbEntity
  8
0
100
AcDbLine
 10
40.00002385402626
 20
352.4999854019577
 30
0.0
 11
-0.0000154277645379
 21
368.0000002401121
 31
0.0
  0
CIRCLE
  5
219C
330
105C
100
AcDbEntity
  8
0
100
AcDbCircle
 10
0.0
 20
350.0
 30
0.0
 40
6.25
  0
CIRCLE
  5
219D
330
105C
100
AcDbEntity
  8
0
100
AcDbCircle
 10
0.0
 20
350.0
 30
0.0
 40
5.25
  0
LINE
  5
219E
330
105C
100
AcDbEntity
  8
0
100
AcDbLine
 10
52.0
 20
310.7997741699219
 30
0.0
 11
52.0
 21
290.5
 31
0.0
  0
LINE
  5
219F
330
105C
100
AcDbEntity
  8
0
100
AcDbLine
 10
6.66339111328125
 20
281.1000785827637
 30
0.0
 11
12.0
 21
281.1000785827637
 31
0.0
  0
LINE
  5
21A0
330
105C
100
AcDbEntity
  8
0
100
AcDbLine
 10
12.0
 20
310.7997741699219
 30
0.0
 11
12.0
 21
281.1000785827637
 31
0.0
  0
ARC
  5
21A1
330
105C
100
AcDbEntity
  8
0
100
AcDbCircle
 10
6.17669677734375
 20
281.7935905456543
 30
0.0
 40
0.8000000417232513
100
AcDbArc
 50
262.7014076126066
 51
291.7393489820803
  0
ARC
  5
21A2
330
105C
100
AcDbEntity
  8
0
100
AcDbCircle
 10
6.768310546875
 20
280.3070487976074
 30
0.0
 40
0.8000000417232513
100
AcDbArc
 50
97.53238293249365
 51
111.7393539910373
  0
LINE
  5
21A3
330
105C
100
AcDbEntity
  8
0
100
AcDbLine
 10
48.95856473193589
 20
291.0263827274931
 30
0.0
 11
46.46258140636229
 21
297.8840403082804
 31
0.0
  0
LINE
  5
21A4
330
105C
100
AcDbEntity
  8
0
100
AcDbLine
 10
52.0
 20
290.5
 30
0.0
 11
49.71017456054688
 21
290.5
 31
0.0
  0
ARC
  5
21A5
330
105C
100
AcDbEntity
  8
0
100
AcDbCircle
 10
49.71017456054688
 20
291.2999877929688
 30
0.0
 40
0.8000000417232513
100
AcDbArc
 50
200.0000046545121
 51
269.9999974955215
  0
LINE
  5
21A6
330
105C
100
AcDbEntity
  8
0
100
AcDbLine
 10
22.40036918679539
 20
299.2
 30
0.0
 11
44.58319617266278
 21
299.2
 31
0.0
  0
ARC
  5
21A7
330
105C
100
AcDbEntity
  8
0
100
AcDbCircle
 10
44.58319617266278
 20
297.2
 30
0.0
 40
2.0
100
AcDbArc
 50
20.0000006593923
 51
90.0
  0
LINE
  5
21A8
330
105C
100
AcDbEntity
  8
0
100
AcDbLine
 10
15.59994506835937
 20
296.0289101966043
 30
0.0
 11
22.40036918679539
 21
299.2
 31
0.0
  0
LINE
  5
21A9
330
105C
100
AcDbEntity
  8
0
100
AcDbLine
 10
49.25131339983011
 20
310.7997741699219
 30
0.0
 11
49.25131339983011
 21
290.6446661147505
 31
0.0
  0
LINE
  5
21AA
330
105C
100
AcDbEntity
  8
0
100
AcDbLine
 10
45.73034903593759
 20
298.838304095179
 30
0.0
 11
45.73034903593759
 21
310.7997741699219
 31
0.0
  0
LINE
  5
21AB
330
105C
100
AcDbEntity
  8
0
100
AcDbLine
 10
22.40036918679539
 20
310.7997741699219
 30
0.0
 11
22.40036918679539
 21
299.2
 31
0.0
  0
LINE
  5
21AC
330
105C
100
AcDbEntity
  8
0
100
AcDbLine
 10
6.0750732421875
 20
281.0001029968262
 30
0.0
 11
-6.0750732421875
 21
281.0001029968262
 31
0.0
  0
LINE
  5
21AD
330
105C
100
AcDbEntity
  8
0
100
AcDbLine
 10
-52.0
 20
310.7997741699219
 30
0.0
 11
-52.0
 21
290.5
 31
0.0
  0
LINE
  5
21AE
330
105C
100
AcDbEntity
  8
0
100
AcDbLine
 10
-6.66339111328125
 20
281.1000785827637
 30
0.0
 11
-12.0
 21
281.1000785827637
 31
0.0
  0
LINE
  5
21AF
330
105C
100
AcDbEntity
  8
0
100
AcDbLine
 10
-12.0
 20
310.7997741699219
 30
0.0
 11
-12.0
 21
281.1000785827637
 31
0.0
  0
ARC
  5
21B0
330
105C
100
AcDbEntity
  8
0
100
AcDbCircle
 10
-6.17669677734375
 20
281.7935905456543
 30
0.0
 40
0.8000000417232513
100
AcDbArc
 50
248.2606510179197
 51
277.2985923873934
  0
ARC
  5
21B1
330
105C
100
AcDbEntity
  8
0
100
AcDbCircle
 10
-6.768310546875
 20
280.3070487976074
 30
0.0
 40
0.8000000417232513
100
AcDbArc
 50
68.2606460089627
 51
82.46761706750634
  0
LINE
  5
21B2
330
105C
100
AcDbEntity
  8
0
100
AcDbLine
 10
-48.95856473193589
 20
291.0263827274931
 30
0.0
 11
-46.46258140636223
 21
297.8840403082804
 31
0.0
  0
LINE
  5
21B3
330
105C
100
AcDbEntity
  8
0
100
AcDbLine
 10
-52.0
 20
290.5
 30
0.0
 11
-49.71017456054688
 21
290.5
 31
0.0
  0
ARC
  5
21B4
330
105C
100
AcDbEntity
  8
0
100
AcDbCircle
 10
-49.71017456054688
 20
291.2999877929688
 30
0.0
 40
0.8000000417232513
100
AcDbArc
 50
270.0000025044817
 51
339.999995345488
  0
LINE
  5
21B5
330
105C
100
AcDbEntity
  8
0
100
AcDbLine
 10
-22.40036918679539
 20
299.2
 30
0.0
 11
-44.58319617266272
 21
299.2
 31
0.0
  0
ARC
  5
21B6
330
105C
100
AcDbEntity
  8
0
100
AcDbCircle
 10
-44.58319617266272
 20
297.2
 30
0.0
 40
2.0
100
AcDbArc
 50
90.0
 51
159.9999993406077
  0
LINE
  5
21B7
330
105C
100
AcDbEntity
  8
0
100
AcDbLine
 10
-17.62114077763749
 20
296.9714092220671
 30
0.0
 11
-22.40036918679539
 21
299.2
 31
0.0
  0
LINE
  5
21B8
330
105C
100
AcDbEntity
  8
0
100
AcDbLine
 10
-49.25131339983011
 20
310.7997741699219
 30
0.0
 11
-49.25131339983011
 21
290.6446661147505
 31
0.0
  0
LINE
  5
21B9
330
105C
100
AcDbEntity
  8
0
100
AcDbLine
 10
-45.73034903593759
 20
298.838304095179
 30
0.0
 11
-45.73034903593759
 21
310.7997741699219
 31
0.0
  0
LINE
  5
21BA
330
105C
100
AcDbEntity
  8
0
100
AcDbLine
 10
-22.40036918679539
 20
310.7997741699219
 30
0.0
 11
-22.40036918679539
 21
299.2
 31
0.0
  0
LINE
  5
21BB
330
105C
100
AcDbEntity
  8
0
100
AcDbLine
 10
52.0
 20
389.2000427246094
 30
0.0
 11
52.0
 21
409.4998168945312
 31
0.0
  0
LINE
  5
21BC
330
105C
100
AcDbEntity
  8
0
100
AcDbLine
 10
6.66339111328125
 20
418.8997383117674
 30
0.0
 11
12.0
 21
418.8997383117674
 31
0.0
  0
LINE
  5
21BD
330
105C
100
AcDbEntity
  8
0
100
AcDbLine
 10
12.0
 20
389.2000427246094
 30
0.0
 11
12.0
 21
418.8997383117674
 31
0.0
  0
ARC
  5
21BE
330
105C
100
AcDbEntity
  8
0
100
AcDbCircle
 10
6.17669677734375
 20
418.2062263488768
 30
0.0
 40
0.8000000417232513
100
AcDbArc
 50
68.26065101791968
 51
97.29859238739337
  0
ARC
  5
21BF
330
105C
100
AcDbEntity
  8
0
100
AcDbCircle
 10
6.768310546875
 20
419.6927680969237
 30
0.0
 40
0.8000000417232513
100
AcDbArc
 50
248.2606460089627
 51
262.4676170675063
  0
LINE
  5
21C0
330
105C
100
AcDbEntity
  8
0
100
AcDbLine
 10
48.95856473193589
 20
408.9734341670379
 30
0.0
 11
46.46258140636229
 21
402.1157765862508
 31
0.0
  0
LINE
  5
21C1
330
105C
100
AcDbEntity
  8
0
100
AcDbLine
 10
52.0
 20
409.4998168945312
 30
0.0
 11
49.71017456054688
 21
409.4998168945312
 31
0.0
  0
ARC
  5
21C2
330
105C
100
AcDbEntity
  8
0
100
AcDbCircle
 10
49.71017456054688
 20
408.6998291015625
 30
0.0
 40
0.8000000417232513
100
AcDbArc
 50
90.00000250447845
 51
159.9999953454894
  0
LINE
  5
21C3
330
105C
100
AcDbEntity
  8
0
100
AcDbLine
 10
22.40036918679539
 20
400.7998168945311
 30
0.0
 11
44.58319617266278
 21
400.7998168945311
 31
0.0
  0
ARC
  5
21C4
330
105C
100
AcDbEntity
  8
0
100
AcDbCircle
 10
44.58319617266278
 20
402.7998168945313
 30
0.0
 40
2.0
100
AcDbArc
 50
270.0
 51
339.9999993406078
  0
LINE
  5
21C5
330
105C
100
AcDbEntity
  8
0
100
AcDbLine
 10
15.59994506835937
 20
403.9709066979267
 30
0.0
 11
22.40036918679539
 21
400.7998168945311
 31
0.0
  0
LINE
  5
21C6
330
105C
100
AcDbEntity
  8
0
100
AcDbLine
 10
49.25131339983011
 20
389.2000427246094
 30
0.0
 11
49.25131339983011
 21
409.3551507797807
 31
0.0
  0
LINE
  5
21C7
330
105C
100
AcDbEntity
  8
0
100
AcDbLine
 10
45.73034903593759
 20
401.1615127993521
 30
0.0
 11
45.73034903593759
 21
389.2000427246094
 31
0.0
  0
LINE
  5
21C8
330
105C
100
AcDbEntity
  8
0
100
AcDbLine
 10
22.40036918679539
 20
389.2000427246094
 30
0.0
 11
22.40036918679539
 21
400.7998168945311
 31
0.0
  0
LINE
  5
21C9
330
105C
100
AcDbEntity
  8
0
100
AcDbLine
 10
6.0750732421875
 20
418.9997138977051
 30
0.0
 11
-6.0750732421875
 21
418.9997138977051
 31
0.0
  0
LINE
  5
21CA
330
105C
100
AcDbEntity
  8
0
100
AcDbLine
 10
-52.0
 20
389.2000427246094
 30
0.0
 11
-52.0
 21
409.4998168945312
 31
0.0
  0
LINE
  5
21CB
330
105C
100
AcDbEntity
  8
0
100
AcDbLine
 10
-6.66339111328125
 20
418.8997383117674
 30
0.0
 11
-12.0
 21
418.8997383117674
 31
0.0
  0
LINE
  5
21CC
330
105C
100
AcDbEntity
  8
0
100
AcDbLine
 10
-12.0
 20
389.2000427246094
 30
0.0
 11
-12.0
 21
418.8997383117674
 31
0.0
  0
ARC
  5
21CD
330
105C
100
AcDbEntity
  8
0
100
AcDbCircle
 10
-6.17669677734375
 20
418.2062263488768
 30
0.0
 40
0.8000000417232513
100
AcDbArc
 50
82.70140761260664
 51
111.7393489820803
  0
ARC
  5
21CE
330
105C
100
AcDbEntity
  8
0
100
AcDbCircle
 10
-6.768310546875
 20
419.6927680969237
 30
0.0
 40
0.8000000417232513
100
AcDbArc
 50
277.5323829324936
 51
291.7393539910373
  0
LINE
  5
21CF
330
105C
100
AcDbEntity
  8
0
100
AcDbLine
 10
-48.95856473193589
 20
408.9734341670379
 30
0.0
 11
-46.46258140636223
 21
402.1157765862508
 31
0.0
  0
LINE
  5
21D0
330
105C
100
AcDbEntity
  8
0
100
AcDbLine
 10
-52.0
 20
409.4998168945312
 30
0.0
 11
-49.71017456054688
 21
409.4998168945312
 31
0.0
  0
ARC
  5
21D1
330
105C
100
AcDbEntity
  8
0
100
AcDbCircle
 10
-49.71017456054688
 20
408.6998291015625
 30
0.0
 40
0.8000000417232513
100
AcDbArc
 50
20.00000465450974
 51
89.99999749551827
  0
LINE
  5
21D2
330
105C
100
AcDbEntity
  8
0
100
AcDbLine
 10
-22.40036918679539
 20
400.7998168945311
 30
0.0
 11
-44.58319617266272
 21
400.7998168945311
 31
0.0
  0
ARC
  5
21D3
330
105C
100
AcDbEntity
  8
0
100
AcDbCircle
 10
-44.58319617266272
 20
402.7998168945313
 30
0.0
 40
2.0
100
AcDbArc
 50
200.0000006593923
 51
270.0
  0
LINE
  5
21D4
330
105C
100
AcDbEntity
  8
0
100
AcDbLine
 10
-17.62114077763755
 20
403.028407672464
 30
0.0
 11
-22.40036918679539
 21
400.7998168945311
 31
0.0
  0
LINE
  5
21D5
330
105C
100
AcDbEntity
  8
0
100
AcDbLine
 10
-49.25131339983011
 20
389.2000427246094
 30
0.0
 11
-49.25131339983011
 21
409.3551507797807
 31
0.0
  0
LINE
  5
21D6
330
105C
100
AcDbEntity
  8
0
100
AcDbLine
 10
-45.73034903593759
 20
401.1615127993521
 30
0.0
 11
-45.73034903593759
 21
389.2000427246094
 31
0.0
  0
LINE
  5
21D7
330
105C
100
AcDbEntity
  8
0
100
AcDbLine
 10
-22.40036918679539
 20
389.2000427246094
 30
0.0
 11
-22.40036918679539
 21
400.7998168945311
 31
0.0
  0
LINE
  5
21D8
330
105C
100
AcDbEntity
  8
0
100
AcDbLine
 10
-14.9999771118164
 20
87.29844298048822
 30
0.0
 11
14.9999771118164
 21
87.29844298048822
 31
0.0
  0
LINE
  5
21D9
330
105C
100
AcDbEntity
  8
0
100
AcDbLine
 10
11.49998474121094
 20
83.79845060988277
 30
0.0
 11
-11.49998474121094
 21
83.79845060988277
 31
0.0
  0
TEXT
  5
21DA
330
105C
100
AcDbEntity
  8
0
100
AcDbText
 10
-337.5
 20
459.1666666666666
 30
0.0
 40
50.0
  1
LVB__T35000 4S
 72
     4
 11
0.0
 21
480.0
 31
0.0
100
AcDbText
  0
LINE
  5
21DB
330
105C
100
AcDbEntity
  8
0
100
AcDbLine
 10
-20.59997711181643
 20
64.7410888671875
 30
0.0
 11
-14.9999771118164
 21
64.7410888671875
 31
0.0
  0
LINE
  5
21DC
330
105C
100
AcDbEntity
  8
0
100
AcDbLine
 10
-20.59997711181637
 20
54.7410888671875
 30
0.0
 11
-14.9999771118164
 21
54.7410888671875
 31
0.0
  0
LINE
  5
21DD
330
105C
100
AcDbEntity
  8
0
100
AcDbLine
 10
-20.99997711181641
 20
64.04826854415995
 30
0.0
 11
-20.99997711181641
 21
55.43390919021504
 31
0.0
  0
LINE
  5
21DE
330
105C
100
AcDbEntity
  8
0
100
AcDbLine
 10
-20.59997711181643
 20
57.28258886718748
 30
0.0
 11
-20.59997711181643
 21
54.7410888671875
 31
0.0
  0
LINE
  5
21DF
330
105C
100
AcDbEntity
  8
0
100
AcDbLine
 10
-20.59997711181643
 20
54.7410888671875
 30
0.0
 11
-20.99997711181641
 21
55.43390919021504
 31
0.0
  0
LINE
  5
21E0
330
105C
100
AcDbEntity
  8
0
100
AcDbLine
 10
-20.59997711181643
 20
64.7410888671875
 30
0.0
 11
-20.59997711181643
 21
62.19958886718746
 31
0.0
  0
LINE
  5
21E1
330
105C
100
AcDbEntity
  8
0
100
AcDbLine
 10
-20.59997711181643
 20
64.7410888671875
 30
0.0
 11
-20.99997711181641
 21
64.04826854415995
 31
0.0
  0
LINE
  5
21E2
330
105C
100
AcDbEntity
  8
0
100
AcDbLine
 10
-17.60000000000002
 20
29.61614990234373
 30
0.0
 11
-12.0
 21
29.61614990234377
 31
0.0
  0
LINE
  5
21E3
330
105C
100
AcDbEntity
  8
0
100
AcDbLine
 10
-17.59999999999996
 20
19.61614990234373
 30
0.0
 11
-12.0
 21
19.61614990234373
 31
0.0
  0
LINE
  5
21E4
330
105C
100
AcDbEntity
  8
0
100
AcDbLine
 10
-18.0
 20
28.92332957931619
 30
0.0
 11
-18.0
 21
20.30897022537131
 31
0.0
  0
LINE
  5
21E5
330
105C
100
AcDbEntity
  8
0
100
AcDbLine
 10
-17.60000000000002
 20
22.15764990234375
 30
0.0
 11
-17.60000000000002
 21
19.61614990234373
 31
0.0
  0
LINE
  5
21E6
330
105C
100
AcDbEntity
  8
0
100
AcDbLine
 10
-17.60000000000002
 20
19.61614990234373
 30
0.0
 11
-18.0
 21
20.30897022537131
 31
0.0
  0
LINE
  5
21E7
330
105C
100
AcDbEntity
  8
0
100
AcDbLine
 10
-17.60000000000002
 20
29.61614990234373
 30
0.0
 11
-17.60000000000002
 21
27.07464990234373
 31
0.0
  0
LINE
  5
21E8
330
105C
100
AcDbEntity
  8
0
100
AcDbLine
 10
-17.60000000000002
 20
29.61614990234373
 30
0.0
 11
-18.0
 21
28.92332957931619
 31
0.0
  0
LINE
  5
21E9
330
105C
100
AcDbEntity
  8
0
100
AcDbLine
 10
-17.60000000000002
 20
-54.74098587036134
 30
0.0
 11
-12.0
 21
-54.74098587036131
 31
0.0
  0
LINE
  5
21EA
330
105C
100
AcDbEntity
  8
0
100
AcDbLine
 10
-17.59999999999996
 20
-64.74098587036134
 30
0.0
 11
-12.0
 21
-64.74098587036134
 31
0.0
  0
LINE
  5
21EB
330
105C
100
AcDbEntity
  8
0
100
AcDbLine
 10
-18.0
 20
-55.43380619338889
 30
0.0
 11
-18.0
 21
-64.04816554733376
 31
0.0
  0
LINE
  5
21EC
330
105C
100
AcDbEntity
  8
0
100
AcDbLine
 10
-17.60000000000002
 20
-62.19948587036133
 30
0.0
 11
-17.60000000000002
 21
-64.74098587036134
 31
0.0
  0
LINE
  5
21ED
330
105C
100
AcDbEntity
  8
0
100
AcDbLine
 10
-17.60000000000002
 20
-64.74098587036134
 30
0.0
 11
-18.0
 21
-64.04816554733376
 31
0.0
  0
LINE
  5
21EE
330
105C
100
AcDbEntity
  8
0
100
AcDbLine
 10
-17.60000000000002
 20
-54.74098587036134
 30
0.0
 11
-17.60000000000002
 21
-57.28248587036135
 31
0.0
  0
LINE
  5
21EF
330
105C
100
AcDbEntity
  8
0
100
AcDbLine
 10
-17.60000000000002
 20
-54.74098587036134
 30
0.0
 11
-18.0
 21
-55.43380619338889
 31
0.0
  0
LINE
  5
21F0
330
105C
100
AcDbEntity
  8
0
100
AcDbLine
 10
15.12442016601562
 20
18.8426513671875
 30
0.0
 11
12.0
 21
18.8426513671875
 31
0.0
  0
LINE
  5
21F1
330
105C
100
AcDbEntity
  8
0
100
AcDbLine
 10
15.0955810546875
 20
30.3896484375
 30
0.0
 11
11.99990844726562
 21
30.3896484375
 31
0.0
  0
LINE
  5
21F2
330
105C
100
AcDbEntity
  8
0
100
AcDbLine
 10
15.59994506835937
 20
20.28607177734375
 30
0.0
 11
15.59994506835937
 21
28.9464111328125
 31
0.0
  0
LINE
  5
21F3
330
105C
100
AcDbEntity
  8
0
100
AcDbLine
 10
15.12442016601562
 20
21.7294921875
 30
0.0
 11
11.99990844726562
 21
21.7294921875
 31
0.0
  0
LINE
  5
21F4
330
105C
100
AcDbEntity
  8
0
100
AcDbLine
 10
15.12442016601562
 20
27.50299072265625
 30
0.0
 11
11.99990844726562
 21
27.50299072265625
 31
0.0
  0
LINE
  5
21F5
330
105C
100
AcDbEntity
  8
0
100
AcDbLine
 10
17.59991455078125
 20
27.61614990234375
 30
0.0
 11
15.59994506835937
 21
27.61614990234375
 31
0.0
  0
LINE
  5
21F6
330
105C
100
AcDbEntity
  8
0
100
AcDbLine
 10
17.59991455078125
 20
21.61614990234375
 30
0.0
 11
15.59994506835937
 21
21.61614990234375
 31
0.0
  0
LINE
  5
21F7
330
105C
100
AcDbEntity
  8
0
100
AcDbLine
 10
18.59992218017578
 20
22.61627197265625
 30
0.0
 11
18.59992218017578
 21
26.6162109375
 31
0.0
  0
LINE
  5
21F8
330
105C
100
AcDbEntity
  8
0
100
AcDbLine
 10
17.59975835674714
 20
27.61637497893389
 30
0.0
 11
18.59982413086061
 21
26.61630912052113
 31
0.0
  0
LINE
  5
21F9
330
105C
100
AcDbEntity
  8
0
100
AcDbLine
 10
18.59982396227303
 20
22.61630480570591
 30
0.0
 11
17.59982284142239
 21
21.61630376914911
 31
0.0
  0
ARC
  5
21FA
330
105C
100
AcDbEntity
  8
0
100
AcDbCircle
 10
6.599967956542968
 20
24.61614990234375
 30
0.0
 40
9.0
100
AcDbArc
 50
341.2917037595304
 51
18.70829965556086
  0
ARC
  5
21FB
330
105C
100
AcDbEntity
  8
0
100
AcDbCircle
 10
13.17160034179687
 20
28.9464111328125
 30
0.0
 40
2.42832201719284
100
AcDbArc
 50
323.530683039958
 51
36.46931354494542
  0
ARC
  5
21FC
330
105C
100
AcDbEntity
  8
0
100
AcDbCircle
 10
13.17160034179687
 20
20.28607177734375
 30
0.0
 40
2.42832201719284
100
AcDbArc
 50
323.5306864550546
 51
36.46931354494542
  0
LINE
  5
21FD
330
105C
100
AcDbEntity
  8
0
100
AcDbLine
 10
15.12434096687542
 20
-53.96748733520507
 30
0.0
 11
12.0
 21
-53.96748733520507
 31
0.0
  0
LINE
  5
21FE
330
105C
100
AcDbEntity
  8
0
100
AcDbLine
 10
-17.60000000000002
 20
-29.61614990234372
 30
0.0
 11
-12.0
 21
-29.61614990234375
 31
0.0
  0
LINE
  5
21FF
330
105C
100
AcDbEntity
  8
0
100
AcDbLine
 10
-17.59999999999996
 20
-19.61614990234372
 30
0.0
 11
-12.0
 21
-19.61614990234372
 31
0.0
  0
LINE
  5
2200
330
105C
100
AcDbEntity
  8
0
100
AcDbLine
 10
-18.0
 20
-28.92332957931618
 30
0.0
 11
-18.0
 21
-20.3089702253713
 31
0.0
  0
LINE
  5
2201
330
105C
100
AcDbEntity
  8
0
100
AcDbLine
 10
-17.60000000000002
 20
-22.15764990234374
 30
0.0
 11
-17.60000000000002
 21
-19.61614990234372
 31
0.0
  0
LINE
  5
2202
330
105C
100
AcDbEntity
  8
0
100
AcDbLine
 10
-17.60000000000002
 20
-19.61614990234372
 30
0.0
 11
-18.0
 21
-20.3089702253713
 31
0.0
  0
LINE
  5
2203
330
105C
100
AcDbEntity
  8
0
100
AcDbLine
 10
-17.60000000000002
 20
-29.61614990234372
 30
0.0
 11
-17.60000000000002
 21
-27.07464990234371
 31
0.0
  0
LINE
  5
2204
330
105C
100
AcDbEntity
  8
0
100
AcDbLine
 10
-17.60000000000002
 20
-29.61614990234372
 30
0.0
 11
-18.0
 21
-28.92332957931618
 31
0.0
  0
LINE
  5
2205
330
105C
100
AcDbEntity
  8
0
100
AcDbLine
 10
15.12442016601562
 20
-18.84265136718748
 30
0.0
 11
12.0
 21
-18.84265136718748
 31
0.0
  0
LINE
  5
2206
330
105C
100
AcDbEntity
  8
0
100
AcDbLine
 10
15.0955810546875
 20
-30.38964843749999
 30
0.0
 11
11.99990844726562
 21
-30.38964843749999
 31
0.0
  0
LINE
  5
2207
330
105C
100
AcDbEntity
  8
0
100
AcDbLine
 10
15.59994506835937
 20
-20.28607177734373
 30
0.0
 11
15.59994506835937
 21
-28.94641113281249
 31
0.0
  0
LINE
  5
2208
330
105C
100
AcDbEntity
  8
0
100
AcDbLine
 10
15.12442016601562
 20
-21.72949218749999
 30
0.0
 11
11.99990844726562
 21
-21.72949218749999
 31
0.0
  0
LINE
  5
2209
330
105C
100
AcDbEntity
  8
0
100
AcDbLine
 10
15.12442016601562
 20
-27.50299072265624
 30
0.0
 11
11.99990844726562
 21
-27.50299072265624
 31
0.0
  0
LINE
  5
220A
330
105C
100
AcDbEntity
  8
0
100
AcDbLine
 10
17.59991455078125
 20
-27.61614990234374
 30
0.0
 11
15.59994506835937
 21
-27.61614990234374
 31
0.0
  0
LINE
  5
220B
330
105C
100
AcDbEntity
  8
0
100
AcDbLine
 10
17.59991455078125
 20
-21.61614990234374
 30
0.0
 11
15.59994506835937
 21
-21.61614990234374
 31
0.0
  0
LINE
  5
220C
330
105C
100
AcDbEntity
  8
0
100
AcDbLine
 10
18.59992218017578
 20
-22.61627197265624
 30
0.0
 11
18.59992218017578
 21
-26.61621093749999
 31
0.0
  0
LINE
  5
220D
330
105C
100
AcDbEntity
  8
0
100
AcDbLine
 10
17.59975835674714
 20
-27.61637497893388
 30
0.0
 11
18.59982413086061
 21
-26.61630912052111
 31
0.0
  0
LINE
  5
220E
330
105C
100
AcDbEntity
  8
0
100
AcDbLine
 10
18.59982396227303
 20
-22.61630480570589
 30
0.0
 11
17.59982284142239
 21
-21.6163037691491
 31
0.0
  0
ARC
  5
220F
330
105C
100
AcDbEntity
  8
0
100
AcDbCircle
 10
6.599967956542968
 20
-24.61614990234374
 30
0.0
 40
9.0
100
AcDbArc
 50
341.2917003444392
 51
18.7082962404696
  0
ARC
  5
2210
330
105C
100
AcDbEntity
  8
0
100
AcDbCircle
 10
13.17160034179687
 20
-28.94641113281249
 30
0.0
 40
2.42832201719284
100
AcDbArc
 50
323.5306864550546
 51
36.46931696004205
  0
ARC
  5
2211
330
105C
100
AcDbEntity
  8
0
100
AcDbCircle
 10
13.17160034179687
 20
-20.28607177734373
 30
0.0
 40
2.42832201719284
100
AcDbArc
 50
323.5306864550546
 51
36.46931354494542
  0
LINE
  5
2212
330
105C
100
AcDbEntity
  8
0
100
AcDbLine
 10
-14.9999771118164
 20
52.29156494140625
 30
0.0
 11
-12.0
 21
52.29156494140625
 31
0.0
  0
LINE
  5
2213
330
105C
100
AcDbEntity
  8
0
100
AcDbLine
 10
14.9999771118164
 20
52.29156494140625
 30
0.0
 11
12.0
 21
52.29156494140625
 31
0.0
  0
LINE
  5
2214
330
105C
100
AcDbEntity
  8
0
100
AcDbLine
 10
-17.59999999999996
 20
297.0080261230468
 30
0.0
 11
-12.0
 21
297.0080261230468
 31
0.0
  0
LINE
  5
2215
330
105C
100
AcDbEntity
  8
0
100
AcDbLine
 10
-17.59999999999996
 20
287.0080261230468
 30
0.0
 11
-12.0
 21
287.0080261230468
 31
0.0
  0
LINE
  5
2216
330
105C
100
AcDbEntity
  8
0
100
AcDbLine
 10
-18.0
 20
296.3152058000193
 30
0.0
 11
-18.0
 21
287.7008464460744
 31
0.0
  0
LINE
  5
2217
330
105C
100
AcDbEntity
  8
0
100
AcDbLine
 10
-17.59999999999996
 20
289.5495261230468
 30
0.0
 11
-17.59999999999996
 21
287.0080261230468
 31
0.0
  0
LINE
  5
2218
330
105C
100
AcDbEntity
  8
0
100
AcDbLine
 10
-17.59999999999996
 20
287.0080261230468
 30
0.0
 11
-18.0
 21
287.7008464460744
 31
0.0
  0
LINE
  5
2219
330
105C
100
AcDbEntity
  8
0
100
AcDbLine
 10
-17.59999999999996
 20
297.0080261230468
 30
0.0
 11
-17.59999999999996
 21
294.4665261230468
 31
0.0
  0
LINE
  5
221A
330
105C
100
AcDbEntity
  8
0
100
AcDbLine
 10
-17.59999999999996
 20
297.0080261230468
 30
0.0
 11
-18.0
 21
296.3152058000193
 31
0.0
  0
LINE
  5
221B
330
105C
100
AcDbEntity
  8
0
100
AcDbLine
 10
17.59991455078125
 20
295.0080261230468
 30
0.0
 11
15.59994506835937
 21
295.0080261230468
 31
0.0
  0
LINE
  5
221C
330
105C
100
AcDbEntity
  8
0
100
AcDbLine
 10
17.59991455078125
 20
289.0080261230468
 30
0.0
 11
15.59994506835937
 21
289.0080261230468
 31
0.0
  0
LINE
  5
221D
330
105C
100
AcDbEntity
  8
0
100
AcDbLine
 10
18.59992218017578
 20
290.0081481933593
 30
0.0
 11
18.59992218017578
 21
294.0080871582031
 31
0.0
  0
LINE
  5
221E
330
105C
100
AcDbEntity
  8
0
100
AcDbLine
 10
17.59975835674714
 20
295.008251199637
 30
0.0
 11
18.59982413086061
 21
294.0081853412242
 31
0.0
  0
LINE
  5
221F
330
105C
100
AcDbEntity
  8
0
100
AcDbLine
 10
18.59982396227303
 20
290.008181026409
 30
0.0
 11
17.59982284142239
 21
289.0081799898522
 31
0.0
  0
LINE
  5
2220
330
105C
100
AcDbEntity
  8
0
100
AcDbLine
 10
-17.59999999999996
 20
402.9917907714844
 30
0.0
 11
-12.0
 21
402.9917907714844
 31
0.0
  0
LINE
  5
2221
330
105C
100
AcDbEntity
  8
0
100
AcDbLine
 10
-17.59999999999996
 20
412.9917907714844
 30
0.0
 11
-12.0
 21
412.9917907714844
 31
0.0
  0
LINE
  5
2222
330
105C
100
AcDbEntity
  8
0
100
AcDbLine
 10
-18.0
 20
403.6846110945119
 30
0.0
 11
-18.0
 21
412.2989704484568
 31
0.0
  0
LINE
  5
2223
330
105C
100
AcDbEntity
  8
0
100
AcDbLine
 10
-17.59999999999996
 20
410.4502907714844
 30
0.0
 11
-17.59999999999996
 21
412.9917907714844
 31
0.0
  0
LINE
  5
2224
330
105C
100
AcDbEntity
  8
0
100
AcDbLine
 10
-17.59999999999996
 20
412.9917907714844
 30
0.0
 11
-18.0
 21
412.2989704484568
 31
0.0
  0
LINE
  5
2225
330
105C
100
AcDbEntity
  8
0
100
AcDbLine
 10
-17.59999999999996
 20
402.9917907714844
 30
0.0
 11
-17.59999999999996
 21
405.5332907714844
 31
0.0
  0
LINE
  5
2226
330
105C
100
AcDbEntity
  8
0
100
AcDbLine
 10
-17.59999999999996
 20
402.9917907714844
 30
0.0
 11
-18.0
 21
403.6846110945119
 31
0.0
  0
LINE
  5
2227
330
105C
100
AcDbEntity
  8
0
100
AcDbLine
 10
17.59991455078125
 20
404.9917907714844
 30
0.0
 11
15.59994506835937
 21
404.9917907714844
 31
0.0
  0
LINE
  5
2228
330
105C
100
AcDbEntity
  8
0
100
AcDbLine
 10
17.59991455078125
 20
410.9917907714843
 30
0.0
 11
15.59994506835937
 21
410.9917907714843
 31
0.0
  0
LINE
  5
2229
330
105C
100
AcDbEntity
  8
0
100
AcDbLine
 10
18.59992218017578
 20
409.9916687011718
 30
0.0
 11
18.59992218017578
 21
405.9917297363281
 31
0.0
  0
LINE
  5
222A
330
105C
100
AcDbEntity
  8
0
100
AcDbLine
 10
17.59975835674714
 20
404.9915656948942
 30
0.0
 11
18.59982413086061
 21
405.9916315533071
 31
0.0
  0
LINE
  5
222B
330
105C
100
AcDbEntity
  8
0
100
AcDbLine
 10
18.59982396227303
 20
409.9916358681222
 30
0.0
 11
17.59982284142239
 21
410.991636904679
 31
0.0
  0
LINE
  5
222C
330
105C
100
AcDbEntity
  8
0
100
AcDbLine
 10
0.0
 20
68.9000244140625
 30
0.0
 11
0.0
 21
-68.99989700317383
 31
0.0
  0
LINE
  5
222D
330
105C
100
AcDbEntity
  8
0
100
AcDbLine
 10
0.0
 20
418.9997138977051
 30
0.0
 11
0.0
 21
389.1998596191406
 31
0.0
  0
LINE
  5
222E
330
105C
100
AcDbEntity
  8
0
100
AcDbLine
 10
0.0
 20
281.0001029968262
 30
0.0
 11
0.0
 21
310.7997741699219
 31
0.0
  0
CIRCLE
  5
222F
330
105C
100
AcDbEntity
  8
0
100
AcDbCircle
 10
-243.0
 20
0.0
 30
0.0
 40
63.00010517071145
  0
LINE
  5
2230
330
105C
100
AcDbEntity
  8
0
100
AcDbLine
 10
15.60000000000002
 20
287.0080261230468
 30
0.0
 11
15.60000000000002
 21
297.0080261230468
 31
0.0
  0
ARC
  5
2231
330
105C
100
AcDbEntity
  8
0
100
AcDbCircle
 10
8.321314873352037
 20
289.5080261230468
 30
0.0
 40
7.220950126647949
100
AcDbArc
 50
339.7444458007802
 51
20.25555419921974
  0
ARC
  5
2232
330
105C
100
AcDbEntity
  8
0
100
AcDbCircle
 10
8.321314873352037
 20
294.5080261230468
 30
0.0
 40
7.220950126647949
100
AcDbArc
 50
339.7444458007802
 51
20.25555419921974
  0
LINE
  5
2233
330
105C
100
AcDbEntity
  8
0
100
AcDbLine
 10
12.0
 20
297.0080261230468
 30
0.0
 11
15.60000000000002
 21
297.0080261230468
 31
0.0
  0
LINE
  5
2234
330
105C
100
AcDbEntity
  8
0
100
AcDbLine
 10
12.0
 20
292.0080261230467
 30
0.0
 11
15.09568477499999
 21
292.0080261230467
 31
0.0
  0
LINE
  5
2235
330
105C
100
AcDbEntity
  8
0
100
AcDbLine
 10
12.0
 20
287.0080261230468
 30
0.0
 11
15.60000000000002
 21
287.0080261230468
 31
0.0
  0
LINE
  5
2236
330
105C
100
AcDbEntity
  8
0
100
AcDbLine
 10
15.60000000000002
 20
412.9917907714845
 30
0.0
 11
15.60000000000002
 21
402.9917907714844
 31
0.0
  0
ARC
  5
2237
330
105C
100
AcDbEntity
  8
0
100
AcDbCircle
 10
8.321314873352037
 20
410.4917907714844
 30
0.0
 40
7.220950126647949
100
AcDbArc
 50
339.7444458007802
 51
20.25555419921974
  0
ARC
  5
2238
330
105C
100
AcDbEntity
  8
0
100
AcDbCircle
 10
8.321314873352037
 20
405.4917907714844
 30
0.0
 40
7.220950126647949
100
AcDbArc
 50
339.7444458007802
 51
20.25555419921974
  0
LINE
  5
2239
330
105C
100
AcDbEntity
  8
0
100
AcDbLine
 10
12.0
 20
402.9917907714844
 30
0.0
 11
15.60000000000002
 21
402.9917907714844
 31
0.0
  0
LINE
  5
223A
330
105C
100
AcDbEntity
  8
0
100
AcDbLine
 10
12.0
 20
407.9917907714844
 30
0.0
 11
15.09568477499999
 21
407.9917907714844
 31
0.0
  0
LINE
  5
223B
330
105C
100
AcDbEntity
  8
0
100
AcDbLine
 10
12.0
 20
412.9917907714845
 30
0.0
 11
15.60000000000002
 21
412.9917907714845
 31
0.0
  0
ENDSEC
  0
SECTION
  2
OBJECTS
  0
DICTIONARY
  5
FFD
330
0
100
AcDbDictionary
281
     1
  3
ACAD_2007HEADERVARS_RT
350
2363
  3
ACAD_CIP_PREVIOUS_PRODUCT_INFO
350
11C9
  3
ACAD_COLOR
350
1053
  3
ACAD_GROUP
350
FFE
  3
ACAD_LAYOUT
350
1052
  3
ACAD_MATERIAL
350
1001
  3
ACAD_MLEADERSTYLE
350
1056
  3
ACAD_MLINESTYLE
350
104F
  3
ACAD_PLOTSETTINGS
350
1051
  3
ACAD_PLOTSTYLENAME
350
FFF
  3
ACAD_SCALELIST
350
1033
  3
ACAD_TABLESTYLE
350
1054
  3
ACAD_VISUALSTYLE
350
101A
  3
ACDB_RECOMPOSE_DATA
350
2362
  3
AcDbVariableDictionary
350
1269
  3
AcmDictionary
350
11EF
  3
AEC_PROPERTY_SET_DEFS
350
1413
  3
AMG
350
11CA
  3
AMGSNAPSETTINGS
350
1221
  0
DICTIONARY
  5
122E
330
FF9
100
AcDbDictionary
280
     1
281
     1
  0
DICTIONARY
  5
155F
330
FF3
100
AcDbDictionary
280
     1
281
     1
  3
ACAD_LAYERSTATES
360
1560
  0
DICTIONARY
  5
1228
330
1045
100
AcDbDictionary
280
     1
281
     1
  3
ADSK_XREC_LAYER_RECONCILED
360
1229
  0
DICTIONARY
  5
12F8
330
105C
100
AcDbDictionary
280
     1
281
     1
  3
ACAD_SORTENTS
360
12F9
  0
DICTIONARY
  5
2363
102
{ACAD_REACTORS
330
FFD
102
}
330
FFD
100
AcDbDictionary
281
     1
  3
DIMARCSYM
350
2364
  3
DIMLTEX1
350
2366
  3
DIMLTEX2
350
2367
  3
DIMLTYPE
350
2365
  0
XRECORD
  5
11C9
102
{ACAD_REACTORS
330
FFD
102
}
330
FFD
100
AcDbXrecord
280
     1
300
AMECH_PP
300
2012
300
PDSU_F_S
  0
DICTIONARY
  5
1053
102
{ACAD_REACTORS
330
FFD
102
}
330
FFD
100
AcDbDictionary
281
     1
  0
DICTIONARY
  5
FFE
102
{ACAD_REACTORS
330
FFD
102
}
330
FFD
100
AcDbDictionary
281
     1
  0
DICTIONARY
  5
1052
102
{ACAD_REACTORS
330
FFD
102
}
330
FFD
100
AcDbDictionary
281
     1
  3
Model
350
105F
  3
レイアウト1
350
105B
  0
DICTIONARY
  5
1001
102
{ACAD_REACTORS
330
FFD
102
}
330
FFD
100
AcDbDictionary
281
     1
  3
ByBlock
350
100A
  3
ByLayer
350
1002
  3
Global
350
1012
  0
DICTIONARY
  5
1056
102
{ACAD_REACTORS
330
FFD
102
}
330
FFD
100
AcDbDictionary
281
     1
  3
Standard
350
1057
  0
DICTIONARY
  5
104F
102
{ACAD_REACTORS
330
FFD
102
}
330
FFD
100
AcDbDictionary
281
     1
  3
Standard
350
1050
  0
DICTIONARY
  5
1051
102
{ACAD_REACTORS
330
FFD
102
}
330
FFD
100
AcDbDictionary
281
     1
  0
ACDBDICTIONARYWDFLT
  5
FFF
102
{ACAD_REACTORS
330
FFD
102
}
330
FFD
100
AcDbDictionary
281
     1
  3
Normal
350
1000
100
AcDbDictionaryWithDefault
340
1000
  0
DICTIONARY
  5
1033
102
{ACAD_REACTORS
330
FFD
102
}
330
FFD
100
AcDbDictionary
281
     1
  3
A0
350
1034
  3
A1
350
1035
  3
A2
350
1036
  3
A3
350
1037
  3
A4
350
1038
  3
A5
350
1039
  3
A6
350
103A
  3
A7
350
103B
  3
A8
350
103C
  3
A9
350
103D
  3
B0
350
103E
  3
B1
350
103F
  3
B2
350
1040
  3
B3
350
1041
  3
B4
350
1042
  3
B5
350
1043
  3
B6
350
1044
  0
DICTIONARY
  5
1054
102
{ACAD_REACTORS
330
FFD
102
}
330
FFD
100
AcDbDictionary
281
     1
  3
Standard
350
1055
  0
DICTIONARY
  5
101A
102
{ACAD_REACTORS
330
FFD
102
}
330
FFD
100
AcDbDictionary
281
     1
  3
2dWireframe
350
1020
  3
3D Hidden
350
1558
  3
3dWireframe
350
1557
  3
Basic
350
101F
  3
Brighten
350
1026
  3
ColorChange
350
102A
  3
Conceptual
350
1023
  3
Dim
350
1025
  3
EdgeColorOff
350
1032
  3
Facepattern
350
1029
  3
Flat
350
101B
  3
FlatWithEdges
350
101C
  3
Gouraud
350
101D
  3
GouraudWithEdges
350
101E
  3
Hidden
350
1022
  3
JitterOff
350
1030
  3
Linepattern
350
1028
  3
OverhangOff
350
1031
  3
Realistic
350
1024
  3
Shaded
350
102F
  3
Shaded with edges
350
102E
  3
Shades of Gray
350
102B
  3
Sketchy
350
102C
  3
Thicken
350
1027
  3
Wireframe
350
1021
  3
X-Ray
350
102D
  0
XRECORD
  5
2362
102
{ACAD_REACTORS
330
FFD
102
}
330
FFD
100
AcDbXrecord
280
     1
 90
        1
330
1055
  0
DICTIONARY
  5
1269
102
{ACAD_REACTORS
330
FFD
102
}
330
FFD
100
AcDbDictionary
281
     1
  3
CANNOSCALE
350
126C
  3
CMLEADERSTYLE
350
126B
  3
CTABLESTYLE
350
126A
  3
DIMASSOC
350
126F
  3
INDEXCTL
350
126E
  3
LAYEREVAL
350
1569
  3
LAYERNOTIFY
350
156A
  3
LIGHTINGUNITS
350
1568
  3
MSLTSCALE
350
1567
  3
SOLIDHIST
350
15E4
  3
SORTENTS
350
126D
  3
XCLIPFRAME
350
2360
  0
DICTIONARY
  5
11EF
102
{ACAD_REACTORS
330
FFD
102
}
330
FFD
100
AcDbDictionary
281
     1
  3
AcmStdDictionary
350
11F8
  0
DICTIONARY
  5
1413
102
{ACAD_REACTORS
330
FFD
102
}
330
FFD
100
AcDbDictionary
281
     1
  0
DICTIONARY
  5
11CA
102
{ACAD_REACTORS
330
FFD
102
}
330
FFD
100
AcDbDictionary
281
     1
  0
DICTIONARY
  5
1221
102
{ACAD_REACTORS
330
FFD
102
}
330
FFD
100
AcDbDictionary
281
     1
  0
DICTIONARY
  5
1560
102
{ACAD_REACTORS
330
155F
102
}
330
155F
100
AcDbDictionary
281
     1
  0
XRECORD
  5
1229
102
{ACAD_REACTORS
330
1228
102
}
330
1228
100
AcDbXrecord
280
     1
290
     1
  0
SORTENTSTABLE
  5
12F9
102
{ACAD_REACTORS
330
12F8
102
}
330
12F8
100
AcDbSortentsTable
330
105C
  0
XRECORD
  5
2364
102
{ACAD_REACTORS
330
2363
102
}
330
2363
100
AcDbXrecord
280
     1
 70
     1
  0
XRECORD
  5
2366
102
{ACAD_REACTORS
330
2363
102
}
330
2363
100
AcDbXrecord
280
     1
340
104B
  0
XRECORD
  5
2367
102
{ACAD_REACTORS
330
2363
102
}
330
2363
100
AcDbXrecord
280
     1
340
104B
  0
XRECORD
  5
2365
102
{ACAD_REACTORS
330
2363
102
}
330
2363
100
AcDbXrecord
280
     1
340
104B
  0
LAYOUT
  5
105F
102
{ACAD_XDICTIONARY
360
1565
102
}
102
{ACAD_REACTORS
330
1052
102
}
330
1052
100
AcDbPlotSettings
  1

  2
iR C4580
  4

  6

 40
0.0
 41
0.0
 42
0.0
 43
0.0
 44
0.0
 45
0.0
 46
0.0
 47
0.0
 48
0.0
 49
0.0
140
0.0
141
0.0
142
1.0
143
1.0
 70
  1712
 72
     0
 73
     0
 74
     0
  7

 75
     0
147
1.0
 76
     0
 77
     2
 78
   300
148
0.0
149
0.0
100
AcDbLayout
  1
Model
 70
     1
 71
     0
 10
0.0
 20
0.0
 11
12.0
 21
9.0
 12
0.0
 22
0.0
 32
0.0
 14
0.0
 24
0.0
 34
0.0
 15
0.0
 25
0.0
 35
0.0
146
0.0
 13
0.0
 23
0.0
 33
0.0
 16
1.0
 26
0.0
 36
0.0
 17
0.0
 27
1.0
 37
0.0
 76
     0
330
105C
331
1060
  0
LAYOUT
  5
105B
102
{ACAD_REACTORS
330
1052
102
}
330
1052
100
AcDbPlotSettings
  1

  2
iR C4580
  4

  6

 40
0.0
 41
0.0
 42
0.0
 43
0.0
 44
0.0
 45
0.0
 46
0.0
 47
0.0
 48
0.0
 49
0.0
140
0.0
141
0.0
142
1.0
143
1.0
 70
   688
 72
     0
 73
     0
 74
     5
  7

 75
    16
147
1.0
 76
     0
 77
     2
 78
   300
148
0.0
149
0.0
100
AcDbLayout
  1
レイアウト1
 70
     1
 71
     1
 10
-584.0
 20
0.0
 11
0.0
 21
588.9623999834062
 12
0.0
 22
0.0
 32
0.0
 14
1.000000000000000E+20
 24
1.000000000000000E+20
 34
1.000000000000000E+20
 15
-1.000000000000000E+20
 25
-1.000000000000000E+20
 35
-1.000000000000000E+20
146
0.0
 13
0.0
 23
0.0
 33
0.0
 16
1.0
 26
0.0
 36
0.0
 17
0.0
 27
1.0
 37
0.0
 76
     0
330
1058
  0
MATERIAL
  5
100A
102
{ACAD_XDICTIONARY
360
100B
102
}
102
{ACAD_REACTORS
330
1001
102
}
330
1001
100
AcDbMaterial
  1
ByBlock
 72
     0
 43
0.0208333333333333
 43
0.0
 43
0.0
 43
0.0
 43
0.0
 43
0.0208333333333333
 43
0.0
 43
0.0
 43
0.0
 43
0.0
 43
1.0
 43
0.0
 43
0.0
 43
0.0
 43
0.0
 43
1.0
 77
     0
 47
0.0208333333333333
 47
0.0
 47
0.0
 47
0.0
 47
0.0
 47
0.0208333333333333
 47
0.0
 47
0.0
 47
0.0
 47
0.0
 47
1.0
 47
0.0
 47
0.0
 47
0.0
 47
0.0
 47
1.0
171
     0
 49
0.0208333333333333
 49
0.0
 49
0.0
 49
0.0
 49
0.0
 49
0.0208333333333333
 49
0.0
 49
0.0
 49
0.0
 49
0.0
 49
1.0
 49
0.0
 49
0.0
 49
0.0
 49
0.0
 49
1.0
175
     0
142
0.0208333333333333
142
0.0
142
0.0
142
0.0
142
0.0
142
0.0208333333333333
142
0.0
142
0.0
142
0.0
142
0.0
142
1.0
142
0.0
142
0.0
142
0.0
142
0.0
142
1.0
179
     0
144
0.0208333333333333
144
0.0
144
0.0
144
0.0
144
0.0
144
0.0208333333333333
144
0.0
144
0.0
144
0.0
144
0.0
144
1.0
144
0.0
144
0.0
144
0.0
144
0.0
144
1.0
147
0.0208333333333333
147
0.0
147
0.0
147
0.0
147
0.0
147
0.0208333333333333
147
0.0
147
0.0
147
0.0
147
0.0
147
1.0
147
0.0
147
0.0
147
0.0
147
0.0
147
1.0
  0
MATERIAL
  5
1002
102
{ACAD_XDICTIONARY
360
1003
102
}
102
{ACAD_REACTORS
330
1001
102
}
330
1001
100
AcDbMaterial
  1
ByLayer
 72
     0
 43
0.0208333333333333
 43
0.0
 43
0.0
 43
0.0
 43
0.0
 43
0.0208333333333333
 43
0.0
 43
0.0
 43
0.0
 43
0.0
 43
1.0
 43
0.0
 43
0.0
 43
0.0
 43
0.0
 43
1.0
 77
     0
 47
0.0208333333333333
 47
0.0
 47
0.0
 47
0.0
 47
0.0
 47
0.0208333333333333
 47
0.0
 47
0.0
 47
0.0
 47
0.0
 47
1.0
 47
0.0
 47
0.0
 47
0.0
 47
0.0
 47
1.0
171
     0
 49
0.0208333333333333
 49
0.0
 49
0.0
 49
0.0
 49
0.0
 49
0.0208333333333333
 49
0.0
 49
0.0
 49
0.0
 49
0.0
 49
1.0
 49
0.0
 49
0.0
 49
0.0
 49
0.0
 49
1.0
175
     0
142
0.0208333333333333
142
0.0
142
0.0
142
0.0
142
0.0
142
0.0208333333333333
142
0.0
142
0.0
142
0.0
142
0.0
142
1.0
142
0.0
142
0.0
142
0.0
142
0.0
142
1.0
179
     0
144
0.0208333333333333
144
0.0
144
0.0
144
0.0
144
0.0
144
0.0208333333333333
144
0.0
144
0.0
144
0.0
144
0.0
144
1.0
144
0.0
144
0.0
144
0.0
144
0.0
144
1.0
147
0.0208333333333333
147
0.0
147
0.0
147
0.0
147
0.0
147
0.0208333333333333
147
0.0
147
0.0
147
0.0
147
0.0
147
1.0
147
0.0
147
0.0
147
0.0
147
0.0
147
1.0
  0
MATERIAL
  5
1012
102
{ACAD_XDICTIONARY
360
1013
102
}
102
{ACAD_REACTORS
330
1001
102
}
330
1001
100
AcDbMaterial
  1
Global
 72
     0
 43
0.0208333333333333
 43
0.0
 43
0.0
 43
0.0
 43
0.0
 43
0.0208333333333333
 43
0.0
 43
0.0
 43
0.0
 43
0.0
 43
1.0
 43
0.0
 43
0.0
 43
0.0
 43
0.0
 43
1.0
 77
     0
 47
0.0208333333333333
 47
0.0
 47
0.0
 47
0.0
 47
0.0
 47
0.0208333333333333
 47
0.0
 47
0.0
 47
0.0
 47
0.0
 47
1.0
 47
0.0
 47
0.0
 47
0.0
 47
0.0
 47
1.0
171
     0
 49
0.0208333333333333
 49
0.0
 49
0.0
 49
0.0
 49
0.0
 49
0.0208333333333333
 49
0.0
 49
0.0
 49
0.0
 49
0.0
 49
1.0
 49
0.0
 49
0.0
 49
0.0
 49
0.0
 49
1.0
175
     0
142
0.0208333333333333
142
0.0
142
0.0
142
0.0
142
0.0
142
0.0208333333333333
142
0.0
142
0.0
142
0.0
142
0.0
142
1.0
142
0.0
142
0.0
142
0.0
142
0.0
142
1.0
179
     0
144
0.0208333333333333
144
0.0
144
0.0
144
0.0
144
0.0
144
0.0208333333333333
144
0.0
144
0.0
144
0.0
144
0.0
144
1.0
144
0.0
144
0.0
144
0.0
144
0.0
144
1.0
147
0.0208333333333333
147
0.0
147
0.0
147
0.0
147
0.0
147
0.0208333333333333
147
0.0
147
0.0
147
0.0
147
0.0
147
1.0
147
0.0
147
0.0
147
0.0
147
0.0
147
1.0
  0
MLEADERSTYLE
  5
1057
102
{ACAD_REACTORS
330
1056
102
}
330
1056
100
AcDbMLeaderStyle
170
     2
171
     1
172
     0
 90
        2
 40
0.0
 41
0.0
173
     1
 91
-1056964608
340
104B
 92
       -2
290
     1
 42
0.09
291
     1
 43
0.36
  3
Standard
 44
0.18
300

342
1046
174
     1
178
     6
175
     1
176
     0
 93
-1056964608
 45
0.18
292
     0
297
     0
 46
0.18
 94
-1056964608
 47
1.0
 49
1.0
140
1.0
293
     1
141
0.0
294
     1
177
     0
142
1.0
295
     0
296
     0
143
0.125
1001
ACAD_MLEADERVER
1070
     2
  0
MLINESTYLE
  5
1050
102
{ACAD_REACTORS
330
104F
102
}
330
104F
100
AcDbMlineStyle
  2
STANDARD
 70
     0
  3

 62
   256
 51
90.0
 52
90.0
 71
     2
 49
0.5
 62
   256
  6
BYLAYER
 49
-0.5
 62
   256
  6
BYLAYER
  0
ACDBPLACEHOLDER
  5
1000
102
{ACAD_REACTORS
330
FFF
102
}
330
FFF
  0
SCALE
  5
1034
102
{ACAD_REACTORS
330
1033
102
}
330
1033
100
AcDbScale
 70
     0
300
1:1
140
1.0
141
1.0
290
     1
  0
SCALE
  5
1035
102
{ACAD_REACTORS
330
1033
102
}
330
1033
100
AcDbScale
 70
     0
300
1/128" = 1'-0"
140
0.0078125
141
12.0
290
     0
  0
SCALE
  5
1036
102
{ACAD_REACTORS
330
1033
102
}
330
1033
100
AcDbScale
 70
     0
300
1/64" = 1'-0"
140
0.015625
141
12.0
290
     0
  0
SCALE
  5
1037
102
{ACAD_REACTORS
330
1033
102
}
330
1033
100
AcDbScale
 70
     0
300
1/32" = 1'-0"
140
0.03125
141
12.0
290
     0
  0
SCALE
  5
1038
102
{ACAD_REACTORS
330
1033
102
}
330
1033
100
AcDbScale
 70
     0
300
1/16" = 1'-0"
140
0.0625
141
12.0
290
     0
  0
SCALE
  5
1039
102
{ACAD_REACTORS
330
1033
102
}
330
1033
100
AcDbScale
 70
     0
300
3/32" = 1'-0"
140
0.09375
141
12.0
290
     0
  0
SCALE
  5
103A
102
{ACAD_REACTORS
330
1033
102
}
330
1033
100
AcDbScale
 70
     0
300
1/8" = 1'-0"
140
0.125
141
12.0
290
     0
  0
SCALE
  5
103B
102
{ACAD_REACTORS
330
1033
102
}
330
1033
100
AcDbScale
 70
     0
300
3/16" = 1'-0"
140
0.1875
141
12.0
290
     0
  0
SCALE
  5
103C
102
{ACAD_REACTORS
330
1033
102
}
330
1033
100
AcDbScale
 70
     0
300
1/4" = 1'-0"
140
0.25
141
12.0
290
     0
  0
SCALE
  5
103D
102
{ACAD_REACTORS
330
1033
102
}
330
1033
100
AcDbScale
 70
     0
300
3/8" = 1'-0"
140
0.375
141
12.0
290
     0
  0
SCALE
  5
103E
102
{ACAD_REACTORS
330
1033
102
}
330
1033
100
AcDbScale
 70
     0
300
1/2" = 1'-0"
140
0.5
141
12.0
290
     0
  0
SCALE
  5
103F
102
{ACAD_REACTORS
330
1033
102
}
330
1033
100
AcDbScale
 70
     0
300
3/4" = 1'-0"
140
0.75
141
12.0
290
     0
  0
SCALE
  5
1040
102
{ACAD_REACTORS
330
1033
102
}
330
1033
100
AcDbScale
 70
     0
300
1" = 1'-0"
140
1.0
141
12.0
290
     0
  0
SCALE
  5
1041
102
{ACAD_REACTORS
330
1033
102
}
330
1033
100
AcDbScale
 70
     0
300
1-1/2" = 1'-0"
140
1.5
141
12.0
290
     0
  0
SCALE
  5
1042
102
{ACAD_REACTORS
330
1033
102
}
330
1033
100
AcDbScale
 70
     0
300
3" = 1'-0"
140
3.0
141
12.0
290
     0
  0
SCALE
  5
1043
102
{ACAD_REACTORS
330
1033
102
}
330
1033
100
AcDbScale
 70
     0
300
6" = 1'-0"
140
6.0
141
12.0
290
     0
  0
SCALE
  5
1044
102
{ACAD_REACTORS
330
1033
102
}
330
1033
100
AcDbScale
 70
     0
300
1'-0" = 1'-0"
140
12.0
141
12.0
290
     0
  0
TABLESTYLE
  5
1055
102
{ACAD_XDICTIONARY
360
122A
102
}
102
{ACAD_REACTORS
330
1054
102
}
330
1054
100
AcDbTableStyle
  3
Standard
 70
     0
 71
     0
 40
0.06
 41
0.06
280
     0
281
     0
  7
STANDARD
140
0.18
170
     2
 62
     0
 63
     7
283
     0
274
    -2
284
     1
 64
     0
275
    -2
285
     1
 65
     0
276
    -2
286
     1
 66
     0
277
    -2
287
     1
 67
     0
278
    -2
288
     1
 68
     0
279
    -2
289
     1
 69
     0
  7
STANDARD
140
0.25
170
     5
 62
     0
 63
     7
283
     0
274
    -2
284
     1
 64
     0
275
    -2
285
     1
 65
     0
276
    -2
286
     1
 66
     0
277
    -2
287
     1
 67
     0
278
    -2
288
     1
 68
     0
279
    -2
289
     1
 69
     0
  7
STANDARD
140
0.18
170
     5
 62
     0
 63
     7
283
     0
274
    -2
284
     1
 64
     0
275
    -2
285
     1
 65
     0
276
    -2
286
     1
 66
     0
277
    -2
287
     1
 67
     0
278
    -2
288
     1
 68
     0
279
    -2
289
     1
 69
     0
  0
VISUALSTYLE
  5
1020
102
{ACAD_XDICTIONARY
360
22F5
102
}
102
{ACAD_REACTORS
330
101A
102
}
330
101A
100
AcDbVisualStyle
  2
2dWireframe
 70
     4
 71
     0
 72
     2
 73
     0
 90
        0
 40
-0.6
 41
-30.0
 62
     5
 63
     7
 74
     1
 91
        4
 64
     7
 65
   257
 75
     1
175
     1
 42
1.0
 92
        0
 66
   257
 43
1.0
 76
     1
 77
     6
 78
     2
 67
     7
 79
     5
170
     0
171
     0
290
     0
174
     0
 93
        1
 44
0.0
173
     0
291
     0
 45
0.0
1001
ACAD
1000
AcDbSavedByObjectVersion
1070
     0
  0
VISUALSTYLE
  5
1558
102
{ACAD_XDICTIONARY
360
2321
102
}
102
{ACAD_REACTORS
330
101A
102
}
330
101A
100
AcDbVisualStyle
  2
3D Hidden
 70
     6
 71
     1
 72
     2
 73
     2
 90
        0
 40
-0.6
 41
-30.0
 62
     5
 63
     7
 74
     2
 91
        2
 64
     7
 65
   257
 75
     2
175
     1
 42
179.0
 92
        0
 66
   257
 43
1.0
 76
     1
 77
     6
 78
     2
 67
     7
 79
     3
170
     0
171
     0
290
     0
174
     0
 93
        1
 44
0.0
173
     0
291
     0
 45
0.0
1001
ACAD
1000
AcDbSavedByObjectVersion
1070
     0
  0
VISUALSTYLE
  5
1557
102
{ACAD_XDICTIONARY
360
231F
102
}
102
{ACAD_REACTORS
330
101A
102
}
330
101A
100
AcDbVisualStyle
  2
3dWireframe
 70
     5
 71
     0
 72
     2
 73
     0
 90
        0
 40
-0.6
 41
-30.0
 62
     5
 63
     7
 74
     1
 91
        4
 64
     7
 65
   257
 75
     1
175
     1
 42
1.0
 92
        0
 66
   257
 43
1.0
 76
     1
 77
     6
 78
     2
 67
     7
 79
     5
170
     0
171
     0
290
     0
174
     0
 93
        1
 44
0.0
173
     0
291
     0
 45
0.0
1001
ACAD
1000
AcDbSavedByObjectVersion
1070
     0
  0
VISUALSTYLE
  5
101F
102
{ACAD_XDICTIONARY
360
22F3
102
}
102
{ACAD_REACTORS
330
101A
102
}
330
101A
100
AcDbVisualStyle
  2
Basic
 70
     7
 71
     1
 72
     0
 73
     1
 90
        0
 40
-0.6
 41
-30.0
 62
     5
 63
     7
 74
     0
 91
        4
 64
     7
 65
   257
 75
     1
175
     1
 42
1.0
 92
        8
 66
     7
 43
1.0
 76
     1
 77
     6
 78
     2
 67
     7
 79
     5
170
     0
171
     0
290
     0
174
     0
 93
        1
 44
0.0
173
     0
291
     1
 45
0.0
1001
ACAD
1000
AcDbSavedByObjectVersion
1070
     0
  0
VISUALSTYLE
  5
1026
102
{ACAD_XDICTIONARY
360
2301
102
}
102
{ACAD_REACTORS
330
101A
102
}
330
101A
100
AcDbVisualStyle
  2
Brighten
 70
    12
 71
     2
 72
     2
 73
     0
 90
        0
 40
-0.6
 41
-30.0
 62
     5
 63
     7
 74
     1
 91
        4
 64
     7
 65
   257
 75
     1
175
     1
 42
1.0
 92
        8
 66
     7
 43
1.0
 76
     1
 77
     6
 78
     2
 67
     7
 79
     5
170
     0
171
     0
290
     0
174
     0
 93
        1
 44
50.0
173
     0
291
     1
 45
0.0
1001
ACAD
1000
AcDbSavedByObjectVersion
1070
     0
  0
VISUALSTYLE
  5
102A
102
{ACAD_XDICTIONARY
360
2309
102
}
102
{ACAD_REACTORS
330
101A
102
}
330
101A
100
AcDbVisualStyle
  2
ColorChange
 70
    16
 71
     2
 72
     2
 73
     3
 90
        0
 40
-0.6
 41
-30.0
 62
     5
 63
     8
 74
     1
 91
        4
 64
     7
 65
   257
 75
     1
175
     1
 42
1.0
 92
        8
 66
     8
 43
1.0
 76
     1
 77
     6
 78
     2
 67
     7
 79
     5
170
     0
171
     0
290
     0
174
     0
 93
        1
 44
0.0
173
     0
291
     1
 45
0.0
1001
ACAD
1000
AcDbSavedByObjectVersion
1070
     0
  0
VISUALSTYLE
  5
1023
102
{ACAD_XDICTIONARY
360
22FB
102
}
102
{ACAD_REACTORS
330
101A
102
}
330
101A
100
AcDbVisualStyle
  2
Conceptual
 70
     9
 71
     3
 72
     2
 73
     0
 90
        0
 40
-0.6
 41
-30.0
 62
     5
 63
     7
 74
     2
 91
        2
 64
     7
 65
   257
 75
     1
175
     1
 42
179.0
 92
        8
 66
     7
 43
1.0
 76
     1
 77
     6
 78
     2
 67
     7
 79
     3
170
     0
171
     0
290
     0
174
     0
 93
        1
 44
0.0
173
     0
291
     0
 45
0.0
1001
ACAD
1000
AcDbSavedByObjectVersion
1070
     0
  0
VISUALSTYLE
  5
1025
102
{ACAD_XDICTIONARY
360
22FF
102
}
102
{ACAD_REACTORS
330
101A
102
}
330
101A
100
AcDbVisualStyle
  2
Dim
 70
    11
 71
     2
 72
     2
 73
     0
 90
        0
 40
-0.6
 41
-30.0
 62
     5
 63
     7
 74
     1
 91
        4
 64
     7
 65
   257
 75
     1
175
     1
 42
1.0
 92
        8
 66
     7
 43
1.0
 76
     1
 77
     6
 78
     2
 67
     7
 79
     5
170
     0
171
     0
290
     0
174
     0
 93
        1
 44
-50.0
173
     0
291
     1
 45
0.0
1001
ACAD
1000
AcDbSavedByObjectVersion
1070
     0
  0
VISUALSTYLE
  5
1032
102
{ACAD_XDICTIONARY
360
2319
102
}
102
{ACAD_REACTORS
330
101A
102
}
330
101A
100
AcDbVisualStyle
  2
EdgeColorOff
 70
    22
 71
     2
 72
     2
 73
     0
 90
        0
 40
-0.6
 41
-30.0
 62
     5
 63
     7
 74
     1
 91
        4
 64
     7
 65
   257
 75
     1
175
     1
 42
1.0
 92
        8
 66
     7
 43
1.0
 76
     1
 77
     6
 78
     2
 67
     7
 79
     5
170
     0
171
     0
290
     0
174
     0
 93
        1
 44
0.0
173
     0
291
     1
 45
0.0
1001
ACAD
1000
AcDbSavedByObjectVersion
1070
     0
  0
VISUALSTYLE
  5
1029
102
{ACAD_XDICTIONARY
360
2307
102
}
102
{ACAD_REACTORS
330
101A
102
}
330
101A
100
AcDbVisualStyle
  2
Facepattern
 70
    15
 71
     2
 72
     2
 73
     0
 90
        0
 40
-0.6
 41
-30.0
 62
     5
 63
     7
 74
     1
 91
        4
 64
     7
 65
   257
 75
     1
175
     1
 42
1.0
 92
        8
 66
     7
 43
1.0
 76
     1
 77
     6
 78
     2
 67
     7
 79
     5
170
     0
171
     0
290
     0
174
     0
 93
        1
 44
0.0
173
     0
291
     1
 45
0.0
1001
ACAD
1000
AcDbSavedByObjectVersion
1070
     0
  0
VISUALSTYLE
  5
101B
102
{ACAD_XDICTIONARY
360
22EB
102
}
102
{ACAD_REACTORS
330
101A
102
}
330
101A
100
AcDbVisualStyle
  2
Flat
 70
     0
 71
     2
 72
     1
 73
     1
 90
        2
 40
-0.6
 41
30.0
 62
     5
 63
     7
 74
     0
 91
        0
 64
     7
 65
   257
 75
     1
175
     1
 42
1.0
 92
        8
 66
     7
 43
1.0
 76
     1
 77
     6
 78
     2
 67
     7
 79
     5
170
     0
171
     0
290
     0
174
     0
 93
       13
 44
0.0
173
     0
291
     1
 45
0.0
1001
ACAD
1000
AcDbSavedByObjectVersion
1070
     0
  0
VISUALSTYLE
  5
101C
102
{ACAD_XDICTIONARY
360
22ED
102
}
102
{ACAD_REACTORS
330
101A
102
}
330
101A
100
AcDbVisualStyle
  2
FlatWithEdges
 70
     1
 71
     2
 72
     1
 73
     1
 90
        2
 40
-0.6
 41
30.0
 62
     5
 63
     7
 74
     1
 91
        0
 64
     7
 65
   257
 75
     1
175
     1
 42
1.0
 92
        0
 66
   257
 43
1.0
 76
     1
 77
     6
 78
     2
 67
     7
 79
     5
170
     0
171
     0
290
     0
174
     0
 93
       13
 44
0.0
173
     0
291
     1
 45
0.0
1001
ACAD
1000
AcDbSavedByObjectVersion
1070
     0
  0
VISUALSTYLE
  5
101D
102
{ACAD_XDICTIONARY
360
22EF
102
}
102
{ACAD_REACTORS
330
101A
102
}
330
101A
100
AcDbVisualStyle
  2
Gouraud
 70
     2
 71
     2
 72
     2
 73
     1
 90
        2
 40
-0.6
 41
30.0
 62
     5
 63
     7
 74
     0
 91
        0
 64
     7
 65
   257
 75
     1
175
     1
 42
1.0
 92
        0
 66
     7
 43
1.0
 76
     1
 77
     6
 78
     2
 67
     7
 79
     5
170
     0
171
     0
290
     0
174
     0
 93
       13
 44
0.0
173
     0
291
     1
 45
0.0
1001
ACAD
1000
AcDbSavedByObjectVersion
1070
     0
  0
VISUALSTYLE
  5
101E
102
{ACAD_XDICTIONARY
360
22F1
102
}
102
{ACAD_REACTORS
330
101A
102
}
330
101A
100
AcDbVisualStyle
  2
GouraudWithEdges
 70
     3
 71
     2
 72
     2
 73
     1
 90
        2
 40
-0.6
 41
30.0
 62
     5
 63
     7
 74
     1
 91
        0
 64
     7
 65
   257
 75
     1
175
     1
 42
1.0
 92
        0
 66
   257
 43
1.0
 76
     1
 77
     6
 78
     2
 67
     7
 79
     5
170
     0
171
     0
290
     0
174
     0
 93
       13
 44
0.0
173
     0
291
     1
 45
0.0
1001
ACAD
1000
AcDbSavedByObjectVersion
1070
     0
  0
VISUALSTYLE
  5
1022
102
{ACAD_XDICTIONARY
360
22F9
102
}
102
{ACAD_REACTORS
330
101A
102
}
330
101A
100
AcDbVisualStyle
  2
Hidden
 70
     6
 71
     1
 72
     2
 73
     2
 90
        0
 40
-0.6
 41
-30.0
 62
     5
 63
     7
 74
     2
 91
        2
 64
     7
 65
   257
 75
     2
175
     1
 42
40.0
 92
        0
 66
   257
 43
1.0
 76
     1
 77
     6
 78
     2
 67
     7
 79
     3
170
     0
171
     0
290
     0
174
     0
 93
        1
 44
0.0
173
     0
291
     0
 45
0.0
1001
ACAD
1000
AcDbSavedByObjectVersion
1070
     0
  0
VISUALSTYLE
  5
1030
102
{ACAD_XDICTIONARY
360
2315
102
}
102
{ACAD_REACTORS
330
101A
102
}
330
101A
100
AcDbVisualStyle
  2
JitterOff
 70
    20
 71
     2
 72
     2
 73
     0
 90
        0
 40
-0.6
 41
-30.0
 62
     5
 63
     7
 74
     1
 91
        4
 64
     7
 65
   257
 75
     1
175
     1
 42
1.0
 92
       10
 66
     7
 43
1.0
 76
     1
 77
     6
 78
     2
 67
     7
 79
     5
170
     0
171
     0
290
     0
174
     0
 93
        1
 44
0.0
173
     0
291
     1
 45
0.0
1001
ACAD
1000
AcDbSavedByObjectVersion
1070
     0
  0
VISUALSTYLE
  5
1028
102
{ACAD_XDICTIONARY
360
2305
102
}
102
{ACAD_REACTORS
330
101A
102
}
330
101A
100
AcDbVisualStyle
  2
Linepattern
 70
    14
 71
     2
 72
     2
 73
     0
 90
        0
 40
-0.6
 41
-30.0
 62
     5
 63
     7
 74
     1
 91
        4
 64
     7
 65
   257
 75
     7
175
     7
 42
1.0
 92
        8
 66
     7
 43
1.0
 76
     1
 77
     6
 78
     2
 67
     7
 79
     5
170
     0
171
     0
290
     0
174
     0
 93
        1
 44
0.0
173
     0
291
     1
 45
0.0
1001
ACAD
1000
AcDbSavedByObjectVersion
1070
     0
  0
VISUALSTYLE
  5
1031
102
{ACAD_XDICTIONARY
360
2317
102
}
102
{ACAD_REACTORS
330
101A
102
}
330
101A
100
AcDbVisualStyle
  2
OverhangOff
 70
    21
 71
     2
 72
     2
 73
     0
 90
        0
 40
-0.6
 41
-30.0
 62
     5
 63
     7
 74
     1
 91
        4
 64
     7
 65
   257
 75
     1
175
     1
 42
1.0
 92
        9
 66
     7
 43
1.0
 76
     1
 77
     6
 78
     2
 67
     7
 79
     5
170
     0
171
     0
290
     0
174
     0
 93
        1
 44
0.0
173
     0
291
     1
 45
0.0
1001
ACAD
1000
AcDbSavedByObjectVersion
1070
     0
  0
VISUALSTYLE
  5
1024
102
{ACAD_XDICTIONARY
360
22FD
102
}
102
{ACAD_REACTORS
330
101A
102
}
330
101A
100
AcDbVisualStyle
  2
Realistic
 70
     8
 71
     2
 72
     2
 73
     0
 90
        2
 40
-0.6
 41
30.0
 62
     5
 63
     7
 74
     0
 91
        0
 64
     7
 65
   257
 75
     1
175
     1
 42
1.0
 92
        8
 66
   257
 43
1.0
 76
     1
 77
     6
 78
     2
 67
     7
 79
     3
170
     0
171
     0
290
     0
174
     0
 93
       13
 44
0.0
173
     0
291
     0
 45
0.0
1001
ACAD
1000
AcDbSavedByObjectVersion
1070
     0
  0
VISUALSTYLE
  5
102F
102
{ACAD_XDICTIONARY
360
2313
102
}
102
{ACAD_REACTORS
330
101A
102
}
330
101A
100
AcDbVisualStyle
  2
Shaded
 70
    27
 71
     2
 72
     2
 73
     1
 90
        2
 40
-0.6
 41
30.0
 62
     5
 63
     7
 74
     0
 91
        4
 64
     7
 65
   257
 75
     1
175
     1
 42
1.0
 92
        8
 66
   257
 43
1.0
 76
     1
 77
     6
 78
     2
 67
     8
 79
     3
170
     0
171
     0
290
     0
174
     0
 93
        5
 44
0.0
173
     0
291
     0
 45
0.0
1001
ACAD
1000
AcDbSavedByObjectVersion
1070
     0
  0
VISUALSTYLE
  5
102E
102
{ACAD_XDICTIONARY
360
2311
102
}
102
{ACAD_REACTORS
330
101A
102
}
330
101A
100
AcDbVisualStyle
  2
Shaded with edges
 70
    26
 71
     2
 72
     2
 73
     1
 90
        2
 40
-0.6
 41
30.0
 62
     5
 63
     7
 74
     1
 91
       10
 64
     7
 65
   257
 75
     2
175
     1
 42
1.0
 92
        8
 66
   257
 43
1.0
 76
     1
 77
     6
 78
     2
 67
     7
 79
     3
170
     0
171
     0
290
     0
174
     0
 93
        5
 44
0.0
173
     0
291
     0
 45
0.0
1001
ACAD
1000
AcDbSavedByObjectVersion
1070
     0
  0
VISUALSTYLE
  5
102B
102
{ACAD_XDICTIONARY
360
230B
102
}
102
{ACAD_REACTORS
330
101A
102
}
330
101A
100
AcDbVisualStyle
  2
Shades of Gray
 70
    23
 71
     2
 72
     2
 73
     3
 90
        0
 40
-0.6
 41
-30.0
 62
     5
 63
     7
 74
     2
 91
        2
 64
     7
 65
     7
 75
     1
175
     1
 42
40.0
 92
        8
 66
     7
 43
1.0
 76
     1
 77
     6
 78
     2
 67
     7
 79
     3
170
     0
171
     0
290
     0
174
     0
 93
        1
 44
0.0
173
     0
291
     0
 45
0.0
1001
ACAD
1000
AcDbSavedByObjectVersion
1070
     0
  0
VISUALSTYLE
  5
102C
102
{ACAD_XDICTIONARY
360
230D
102
}
102
{ACAD_REACTORS
330
101A
102
}
330
101A
100
AcDbVisualStyle
  2
Sketchy
 70
    24
 71
     1
 72
     2
 73
     2
 90
        0
 40
-0.6
 41
-30.0
 62
     5
 63
     7
 74
     2
 91
        2
 64
     7
 65
     7
 75
     1
175
     1
 42
40.0
 92
       11
 66
     7
 43
1.0
 76
     1
 77
     6
 78
     2
 67
     7
 79
     6
170
     0
171
     0
290
     0
174
     0
 93
        1
 44
0.0
173
     0
291
     0
 45
0.0
1001
ACAD
1000
AcDbSavedByObjectVersion
1070
     0
  0
VISUALSTYLE
  5
1027
102
{ACAD_XDICTIONARY
360
2303
102
}
102
{ACAD_REACTORS
330
101A
102
}
330
101A
100
AcDbVisualStyle
  2
Thicken
 70
    13
 71
     2
 72
     2
 73
     0
 90
        0
 40
-0.6
 41
-30.0
 62
     5
 63
     7
 74
     1
 91
        4
 64
     7
 65
   257
 75
     1
175
     1
 42
1.0
 92
       12
 66
     7
 43
1.0
 76
     1
 77
     6
 78
     2
 67
     7
 79
     5
170
     0
171
     0
290
     0
174
     0
 93
        1
 44
0.0
173
     0
291
     1
 45
0.0
1001
ACAD
1000
AcDbSavedByObjectVersion
1070
     0
  0
VISUALSTYLE
  5
1021
102
{ACAD_XDICTIONARY
360
22F7
102
}
102
{ACAD_REACTORS
330
101A
102
}
330
101A
100
AcDbVisualStyle
  2
Wireframe
 70
     5
 71
     0
 72
     2
 73
     0
 90
        0
 40
-0.6
 41
-30.0
 62
     5
 63
     7
 74
     1
 91
        4
 64
     7
 65
   257
 75
     1
175
     1
 42
1.0
 92
        0
 66
   257
 43
1.0
 76
     1
 77
     6
 78
     2
 67
     7
 79
     3
170
     0
171
     0
290
     0
174
     0
 93
        1
 44
0.0
173
     0
291
     0
 45
0.0
1001
ACAD
1000
AcDbSavedByObjectVersion
1070
     0
  0
VISUALSTYLE
  5
102D
102
{ACAD_XDICTIONARY
360
230F
102
}
102
{ACAD_REACTORS
330
101A
102
}
330
101A
100
AcDbVisualStyle
  2
X-Ray
 70
    25
 71
     2
 72
     2
 73
     1
 90
        1
 40
0.5
 41
-30.0
 62
     5
 63
     7
 74
     1
 91
        0
 64
     7
 65
   257
 75
     1
175
     1
 42
1.0
 92
        8
 66
     7
 43
1.0
 76
     1
 77
     6
 78
     2
 67
     7
 79
     3
170
     0
171
     0
290
     0
174
     0
 93
       13
 44
0.0
173
     0
291
     0
 45
0.0
1001
ACAD
1000
AcDbSavedByObjectVersion
1070
     0
  0
DICTIONARYVAR
  5
126C
102
{ACAD_REACTORS
330
1269
102
}
330
1269
100
DictionaryVariables
280
     0
  1
1:1
  0
DICTIONARYVAR
  5
126B
102
{ACAD_REACTORS
330
1269
102
}
330
1269
100
DictionaryVariables
280
     0
  1
STANDARD
  0
DICTIONARYVAR
  5
126A
102
{ACAD_REACTORS
330
1269
102
}
330
1269
100
DictionaryVariables
280
     0
  1
STANDARD
  0
DICTIONARYVAR
  5
126F
102
{ACAD_REACTORS
330
1269
102
}
330
1269
100
DictionaryVariables
280
     0
  1
1
  0
DICTIONARYVAR
  5
126E
102
{ACAD_REACTORS
330
1269
102
}
330
1269
100
DictionaryVariables
280
     0
  1
0
  0
DICTIONARYVAR
  5
1569
102
{ACAD_REACTORS
330
1269
102
}
330
1269
100
DictionaryVariables
280
     0
  1
1
  0
DICTIONARYVAR
  5
156A
102
{ACAD_REACTORS
330
1269
102
}
330
1269
100
DictionaryVariables
280
     0
  1
15
  0
DICTIONARYVAR
  5
1568
102
{ACAD_REACTORS
330
1269
102
}
330
1269
100
DictionaryVariables
280
     0
  1
0
  0
DICTIONARYVAR
  5
1567
102
{ACAD_REACTORS
330
1269
102
}
330
1269
100
DictionaryVariables
280
     0
  1
0
  0
DICTIONARYVAR
  5
15E4
102
{ACAD_REACTORS
330
1269
102
}
330
1269
100
DictionaryVariables
280
     0
  1
1
  0
DICTIONARYVAR
  5
126D
102
{ACAD_REACTORS
330
1269
102
}
330
1269
100
DictionaryVariables
280
     0
  1
127
  0
DICTIONARYVAR
  5
2360
102
{ACAD_REACTORS
330
1269
102
}
330
1269
100
DictionaryVariables
280
     0
  1
2
  0
DICTIONARY
  5
11F8
102
{ACAD_REACTORS
330
11EF
102
}
330
11EF
100
AcDbDictionary
281
     1
  0
DICTIONARY
  5
1565
330
105F
100
AcDbDictionary
280
     1
281
     1
  3
ADSK_XREC_LAYOUTTHUMBNAIL
360
1566
  0
DICTIONARY
  5
100B
330
100A
100
AcDbDictionary
280
     1
281
     1
  3
ACAD_XREC_ROUNDTRIP
360
2369
  3
BUMPTILE
360
100D
  3
DIFFUSETILE
360
100C
  3
OPACITYTILE
360
1010
  3
REFLECTIONTILE
360
100F
  3
REFRACTIONTILE
360
1011
  3
SPECULARTILE
360
100E
  0
DICTIONARY
  5
1003
330
1002
100
AcDbDictionary
280
     1
281
     1
  3
ACAD_XREC_ROUNDTRIP
360
2368
  3
BUMPTILE
360
1005
  3
DIFFUSETILE
360
1004
  3
OPACITYTILE
360
1008
  3
REFLECTIONTILE
360
1007
  3
REFRACTIONTILE
360
1009
  3
SPECULARTILE
360
1006
  0
DICTIONARY
  5
1013
330
1012
100
AcDbDictionary
280
     1
281
     1
  3
ACAD_XREC_ROUNDTRIP
360
236A
  3
BUMPTILE
360
1015
  3
DIFFUSETILE
360
1014
  3
OPACITYTILE
360
1018
  3
REFLECTIONTILE
360
1017
  3
REFRACTIONTILE
360
1019
  3
SPECULARTILE
360
1016
  0
DICTIONARY
  5
122A
330
1055
100
AcDbDictionary
280
     1
281
     1
  3
ACAD_ROUNDTRIP_2008_TABLESTYLE_CELLSTYLEMAP
360
2361
  3
ACAD_XREC_ROUNDTRIP
360
236B
  0
DICTIONARY
  5
22F5
330
1020
100
AcDbDictionary
280
     1
281
     1
  3
ACAD_XREC_ROUNDTRIP
360
22F6
  0
DICTIONARY
  5
2321
330
1558
100
AcDbDictionary
280
     1
281
     1
  3
ACAD_XREC_ROUNDTRIP
360
2322
  0
DICTIONARY
  5
231F
330
1557
100
AcDbDictionary
280
     1
281
     1
  3
ACAD_XREC_ROUNDTRIP
360
2320
  0
DICTIONARY
  5
22F3
330
101F
100
AcDbDictionary
280
     1
281
     1
  3
ACAD_XREC_ROUNDTRIP
360
22F4
  0
DICTIONARY
  5
2301
330
1026
100
AcDbDictionary
280
     1
281
     1
  3
ACAD_XREC_ROUNDTRIP
360
2302
  0
DICTIONARY
  5
2309
330
102A
100
AcDbDictionary
280
     1
281
     1
  3
ACAD_XREC_ROUNDTRIP
360
230A
  0
DICTIONARY
  5
22FB
330
1023
100
AcDbDictionary
280
     1
281
     1
  3
ACAD_XREC_ROUNDTRIP
360
22FC
  0
DICTIONARY
  5
22FF
330
1025
100
AcDbDictionary
280
     1
281
     1
  3
ACAD_XREC_ROUNDTRIP
360
2300
  0
DICTIONARY
  5
2319
330
1032
100
AcDbDictionary
280
     1
281
     1
  3
ACAD_XREC_ROUNDTRIP
360
231A
  0
DICTIONARY
  5
2307
330
1029
100
AcDbDictionary
280
     1
281
     1
  3
ACAD_XREC_ROUNDTRIP
360
2308
  0
DICTIONARY
  5
22EB
330
101B
100
AcDbDictionary
280
     1
281
     1
  3
ACAD_XREC_ROUNDTRIP
360
22EC
  0
DICTIONARY
  5
22ED
330
101C
100
AcDbDictionary
280
     1
281
     1
  3
ACAD_XREC_ROUNDTRIP
360
22EE
  0
DICTIONARY
  5
22EF
330
101D
100
AcDbDictionary
280
     1
281
     1
  3
ACAD_XREC_ROUNDTRIP
360
22F0
  0
DICTIONARY
  5
22F1
330
101E
100
AcDbDictionary
280
     1
281
     1
  3
ACAD_XREC_ROUNDTRIP
360
22F2
  0
DICTIONARY
  5
22F9
330
1022
100
AcDbDictionary
280
     1
281
     1
  3
ACAD_XREC_ROUNDTRIP
360
22FA
  0
DICTIONARY
  5
2315
330
1030
100
AcDbDictionary
280
     1
281
     1
  3
ACAD_XREC_ROUNDTRIP
360
2316
  0
DICTIONARY
  5
2305
330
1028
100
AcDbDictionary
280
     1
281
     1
  3
ACAD_XREC_ROUNDTRIP
360
2306
  0
DICTIONARY
  5
2317
330
1031
100
AcDbDictionary
280
     1
281
     1
  3
ACAD_XREC_ROUNDTRIP
360
2318
  0
DICTIONARY
  5
22FD
330
1024
100
AcDbDictionary
280
     1
281
     1
  3
ACAD_XREC_ROUNDTRIP
360
22FE
  0
DICTIONARY
  5
2313
330
102F
100
AcDbDictionary
280
     1
281
     1
  3
ACAD_XREC_ROUNDTRIP
360
2314
  0
DICTIONARY
  5
2311
330
102E
100
AcDbDictionary
280
     1
281
     1
  3
ACAD_XREC_ROUNDTRIP
360
2312
  0
DICTIONARY
  5
230B
330
102B
100
AcDbDictionary
280
     1
281
     1
  3
ACAD_XREC_ROUNDTRIP
360
230C
  0
DICTIONARY
  5
230D
330
102C
100
AcDbDictionary
280
     1
281
     1
  3
ACAD_XREC_ROUNDTRIP
360
230E
  0
DICTIONARY
  5
2303
330
1027
100
AcDbDictionary
280
     1
281
     1
  3
ACAD_XREC_ROUNDTRIP
360
2304
  0
DICTIONARY
  5
22F7
330
1021
100
AcDbDictionary
280
     1
281
     1
  3
ACAD_XREC_ROUNDTRIP
360
22F8
  0
DICTIONARY
  5
230F
330
102D
100
AcDbDictionary
280
     1
281
     1
  3
ACAD_XREC_ROUNDTRIP
360
2310
  0
XRECORD
  5
1566
102
{ACAD_REACTORS
330
1565
102
}
330
1565
100
AcDbXrecord
280
     1
310
28000000000100007C0000000100080000000000007C0000000000000000000000010000000000000000000000000000FFFFFF000000000000000000000000000000000000000000000000000000000000000000330000006600000099000000CC000000FF00000000330000333300006633000099330000CC330000FF3300
310
0000660000336600006666000099660000CC660000FF66000000990000339900006699000099990000CC990000FF99000000CC000033CC000066CC000099CC0000CCCC0000FFCC000000FF000033FF000066FF000099FF0000CCFF0000FFFF000000003300330033006600330099003300CC003300FF003300003333003333
310
33006633330099333300CC333300FF33330000663300336633006666330099663300CC663300FF66330000993300339933006699330099993300CC993300FF99330000CC330033CC330066CC330099CC3300CCCC3300FFCC330000FF330033FF330066FF330099FF3300CCFF3300FFFF330000006600330066006600660099
310
006600CC006600FF00660000336600333366006633660099336600CC336600FF33660000666600336666006666660099666600CC666600FF66660000996600339966006699660099996600CC996600FF99660000CC660033CC660066CC660099CC6600CCCC6600FFCC660000FF660033FF660066FF660099FF6600CCFF6600
310
FFFF660000009900330099006600990099009900CC009900FF00990000339900333399006633990099339900CC339900FF33990000669900336699006666990099669900CC669900FF66990000999900339999006699990099999900CC999900FF99990000CC990033CC990066CC990099CC9900CCCC9900FFCC990000FF99
310
0033FF990066FF990099FF9900CCFF9900FFFF99000000CC003300CC006600CC009900CC00CC00CC00FF00CC000033CC003333CC006633CC009933CC00CC33CC00FF33CC000066CC003366CC006666CC009966CC00CC66CC00FF66CC000099CC003399CC006699CC009999CC00CC99CC00FF99CC0000CCCC0033CCCC0066CC
310
CC0099CCCC00CCCCCC00FFCCCC0000FFCC0033FFCC0066FFCC0099FFCC00CCFFCC00FFFFCC000000FF003300FF006600FF009900FF00CC00FF00FF00FF000033FF003333FF006633FF009933FF00CC33FF00FF33FF000066FF003366FF006666FF009966FF00CC66FF00FF66FF000099FF003399FF006699FF009999FF00CC
310
99FF00FF99FF0000CCFF0033CCFF0066CCFF0099CCFF00CCCCFF00FFCCFF0000FFFF0033FFFF0066FFFF0099FFFF00CCFFFF00FFFFFF00000000000D0D0D001A1A1A00282828003535350043434300505050005D5D5D006B6B6B00787878008686860093939300A1A1A100AEAEAE00BBBBBB00C9C9C900D6D6D600E4E4E400
310
F1F1F100FFFFFF0000000000000000000000000000000000000000000000000000000000000000000000000000000000E2E2E2E2E2E2E2E2E2E2E2E2E2E2E2E2E2E2E2E2E2E2E2E2E2E2E2E2E2E2E2E2E2E2E2E2E2E2E2E2E2E2E2E2E2E2E2E2E2E2E2E2E2E2E2E2E2E2E2E2E2E2E2E2E2E2E2E2E2E2E2E2E2E2E2E2E2E2E2
310
E2E2E2E2E2E2E2E2E2E2E2E2E2E2E2E2E2E2E2E2E2E2E2E2E2E2E2E2E2E2E2E2E2E2E2E2E2E2E2E2E2E2E2E2E2E2E2E2E2E2E2E2E2E2E2E2E2E2E2E2E2E2E2E2E2E2E2E2E2E2E2E2E2E2E2E2E2E2E2E2E2E2E2E2E2E2E2E2E2E2E2E2E2E2E2E2E2E2E2E2E2E2E2E2E2E2E2E2E2E2E2E2E2E2E2E2E2E2E2E2E2E2E2E2E2E2E2
310
E2E2E2E2E2E2E2E2E2E2E2E2E2E2E2E2E2E2E2E2E2E2E2E2E2E2E2E2E2E2E2E2E2E2E2E2E2E2E2E2E2E2E2E2E2E2E2E2E2E2E2E2E2E2E2E2E2E2E2E2E2E2E2E2E2E2E2E2E2E2E2E2E2E2E2E2E2E2E2E2E2E2E2E2E2E2E2E2E2E2E2E2E2E2E2E2E2E2E2E2E2E2E2E2E2E2E2E2E2E2E2E2E2E2E2E2E2E2E2E2E2E2E2E2E2E2E2
310
E2E2E2E2E2E2E2E2E2E2E2E2E2E2E2E2E2E2E2E2E2E2E2E2E2E2E2E2E2E2E2E2E2E2E2E2E2E2E2E2E2E2E2E2E2E2E2E2E2E2E2E2E2E2E2E2E2E2E2E2E2E2E2E2E2E2E2E2E2E2E2E2E2E2E2E2E2E2E2E2E2E2E2E2E2E2E2E2E2E2E2E2E2E2E2E2E2E2E2E2E2E2E2E2E2E2E2E2E2E2E2E2E2E2E2E2E2E2E2E2E2E2E2E2E2E2E2
310
E2E2E2E2E2E2E2E2E2E2E2E2E2E2E2E2E2E2E2E2E2E2E2E2E2E2E2E2E2E2E2E2E2E2E2E2E2E2E2E2E2E2E2E2E2E2E2E2E2E2E2E2E2E2E2E2E2E2E2E2E2E2E2E2E2E2E2E2E2E2E2E2E2E2E2E2E2E2E2E2E2E2E2E2E2E2E2E2E2E2E2E2E2E2E2E2E2E2E2E2E2E2E2E2E2E2E2E2E2E2E2E2E2E2E2E2E2E2E2E2E2E2E2E2E2E2E2
310
E2E2E2E2E2E2E2E2E2E2E2E2E2E2E2E2E2E2E2E2E2E2E2E2E2E2E2E2E2E2E2E2E2E2E2E2E2E2E2E2E2E2E2E2E2E2E2E2E2E2E2E2E2E2E2E2E2E2E2E2E2E2E2E2E2E2E2E2E2E2E2E2E2E2E2E2E2E2E2E2E2E2E2E2E2E2E2E2E2E2E2E2E2E2E2E2E2E2E2E2E2E2E2E2E2E2E2E2E2E2E2E2E2E2E2E2E2E2E2E2E2E2E2E2E2E2E2
310
E2E2E2E2E2E2E2E2E2E2E2E2E2E2E2E2E2E2E2E2E2E2E2E2E2E2E2E2E2E2E2E2E2E2E2E2E2E2E2E2E2E2E2E2E2E2E2E2E2E2E2E2E2E2E2E2E2E2E2E2E2E2E2E2E2E2E2E2E2E2E2E2E2E2E2E2E2E2E2E2E2E2E2E2E2E2E2E2E2E2E2E2E2E2E2E2E2E2E2E2E2E2E2E2E2E2E2E2E2E2E2E2E2E2E2E2E2E2E2E2E2E2E2E2E2E2E2
310
E2E2E2E2E2E2E2E2E2E2E2E2E2E2E2E2E2E2E2E2E2E2E2E2E2E2E2E2E2E2E2E2E2E2E2E2E2E2E2E2E2E2E2E2E2E2E2E2E2E2E2E2E2E2E2E2E2E2E2E2E2E2E2E2E2E2E2E2E2E2E2E2E2E2E2E2E2E2E2E2E2E2E2E2E2E2E2E2E2E2E2E2E2E2E2E2E2E2E2E2E2E2E2E2E2E2E2E2E2E2E2E2E2E2E2E2E2E2E2E2E2E2E2E2E2E2E2
310
E2E2E2E2E2E2E2E2E2E2E2E2E2E2E2E2E2E2E2E2E2E2E2E2E2E2E2E2E2E2E2E2E2E2E2E2E2E2E2E2E2E2E2E2E2E2E2E2E2E2E2E2E2E2E2E2E2E2E2E2E2E2E2E2E2E2E2E2E2E2E2E2E2E2E2E2E2E2E2E2E2E2E2E2E2E2E2E2E2E2E2E2E2E2E2E2E2E2E2E2E2E2E2E2E2E2E2E2E2E2E2E2E2E2E2E2E2E2E2E2E2E2E2E2E2E2E2
310
E2E2E2E2E2E2E2E2E2E2E2E2E2E2E2E2E2E2E2E2E2E2E2E2E2E2E2E2E2E2E2E2E2E2E2E2E2E2E2E2E2E2E2E2E2E2E2E2E2E2E2E2E2E2E2E2E2E2E2E2E2E2E2E2E2E2E2E2E2E2E2E2E2E2E2E2E2E2E2E2E2E2E2E2E2E2E2E2E2E2E2E2E2E2E2E2E2E2E2E2E2E2E2E2E2E2E2E2E2E2E2E2E2E2E2E2E2E2E2E2E2E2E2E2E2E2E2
310
E2E2E2E2E2E2E2E2E2E2E2E2E2E2E2E2E2E2E2E2E2E2E2E2E2E2E2E2E2E2E2E2E2E2E2E2E2E2E2E2E2E2E2E2E2E2E2E2E2E2E2E2E2E2E2E2E2E2E2E2E2E2E2E2E2E2E2E2E2E2E2E2E2E2E2E2E2E2E2E2E2E2E2E2E2E2E2E2E2E2E2E2E2E2E2E2E2E2E2E2E2E2E2E2E2E2E2E2E2E2E2E2E2E2E2E2E2E2E2E2E2E2E2E2E2E2E2
310
E2E2E2E2E2E2E2E2E2E2E2E2E2E2E2E2E2E2E2E2E2E2E2E2E2E2E2E2E2E2E2E2E2E2E2E2E2E2E2E2E2E2E2E2E2E2E2E2E2E2E2E2E2E2E2E2E2E2E2E2E2E2E2E2E2E2E2E2E2E2E2E2E2E2E2E2E2E2E2E2E2E2E2E2E2E2E2E2E2E2E2E2E2E2E2E2E2E2E2E2E2E2E2E2E2E2E2E2E2E2E2E2E2E2E2E2E2E2E2E2E2E2E2E2E2E2E2
310
E2E2E2E2E2E2E2E2E2E2E2E2E2E2E2E2E2E2E2E2E2E2E2E2E2E2E2E2E2E2E2E2E2E2E2E2E2E2E2E2E2E2E2E2E2E2E2E2E2E2E2E2E2E2E2E2E2E2E2E2E2E2E2E2E2E2E2E2E2E2E2E2E2E2E2E2E2E2E2E2E2E2E2E2E2E2E2E2E2E2E2E2E2E2E2E2E2E2E2E2E2E2E2E2E2E2E2E2E2E2E2E2E2E2E2E2E2E2E2E2E2E2E2E2E2E2E2
310
E2E2E2E2E2E2E2E2E2E2E2E2E2E2E2E2E2E2E2E2E2E2E2E2E2E2E2E2E2E2E2E2E2E2E2E2E2E2E2E2E2E2E2E2E2E2E2E2E2E2E2E2E2E2E2E2E2E2E2E2E2E2E2E2E2E2E2E2E2E2E2E2E2E2E2E2E2E2E2E2E2E2E2E2E2E2E2E2E2E2E2E2E2E2E2E2E2E2E2E2E2E2E2E2E2E2E2E2E2E2E2E2E2E2E2E2E2E2E2E2E2E2E2E2E2E2E2
310
E2E2E2E2E2E2E2E2E2E2E2E2E2E2E2E2E2E2E2E2E2E2E2E2E2E2E2E2E2E2E2E2E2E2E2E2E2E2E2E2E2E2E2E2E2E2E2E2E2E2E2E2E2E2E2E2E2E2E2E2E2E2E2E2E2E2E2E2E2E2E2E2E2E2E2E2E2E2E2E2E2E2E2E2E2E2E2E2E2E2E2E2E2E2E2E2E2E2E2E2E2E2E2E2E2E2E2E2E2E2E2E2E2E2E2E2E2E2E2E2E2E2E2E2E2E2E2
310
E2E2E2E2E2E2E2E2E2E2E2E2E2E2E2E2E2E2E2E2E2E2E2E2E2E2E2E2E2E2E2E2E2E2E2E2E2E2E2E2E2E2E2E2E2E2E2E2E2E2E2E2E2E2E2E2E2E2E2E2E2E2E2E2E2E2E2E2E2E2E2E2E2E2E2E2E2E2E2E2E2E2E2E2E2E2E2E2E2E2E2E2E2E2E2E2E2E2E2E2E2E2E2E2E2E2E2E2E2E2E2E2E2E2E2E2E2E2E2E2E2E2E2E2E2E2E2
310
E2E2E2E2E2E2E2E2E2E2E2E2E2E2E2E2E2E2E2E2E2E2E2E2E2E2E2E2E2E2E2E2E2E2E2E2E2E2E2E2E2E2E2E2E2E2E2E2E2E2E2E2E2E2E2E2E2E2E2E2E2E2E2E2E2E2E2E2E2E2E2E2E2E2E2E2E2E2E2E2E2E2E2E2E2E2E2E2E2E2E2E2E2E2E2E2E2E2E2E2E2E2E2E2E2E2E2E2E2E2E2E2E2E2E2E2E2E2E2E2E2E2E2E2E2E2E2
310
E2E2E2E2E2E2E2E2E2E2E2E2E2E2E2E2E2E2E2E2E2E2E2E2E2E2E2E2E2E2E2E2E2E2E2E2E2E2E2E2E2E2E2E2E2E2E2E2E2E2E2E2E2E2E2E2E2E2E2E2E2E2E2E2E2E2E2E2E2E2E2E2E2E2E2E2E2E2E2E2E2E2E2E2E2E2E2E2E2E2E2E2E2E2E2E2E2E2E2E2E2E2E2E2E2E2E2E2E2E2E2E2E2E2E2E2E2E2E2E2E2E2E2E2E2E2E2
310
E2E2E2E2E2E2E2E2E2E2E2E2E2E2E2E2E2E2E2E2E2E2E2E2E2E2E2E2E2E2E2E2E2E2E2E2E2E2E2E2E2E2E2E2E2E2E2E2E2E2E2E2E2E2E2E2E2E2E2E2E2E2E2E2E2E2E2E2E2E2E2E2E2E2E2E2E2E2E2E2E2E2E2E2E2E2E2E2E2E2E2E2E2E2E2E2E2E2E2E2E2E2E2E2E2E2E2E2E2E2E2E2E2E2E2E2E2E2E2E2E2E2E2E2E2E2E2
310
E2E2E2E2E2E2E2E2E2E2E2E2E2E2E2E2E2E2E2E2E2E2E2E2E2E2E2E2E2E2E2E2E2E2E2E2E2E2E2E2E2E2E2E2E2E2E2E2E2E2E2E2E2E2E2E2E2E2E2E2E2E2E2E2E2E2E2E2E2E2E2E2E2E2E2E2E2E2E2E2E2E2E2E2E2E2E2E2E2E2E2E2E2E2E2E2E2E2E2E2E2E2E2E2E2E2E2E2E2E2E2E2E2E2E2E2E2E2E2E2E2E2E2E2E2E2E2
310
E2E2E2E2E2E2E2E2E2E2E2E2E2E2E2E2E2E2E2E2E2E2E2E2E2E2E2E2E2E2E2E2E2E2E2E2E2E2E2E2E2E2E2E2E2E2E2E2E2E2E2E2E2E2E2E2E2E2E2E2E2E2E2E2E2E2E2E2E2E2E2E2E2E2E2E2E2E2E2E2E2E2E2E2E2E2E2E2E2E2E2E2E2E2E2E2E2E2E2E2E2E2E2E2E2E2E2E2E2E2E2E2E2E2E2E2E2E2E2E2E2E2E2E2E2E2E2
310
E2E2E2E2E2E2E2E2E2E2E2E2E2E2E2E2E2E2E2E2E2E2E2E2E2E2E2E2E2E2E2E2E2E2E2E2E2E2E2E2E2E2E2E2E2E2E2E2E2E2E2E2E2E2E2E2E2E2E2E2E2E2E2E2E2E2E2E2E2E2E2E2E2E2E2E2E2E2E2E2E2E2E2E2E2E2E2E2E2E2E2E2E2E2E2E2E2E2E2E2E2E2E2E2E2E2E2E2E2E2E2E2E2E2E2E2E2E2E2E2E2E2E2E2E2E2E2
310
E2E2E2E2E2E2E2E2E2E2E2E2E2E2E2E2E2E2E2E2E2E2E2E2E2E2E2E2E2E2E2E2E2E2E2E2E2E2E2E2E2E2E2E2E2E2E2E2E2E2E2E2E2E2E2E2E2E2E2E2E2E2E2E2E2E2E2E2E2E2E2E2E2E2E2E2E2E2E2E2E2E2E2E2E2E2E2E2E2E2E2E2E2E2E2E2E2E2E2E2E2E2E2E2E2E2E2E2E2E2E2E2E2E2E2E2E2E2E2E2E2E2E2E2E2E2E2
310
E2E2E2E2E2E2E2E2E2E2E2E2E2E2E2E2E2E2E2E2E2E2E2E2E2E2E2E2E2E2E2E2E2E2E2E2E2E2E2E2E2E2E2E2E2E2E2E2E2E2E2E2E2E2E2E2E2E2E2E2E2E2E2E2E2E2E2E2E2E2E2E2E2E2E2E2E2E2E2E2E2E2E2E2E2E2E2E2E2E2E2E2E2E2E2E2E2E2E2E2E2E2E2E2E2E2E2E2E2E2E2E2E2E2E2E2E2E2E2E2E2E2E2E2E2E2E2
310
E2E2E2E2E2E2E2E2E2E2E2E2E2E2E2E2E2E2E2E2E2E2E2E2E2E2E2E2E2E2E2E2E2E2E2E2E2E2E2E2E2E2E2E2E2E2E2E2E2E2E2E2E2E2E2E2E2E2E2E2E2E2E2E2E2E2E2E2E2E2E2E2E2E2E2E2E2E2E2E2E2E2E2E2E2E2E2E2E2E2E2E2E2E2E2E2E2E2E2E2E2E2E2E2E2E2E2E2E2E2E2E2E2E2E2E2E2E2E2E2E2E2E2E2E2E2E2
310
E2E2E2E2E2E2E2E2E2E2E2E2E2E2E2E2E2E2E2E2E2E2E2E2E2E2E2E2E2E2E2E2E2E2E2E2E2E2E2E2E2E2E2E2E2E2E2E2E2E2E2E2E2E2E2E2E2E2E2E2E2E2E2E2E2E2E2E2E2E2E2E2E2E2E2E2E2E2E2E2E2E2E2E2E2E2E2E2E2E2E2E2E2E2E2E2E2E2E2E2E2E2E2E2E2E2E2E2E2E2E2E2E2E2E2E2E2E2E2E2E2E2E2E2E2E2E2
310
E2E2E2E2E2E2E2E2E2E2E2E2E2E2E2E2E2E2E2E2E2E2E2E2E2E2E2E2E2E2E2E2E2E2E2E2E2E2E2E2E2E2E2E2E2E2E2E2E2E2E2E2E2E2E2E2E2E2E2E2E2E2E2E2E2E2E2E2E2E2E2E2E2E2E2E2E2E2E2E2E2E2E2E2E2E2E2E2E2E2E2E2E2E2E2E2E2E2E2E2E2E2E2E2E2E2E2E2E2E2E2E2E2E2E2E2E2E2E2E2E2E2E2E2E2E2E2
310
E2E2E2E2E2E2E2E2E2E2E2E2E2E2E2E2E2E2E2E2E2E2E2E2E2E2E2E2E2E2E2E2E2E2E2E2E2E2E2E2E2E2E2E2E2E2E2E2E2E2E2E2E2E2E2E2E2E2E2E2E2E2E2E2E2E2E2E2E2E2E2E2E2E2E2E2E2E2E2E2E2E2E2E2E2E2E2E2E2E2E2E2E2E2E2E2E2E2E2E2E2E2E2E2E2E2E2E2E2E2E2E2E2E2E2E2E2E2E2E2E2E2E2E2E2E2E2
310
E2E2E2E2E2E2E2E2E2E2E2E2E2E2E2E2E2E2E2E2E2E2E2E2E2E2E2E2E2E2E2E2E2E2E2E2E2E2E2E2E2E2E2E2E2E2E2E2E2E2E2E2E2E2E2E2E2E2E2E2E2E2E2E2E2E2E2E2E2E2E2E2E2E2E2E2E2E2E2E2E2E2E2E2E2E2E2E2E2E2E2E2E2E2E2E2E2E2E2E2E2E2E2E2E2E2E2E2E2E2E2E2E2E2E2E2E2E2E2E2E2E2E2E2E2E2E2
310
E2E2E2E2E2E2E2E2E2E2E2E2E2E2E2E2E2E2E2E2E2E2E2E2E2E2E2E2E2E2E2E2E2E2E2E2E2E2E2E2E2E2E2E2E2E2E2E2E2E2E2E2E2E2E2E2E2E2E2E2E2E2E2E2E2E2E2E2E2E2E2E2E2E2E2E2E2E2E2E2E2E2E2E2E2E2E2E2E2E2E2E2E2E2E2E2E2E2E2E2E2E2E2E2E2E2E2E2E2E2E2E2E2E2E2E2E2E2E2E2E2E2E2E2E2E2E2
310
E2E2E2E2E2E2E2E2E2E2E2E2E2E2E2E2E2E2E2E2E2E2E2E2E2E2E2E2E2E2E2E2E2E2E2E2E2E2E2E2E2E2E2E2E2E2E2E2E2E2E2E2E2E2E2E2E2E2E2E2E2E2E2E2E2E2E2E2E2E2E2E2E2E2E2E2E2E2E2E2E2E2E2E2E2E2E2E2E2E2E2E2E2E2E2E2E2E2E2E2E2E2E2E2E2E2E2E2E2E2E2E2E2E2E2E2E2E2E2E2E2E2E2E2E2E2E2
310
E2E2E2E2E2E2E2E2E2E2E2E2E2E2E2E2E2E2E2E2E2E2E2E2E2E2E2E2E2E2E2E2E2E2E2E2E2E2E2E2E2E2E2E2E2E2E2E2E2E2E2E2E2E2E2E2E2E2E2E2E2E2E2E2E2E2E2E2E2E2E2E2E2E2E2E2E2E2E2E2E2E2E2E2E2E2E2E2E2E2E2E2E2E2E2E2E2E2E2E2E2E2E2E2E2E2E2E2E2E2E2E2E2E2E2E2E2E2E2E2E2E2E2E2E2E2E2
310
E2E2E2E2E2E2E2E2E2E2E2E2E2E2E2E2E2E2E2E2E2E2E2E2E2E2E2E2E2E2E2E2E2E2E2E2E2E2E2E2E2E2E2E2E2E2E2E2E2E2E2E2E2E2E2E2E2E2E2E2E2E2E2E2E2E2E2E2E2E2E2E2E2E2E2E2E2E2E2E2E2E2E2E2E2E2E2E2E2E2E2E2E2E2E2E2E2E2E2E2E2E2E2E2E2E2E2E2E2E2E2E2E2E2E2E2E2E2E2E2E2E2E2E2E2E2E2
310
E2E2E2E2E2E2E2E2E2E2E2E2E2E2E2E2E2E2E2E2E2E2E2E2E2E2E2E2E2E2E2E2E2E2E2E2E2E2E2E2E2E2E2E2E2E2E2E2E2E2E2E2E2E2E2E2E2E2E2E2E2E2E2E2E2E2E2E2E2E2E2E2E2E2E2E2E2E2E2E2E2E2E2E2E2E2E2E2E2E2E2E2E2E2E2E2E2E2E2E2E2E2E2E2E2E2E2E2E2E2E2E2E2E2E2E2E2E2E2E2E2E2E2E2E2E2E2
310
E2E2E2E2E2E2E2E2E2E2E2E2E2E2E2E2E2E2E2E2E2E2E2E2E2E2E2E2E2E2E2E2E2E2E2E2E2E2E2E2E2E2E2E2E2E2E2E2E2E2E2E2E2E2E2E2E2E2E2E2E2E2E2E2E2E2E2E2E2E2E2E2E2E2E2E2E2E2E2E2E2E2E2E2E2E2E2E2E2E2E2E2E2E2E2E2E2E2E2E2E2E2E2E2E2E2E2E2E2E2E2E2E2E2E2E2E2E2E2E2E2E2E2E2E2E2E2
310
E2E2E2E2E2E2E2E2E2E2E2E2E2E2E2E2E2E2E2E2E2E2E2E2E2E2E2E2E2E2E2E2E2E2E2E2E2E2E2E2E2E2E2E2E2E2E2E2E2E2E2E2E2E2E2E2E2E2E2E2E2E2E2E2E2E2E2E2E2E2E2E2E2E2E2E2E2E2E2E2E2E2E2E2E2E2E2E2E2E2E2E2E2E2E2E2E2E2E2E2E2E2E2E2E2E2E2E2E2E2E2E2E2E2E2E2E2E2E2E2E2E2E2E2E2E2E2
310
E2E2E2E2E2E2E2E2E2E2E2E2E2E2E2E2E2E2E2E2E2E2E2E2E2E2E2E2E2E2E2E2E2E2E2E2E2E2E2E2E2E2E2E2E2E2E2E2E2E2E2E2E2E2E2E2E2E2E2E2E2E2E2E2E2E2E2E2E2E2E2E2E2E2E2E2E2E2E2E2E2E2E2E2E2E2E2E2E2E2E2E2E2E2E2E2E2E2E2E2E2E2E2E2E2E2E2E2E2E2E2E2E2E2E2E2E2E2E2E2E2E2E2E2E2E2E2
310
E2E2E2E2E2E2E2E2E2E2E2E2E2E2E2E2E2E2E2E2E2E2E2E2E2E2E2E2E2E2E2E2E2E2E2E2E2E2E2E2E2E2E2E2E2E2E2E2E2E2E2E2E2E2E2E2E2E2E2E2E2E2E2E2E2E2E2E2E2E2E2E2E2E2E2E2E2E2E2E2E2E2E2E2E2E2E2E2E2E2E2E2E2E2E2E2E2E2E2E2E2E2E2E2E2E2E2E2E2E2E2E2E2E2E2E2E2E2E2E2E2E2E2E2E2E2E2
310
E2E2E2E2E2E2E2E2E2E2E2E2E2E2E2E2E2E2E2E2E2E2E2E2E2E2E2E2E2E2E2E2E2E2E2E2E2E2E2E2E2E2E2E2E2E2E2E2E2E2E2E2E2E2E2E2E2E2E2E2E2E2E2E2E2E2E2E2E2E2E2E2E2E2E2E2E2E2E2E2E2E2E2E2E2E2E2E2E2E2E2E2E2E2E2E2E2E2E2E2E2E2E2E2E2E2E2E2E2E2E2E2E2E2E2E2E2E2E2E2E2E2E2E2E2E2E2
310
E2E2E2E2E2E2E2E2E2E2E2E2E2E2E2E2E2E2E2E2E2E2E2E2E2E2E2E2E2E2E2E2E2E2E2E2E2E2E2E2E2E2E2E2E2E2E2E2E2E2E2E2E2E2E2E2E2E2E2E2E2E2E2E2E2E2E2E2E2E2E2E2E2E2E2E2E2E2E2E2E2E2E2E2E2E2E2E2E2E2E2E2E2E2E2E2E2E2E2E2E2E2E2E2E2E2E2E2E2E2E2E2E2E2E2E2E2E2E2E2E2E2E2E2E2E2E2
310
E2E2E2E2E2E2E2E2E2E2E2E2E2E2E2E2E2E2E2E2E2E2E2E2E2E2E2E2E2E2E2E2E2E2E2E2E2E2E2E2E2E2E2E2E2E2E2E2E2E2E2E2E2E2E2E2E2E2E2E2E2E2E2E2E2E2E2E2E2E2E2E2E2E2E2E2E2E2E2E2E2E2E2E2E2E2E2E2E2E2E2E2E2E2E2E2E2E2E2E2E2E2E2E2E2E2E2E2E2E2E2E2E2E2E2E2E2E2E2E2E2E2E2E2E2E2E2
310
E2E2E2E2E2E2E2E2E2E2E2E2E2E2E2E2E2E2E2E2E2E2E2E2E2E2E2E2E2E2E2E2E2E2E2E2E2E2E2E2E2E2E2E2E2E2E2E2E2E2E2E2E2E2E2E2E2E2E2E2E2E2E2E2E2E2E2E2E2E2E2E2E2E2E2E2E2E2E2E2E2E2E2E2E2E2E2E2E2E2E2E2E2E2E2E2E2E2E2E2E2E2E2E2E2E2E2E2E2E2E2E2E2E2E2E2E2E2E2E2E2E2E2E2E2E2E2
310
E2E2E2E2E2E2E2E2E2E2E2E2E2E2E2E2E2E2E2E2E2E2E2E2E2E2E2E2E2E2E2E2E2E2E2E2E2E2E2E2E2E2E2E2E2E2E2E2E2E2E2E2E2E2E2E2E2E2E2E2E2E2E2E2E2E2E2E2E2E2E2E2E2E2E2E2E2E2E2E2E2E2E2E2E2E2E2E2E2E2E2E2E2E2E2E2E2E2E2E2E2E2E2E2E2E2E2E2E2E2E2E2E2E2E2E2E2E2E2E2E2E2E2E2E2E2E2
310
E2E2E2E2E2E2E2E2E2E2E2E2E2E2E2E2E2E2E2E2E2E2E2E2E2E2E2E2E2E2E2E2E2E2E2E2E2E2E2E2E2E2E2E2E2E2E2E2E2E2E2E2E2E2E2E2E2E2E2E2E2E2E2E2E2E2E2E2E2E2E2E2E2E2E2E2E2E2E2E2E2E2E2E2E2E2E2E2E2E2E2E2E2E2E2E2E2E2E2E2E2E2E2E2E2E2E2E2E2E2E2E2E2E2E2E2E2E2E2E2E2E2E2E2E2E2E2
310
E2E2E2E2E2E2E2E2E2E2E2E2E2E2E2E2E2E2E2E2E2E2E2E2E2E2E2E2E2E2E2E2E2E2E2E2E2E2E2E2E2E2E2E2E2E2E2E2E2E2E2E2E2E2E2E2E2E2E2E2E2E2E2E2E2E2E2E2E2E2E2E2E2E2E2E2E2E2E2E2E2E2E2E2E2E2E2E2E2E2E2E2E2E2E2E2E2E2E2E2E2E2E2E2E2E2E2E2E2E2E2E2E2E2E2E2E2E2E2E2E2E2E2E2E2E2E2
310
E2E2E2E2E2E2E2E2E2E2E2E2E2E2E2E2E2E2E2E2E2E2E2E2E2E2E2E2E2E2E2E2E2E2E2E2E2E2E2E2E2E2E2E2E2E2E2E2E2E2E2E2E2E2E2E2E2E2E2E2E2E2E2E2E2E2E2E2E2E2E2E2E2E2E2E2E2E2E2E2E2E2E2E2E2E2E2E2E2E2E2E2E2E2E2E2E2E2E2E2E2E2E2E2E2E2E2E2E2E2E2E2E2E2E2E2E2E2E2E2E2E2E2E2E2E2E2
310
E2E2E2E2E2E2E2E2E2E2E2E2E2E2E2E2E2E2E2E2E2E2E2E2E2E2E2E2E2E2E2E2E2E2E2E2E2E2E2E2E2E2E2E2E2E2E2E2E2E2E2E2E2E2E2E2E2E2E2E2E2E2E2E2E2E2E2E2E2E2E2E2E2E2E2E2E2E2E2E2E2E2E2E2E2E2E2E2E2E2E2E2E2E2E2E2E2E2E2E2E2E2E2E2E2E2E2E2E2E2E2E2E2E2E2E2E2E2E2E2E2E2E2E2E2E2E2
310
E2E2E2E2E2E2E2E2E2E2E2E2E2E2E2E2E2E2E2E2E2E2E2E2E2E2E2E2E2E2E2E2E2E2E2E2E2E2E2E2E2E2E2E2E2E2E2E2E2E2E2E2E2E2E2E2E2E2E2E2E2E2E2E2E2E2E2E2E2E2E2E2E2E2E2E2E2E2E2E2E2E2E2E2E2E2E2E2E2E2E2E2E2E2E2E2E2E2E2E2E2E2E2E2E2E2E2E2E2E2E2E2E2E2E2E2E2E2E2E2E2E2E2E2E2E2E2
310
E2E2E2E2E2E2E2E2E2E2E2E2E2E2E2E2E2E2E2E2E2E2E2E2E2E2E2E2E2E2E2E2E2E2E2E2E2E2E2E2E2E2E2E2E2E2E2E2E2E2E2E2E2E2E2E2E2E2E2E2E2E2E2E2E2E2E2E2E2E2E2E2E2E2E2E2E2E2E2E2E2E2E2E2E2E2E2E2E2E2E2E2E2E2E2E2E2E2E2E2E2E2E2E2E2E2E2E2E2E2E2E2E2E2E2E2E2E2E2E2E2E2E2E2E2E2E2
310
E2E2E2E2E2E2E2E2E2E2E2E2E2E2E2E2E2E2E2E2E2E2E2E2E2E2E2E2E2E2E2E2E2E2E2E2E2E2E2E2E2E2E2E2E2E2E2E2E2E2E2E2E2E2E2E2E2E2E2E2E2E2E2E2E2E2E2E2E2E2E2E2E2E2E2E2E2E2E2E2E2E2E2E2E2E2E2E2E2E2E2E2E2E2E2E2E2E2E2E2E2E2E2E2E2E2E2E2E2E2E2E2E2E2E2E2E2E2E2E2E2E2E2E2E2E2E2
310
E2E2E2E2E2E2E2E2E2E2E2E2E2E2E2E2E2E2E2E2E2E2E2E2E2E2E2E2E2E2E2E2E2E2E2E2E2E2E2E2E2E2E2E2E2E2E2E2E2E2E2E2E2E2E2E2E2E2E2E2E2E2E2E2E2E2E2E2E2E2E2E2E2E2E2E2E2E2E2E2E2E2E2E2E2E2E2E2E2E2E2E2E2E2E2E2E2E2E2E2E2E2E2E2E2E2E2E2E2E2E2E2E2E2E2E2E2E2E2E2E2E2E2E2E2E2E2
310
E2E2E2E2E2E2E2E2E2E2E2E2E2E2E2E2E2E2E2E2E2E2E2E2E2E2E2E2E2E2E2E2E2E2E2E2E2E2E2E2E2E2E2E2E2E2E2E2E2E2E2E2E2E2E2E2E2E2E2E2E2E2E2E2E2E2E2E2E2E2E2E2E2E2E2E2E2E2E2E2E2E2E2E2E2E2E2E2E2E2E2E2E2E2E2E2E2E2E2E2E2E2E2E2E2E2E2E2E2E2E2E2E2E2E2E2E2E2E2E2E2E2E2E2E2E2E2
310
E2E2E2E2E2E2E2E2E2E2E2E2E2E2E2E2E2E2E2E2E2E2E2E2E2E2E2E2E2E2E2E2E2E2E2E2E2E2E2E2E2E2E2E2E2E2E2E2E2E2E2E2E2E2E2E2E2E2E2E2E2E2E2E2E2E2E2E2E2E2E2E2E2E2E2E2E2E2E2E2E2E2E2E2E2E2E2E2E2E2E2E2E2E2E2E2E2E2E2E2E2E2E2E2E2E2E2E2E2E2E2E2E2E2E2E2E2E2E2E2E2E2E2E2E2E2E2
310
E2E2E2E2E2E2E2E2E2E2E2E2E2E2E2E2E2E2E2E2E2E2E2E2E2E2E2E2E2E2E2E2E2E2E2E2E2E2E2E2E2E2E2E2E2E2E2E2E2E2E2E2E2E2E2E2E2E2E2E2E2E2E2E2E2E2E2E2E2E2E2E2E2E2E2E2E2E2E2E2E2E2E2E2E2E2E2E2E2E2E2E2E2E2E2E2E2E2E2E2E2E2E2E2E2E2E2E2E2E2E2E2E2E2E2E2E2E2E2E2E2E2E2E2E2E2E2
310
E2E2E2E2E2E2E2E2E2E2E2E2E2E2E2E2E2E2E2E2E2E2E2E2E2E2E2E2E2E2E2E2E2E2E2E2E2E2E2E2E2E2E2E2E2E2E2E2E2E2E2E2E2E2E2E2E2E2E2E2E2E2E2E2E2E2E2E2E2E2E2E2E2E2E2E2E2E2E2E2E2E2E2E2E2E2E2E2E2E2E2E2E2E2E2E2E2E2E2E2E2E2E2E2E2E2E2E2E2E2E2E2E2E2E2E2E2E2E2E2E2E2E2E2E2E2E2
310
E2E2E2E2E2E2E2E2E2E2E2E2E2E2E2E2E2E2E2E2E2E2F5E2E2E2E2E2E2E2E2E2E2E2E2E2E2E2E2E2E2E2E2E2E2E2E2E2E2E2E2E2E2E2F5E2E2E2E2E2E2E2E2E2E2E2E2E2E2E2E2E2E2E2E2E2E2E2E2E2E2E2E2E2E2E2E2E2E2E2E2E2E2E2E2E2E2E2E2E2E2E2E2E2E2E2E2E2E2E2E2E2E2E2E2E2E2E2E2E2E2E2E2E2E2E2E2
310
E2E2E2E2E2E2E2E2E2E2E2E2E2E2E2E2E2E2E2E2E2E2E2E2E2E2E2E2E2E2E2E2E2E2E2E2E2E2E2E2E2E2E2E2E2E2E2E2E2E2E2E2E2E2E2E2E2E2E2E2E2E2E2E2E2E2E2E2E2E2E2E2E2E2E2E2E2E2E2E2E2E2E2E2E2E2E2E2E2E2E2E2E2E2E2E2E2E2E2E2E2E2E2E2E2E2E2E2E2E2E2E2E2E2E2E2E2E2E2E2E2E2E2E2E2E2E2
310
E2E2E2E2E2E2E2E2E2E2E2E2E2E2E2E2E2E2E2E2E2E2F5F5F5F5F5E2E2E2E2E2E2E2E2E2E2E2E2E2E2E2E2E2E2E2E2E2E2E2E2E2E2E2E2F5F5F5F5E2E2E2E2E2E2E2E2E2E2E2E2E2E2E2E2E2E2E2E2E2E2E2E2E2E2E2E2E2E2E2E2E2E2E2E2E2E2E2E2E2E2E2E2E2E2E2E2E2E2E2E2E2E2E2E2E2E2E2E2E2E2E2E2E2E2E2E2
310
E2E2E2E2E2E2E2E2E2E2E2E2E2E2E2E2E2E2E2E2E2E2E2E2E2E2E2E2E2E2E2E2E2E2E2E2E2E2E2E2E2E2E2E2E2E2E2E2E2E2E2E2E2E2E2E2E2E2E2E2E2E2E2E2E2E2E2E2E2E2E2E2E2E2E2E2E2E2E2E2E2E2E2E2E2E2E2E2E2E2E2E2E2E2E2E2E2E2E2E2E2E2E2E2E2E2E2E2E2E2E2E2E2E2E2E2E2E2E2E2E2E2E2E2E2E2E2
310
E2E2E2E2E2E2E2E2E2E2E2E2E2E2E2E2E2E2E2E2E2E2F5F5F5F5F5F5F5F5F5E2E2E2E2E2E2E2E2E2E2E2E2E2E2E2E2E2E2E2E2F5F5E2E2E2F5F5F5E2F5F5E2E2E2F5E2E2E2E2E2E2E2E2E2E2E2E2E2E2E2E2E2E2E2E2E2E2E2E2E2E2E2E2E2E2E2E2E2E2E2E2E2E2E2E2E2E2E2E2E2E2E2E2E2E2E2E2E2E2E2E2E2E2E2E2E2
310
E2E2E2E2E2E2E2E2E2E2E2E2E2E2E2E2E2E2E2E2E2E2E2E2E2E2E2E2E2E2E2E2E2E2E2E2E2E2E2E2E2E2E2E2E2E2E2E2E2E2E2E2E2E2E2E2E2E2E2E2E2E2E2E2E2E2E2E2E2E2E2E2E2E2E2E2E2E2E2E2E2E2E2E2E2E2E2E2E2E2E2E2E2E2E2E2E2E2E2E2E2E2E2E2E2E2E2E2E2E2E2E2E2E2E2E2E2E2E2E2E2E2E2E2E2E2E2
310
E2E2E2E2E2E2E2E2E2E2E2E2E2E2E2E2E2E2E2E2E2E2F5F5F5F5F5F5F5F5F5F5F5F5E2E2E2E2E2E2E2E2E2E2E2E2E2E2E2E2E2E2E2F5F5E2E2E2F5F5F5E2F5F5E2E2E2F5E2E2E2E2E2E2E2E2E2E2E2E2E2E2E2E2E2E2E2E2E2E2E2E2E2E2E2E2E2E2E2E2E2E2E2E2E2E2E2E2E2E2E2E2E2E2E2E2E2E2E2E2E2E2E2E2E2E2E2
310
E2E2E2E2E2E2E2E2E2E2E2E2E2E2E2E2E2E2E2E2E2E2E2E2E2E2E2E2E2E2E2E2E2E2E2E2E2E2E2E2E2E2E2E2E2E2E2E2E2E2E2E2E2E2E2E2E2E2E2E2E2E2E2E2E2E2E2E2E2E2E2E2E2E2E2E2E2E2E2E2E2E2E2E2E2E2E2E2E2E2E2E2E2E2E2E2E2E2E2E2E2E2E2E2E2E2E2E2E2E2E2E2E2E2E2E2E2E2E2E2E2E2E2E2E2E2E2
310
E2E2E2E2E2E2E2E2E2E2E2E2E2E2E2E2E2E2E2E2E2E2E2F5F5F5F5F5F5F5F5F5F5E2F5F5F5E2E2E2E2E2E2E2E2E2E2E2E2E2E2E2E2E2E2F5F5F5F5F5F5F5F5E2F5F5F5F5F5F5E2E2E2E2E2E2E2E2E2E2E2E2E2E2E2E2E2E2E2E2E2E2E2E2E2E2E2E2E2E2E2E2E2E2E2E2E2E2E2E2E2E2E2E2E2E2E2E2E2E2E2E2E2E2E2E2E2
310
E2E2E2E2E2E2E2E2E2E2E2E2E2E2E2E2E2E2E2E2E2E2E2E2E2E2E2E2E2E2E2E2E2E2E2E2E2E2E2E2E2E2E2E2E2E2E2E2E2E2E2E2E2E2E2E2E2E2E2E2E2E2E2E2E2E2E2E2E2E2E2E2E2E2E2E2E2E2E2E2E2E2E2E2E2E2E2E2E2E2E2E2E2E2E2E2E2E2E2E2E2E2E2E2E2E2E2E2E2E2E2E2E2E2E2E2E2E2E2E2E2E2E2E2E2E2E2
310
E2E2E2E2E2E2E2E2E2E2E2E2E2E2E2E2E2E2E2E2E2E2E2E2E2F5E2F5F5E2E2E2F5E2E2F5F5E2F5F5E2E2E2E2E2E2E2E2E2E2E2E2E2E2E2E2E2F5F5E2E2F5E2F5F5E2F5F5E2E2E2F5E2E2E2E2E2E2E2E2E2E2E2E2E2E2E2E2E2E2E2E2E2E2E2E2E2E2E2E2E2E2E2E2E2E2E2E2E2E2E2E2E2E2E2E2E2E2E2E2E2E2E2E2E2E2E2
310
E2E2E2E2E2E2E2E2E2E2E2E2E2E2E2E2E2E2E2E2E2E2E2E2E2E2E2E2E2E2E2E2E2E2E2E2E2E2E2E2E2E2E2E2E2E2E2E2E2E2E2E2E2E2E2E2E2E2E2E2E2E2E2E2E2E2E2E2E2E2E2E2E2E2E2E2E2E2E2E2E2E2E2E2E2E2E2E2E2E2E2E2E2E2E2E2E2E2E2E2E2E2E2E2E2E2E2E2E2E2E2E2E2E2E2E2E2E2E2E2E2E2E2E2E2E2E2
310
E2E2E2E2E2E2E2E2E2E2E2E2E2E2E2E2E2E2E2E2E2E2E2E2E2E2F5F5F5F5E2E2E2E2F5E2E2E2E2F5F5F5F5E2E2E2E2E2E2E2E2E2E2E2E2E2E2E2E2F5F5E2E2F5F5F5F5E2F5F5E2E2E2F5E2E2E2E2E2E2E2E2E2E2E2E2E2E2E2E2E2E2E2E2E2E2E2E2E2E2E2E2E2E2E2E2E2E2E2E2E2E2E2E2E2E2E2E2E2E2E2E2E2E2E2E2E2
310
E2E2E2E2E2E2E2E2E2E2E2E2E2E2E2E2E2E2E2E2E2E2E2E2E2E2E2E2E2E2E2E2E2E2E2E2E2E2E2E2E2E2E2E2E2E2E2E2E2E2E2E2E2E2E2E2E2E2E2E2E2E2E2E2E2E2E2E2E2E2E2E2E2E2E2E2E2E2E2E2E2E2E2E2E2E2E2E2E2E2E2E2E2E2E2E2E2E2E2E2E2E2E2E2E2E2E2E2E2E2E2E2E2E2E2E2E2E2E2E2E2E2E2E2E2E2E2
310
E2E2E2E2E2E2E2E2E2E2E2E2E2E2E2E2E2E2E2E2E2E2E2E2E2E2E2E2F5F5E2F5E2E2E2E2F5E2E2E2E2E2F5F5F5E2E2E2E2E2E2E2E2E2E2E2E2E2E2E2E2F5F5E2E2F5F5F5F5E2F5F5E2E2E2F5E2E2E2E2E2E2E2E2E2E2E2E2E2E2E2E2E2E2E2E2E2E2E2E2E2E2E2E2E2E2E2E2E2E2E2E2E2E2E2E2E2E2E2E2E2E2E2E2E2E2E2
310
E2E2E2E2E2E2E2E2E2E2E2E2E2E2E2E2E2E2E2E2E2E2E2E2E2E2E2E2E2E2E2E2E2E2E2E2E2E2E2E2E2E2E2E2E2E2E2E2E2E2E2E2E2E2E2E2E2E2E2E2E2E2E2E2E2E2E2E2E2E2E2E2E2E2E2E2E2E2E2E2E2E2E2E2E2E2E2E2E2E2E2E2E2E2E2E2E2E2E2E2E2E2E2E2E2E2E2E2E2E2E2E2E2E2E2E2E2E2E2E2E2E2E2E2E2E2E2
310
E2E2E2E2E2E2E2E2E2E2E2E2E2E2E2E2E2E2E2E2E2E2E2E2E2E2E2E2E2F5F5E2F5E2E2E2E2E2F5E2E2E2E2E2F5F5F5F5E2E2E2E2E2E2E2E2E2E2E2E2E2E2E2F5F5E2E2F5F5F5F5E2F5F5E2E2E2F5E2E2E2E2E2E2E2E2E2E2E2E2E2E2E2E2E2E2E2E2E2E2E2E2E2E2E2E2E2E2E2E2E2E2E2E2E2E2E2E2E2E2E2E2E2E2E2E2E2
310
E2E2E2E2E2E2E2E2E2E2E2E2E2E2E2E2E2E2E2E2E2E2E2E2E2E2E2E2E2E2E2E2E2E2E2E2E2E2E2E2E2E2E2E2E2E2E2E2E2E2E2E2E2E2E2E2E2E2E2E2E2E2E2E2E2E2E2E2E2E2E2E2E2E2E2E2E2E2E2E2E2E2E2E2E2E2E2E2E2E2E2E2E2E2E2E2E2E2E2E2E2E2E2E2E2E2E2E2E2E2E2E2E2E2E2E2E2E2E2E2E2E2E2E2E2E2E2
310
E2E2E2E2E2E2E2E2E2E2E2E2E2E2E2E2E2E2E2E2E2E2E2E2E2E2E2E2E2E2E2F5F5E2F5E2E2E2E2E2F5E2E2E2E2E2F5E2F5F5E2E2E2E2E2E2E2E2E2E2E2E2E2E2E2F5F5E2E2F5E2F5F5E2F5F5E2E2E2F5E2E2E2E2E2E2E2E2E2E2E2E2E2E2E2E2E2E2E2E2E2E2E2E2E2E2E2E2E2E2E2E2E2E2E2E2E2E2E2E2E2E2E2E2E2E2E2
310
E2E2E2E2E2E2E2E2E2E2E2E2E2E2E2E2E2E2E2E2E2E2E2E2E2E2E2E2E2E2E2E2E2E2E2E2E2E2E2E2E2E2E2E2E2E2E2E2E2E2E2E2E2E2E2E2E2E2E2E2E2E2E2E2E2E2E2E2E2E2E2E2E2E2E2E2E2E2E2E2E2E2E2E2E2E2E2E2E2E2E2E2E2E2E2E2E2E2E2E2E2E2E2E2E2E2E2E2E2E2E2E2E2E2E2E2E2E2E2E2E2E2E2E2E2E2E2
310
E2E2E2E2E2E2E2E2E2E2E2E2E2E2E2E2E2E2E2E2E2E2E2E2E2E2E2E2E2E2E2E2F5F5F5F5F5F5F5F5F5F5F5F5F5F5F5F5F5F5F5F5F5E2E2E2E2E2E2E2E2E2E2E2E2E2E2F5F5F5F5F5F5F5F5F5F5F5F5F5F5F5F5E2E2E2E2E2E2E2E2E2E2E2E2E2E2E2E2E2E2E2E2E2E2E2E2E2E2E2E2E2E2E2E2E2E2E2E2E2E2E2E2E2E2E2E2
310
E2E2E2E2E2E2E2E2E2E2E2E2E2E2E2E2E2E2E2E2E2E2E2E2E2E2E2E2E2E2E2E2E2E2E2E2E2E2E2E2E2E2E2E2E2E2E2E2E2E2E2E2E2E2E2E2E2E2E2E2E2E2E2E2E2E2E2E2E2E2E2E2E2E2E2E2E2E2E2E2E2E2E2E2E2E2E2E2E2E2E2E2E2E2E2E2E2E2E2E2E2E2E2E2E2E2E2E2E2E2E2E2E2E2E2E2E2E2E2E2E2E2E2E2E2E2E2
310
E2E2E2E2E2E2E2E2E2E2E2E2E2E2E2E2E2E2E2E2E2E2E2E2E2E2E2E2E2E2E2E2E2E2E2F5F5F5E2E2E2E2E2E2F5E2E2E2E2E2F5E2F5F5E2E2E2E2E2E2E2E2E2E2E2E2E2E2E2F5F5E2E2F5E2F5F5E2F5F5E2E2E2F5E2E2E2E2E2E2E2E2E2E2E2E2E2E2E2E2E2E2E2E2E2E2E2E2E2E2E2E2E2E2E2E2E2E2E2E2E2E2E2E2E2E2E2
310
E2E2E2E2E2E2E2E2E2E2E2E2E2E2E2E2E2E2E2E2E2E2E2E2E2E2E2E2E2E2E2E2E2E2E2E2E2E2E2E2E2E2E2E2E2E2E2E2E2E2E2E2E2E2E2E2E2E2E2E2E2E2E2E2E2E2E2E2E2E2E2E2E2E2E2E2E2E2E2E2E2E2E2E2E2E2E2E2E2E2E2E2E2E2E2E2E2E2E2E2E2E2E2E2E2E2E2E2E2E2E2E2E2E2E2E2E2E2E2E2E2E2E2E2E2E2E2
310
E2E2E2E2E2E2E2E2E2E2E2E2E2E2E2E2E2E2E2E2E2E2E2E2E2E2E2E2E2E2E2E2E2E2E2E2E2F5F5E2F5E2E2E2E2E2F5E2E2E2E2E2F5E2F5F5E2E2E2E2E2E2E2E2E2E2E2E2E2E2E2F5F5E2E2F5E2F5F5E2F5F5E2E2E2F5E2E2E2E2E2E2E2E2E2E2E2E2E2E2E2E2E2E2E2E2E2E2E2E2E2E2E2E2E2E2E2E2E2E2E2E2E2E2E2E2E2
310
E2E2E2E2E2E2E2E2E2E2E2E2E2E2E2E2E2E2E2E2E2E2E2E2E2E2E2E2E2E2E2E2E2E2E2E2E2E2E2E2E2E2E2E2E2E2E2E2E2E2E2E2E2E2E2E2E2E2E2E2E2E2E2E2E2E2E2E2E2E2E2E2E2E2E2E2E2E2E2E2E2E2E2E2E2E2E2E2E2E2E2E2E2E2E2E2E2E2E2E2E2E2E2E2E2E2E2E2E2E2E2E2E2E2E2E2E2E2E2E2E2E2E2E2E2E2E2
310
E2E2E2E2E2E2E2E2E2E2E2E2E2E2E2E2E2E2E2E2E2E2E2E2E2E2E2E2E2E2E2E2E2E2E2E2E2E2E2E2F5F5F5E2E2E2E2E2F5E2E2E2E2E2F5F5F5F5E2E2E2E2E2E2E2E2E2E2E2E2E2E2E2F5F5E2E2F5F5F5F5E2F5F5E2E2E2F5E2E2E2E2E2E2E2E2E2E2E2E2E2E2E2E2E2E2E2E2E2E2E2E2E2E2E2E2E2E2E2E2E2E2E2E2E2E2E2
310
E2E2E2E2E2E2E2E2E2E2E2E2E2E2E2E2E2E2E2E2E2E2E2E2E2E2E2E2E2E2E2E2E2E2E2E2E2E2E2E2E2E2E2E2E2E2E2E2E2E2E2E2E2E2E2E2E2E2E2E2E2E2E2E2E2E2E2E2E2E2E2E2E2E2E2E2E2E2E2E2E2E2E2E2E2E2E2E2E2E2E2E2E2E2E2E2E2E2E2E2E2E2E2E2E2E2E2E2E2E2E2E2E2E2E2E2E2E2E2E2E2E2E2E2E2E2E2
310
E2E2E2E2E2E2E2E2E2E2E2E2E2E2E2E2E2E2E2E2E2E2E2E2E2E2E2E2E2E2E2E2E2E2E2E2E2E2E2E2E2E2F5F5E2F5E2E2E2E2F5E2E2E2E2E2F5F5F5E2E2E2E2E2E2E2E2E2E2E2E2E2E2E2E2F5F5E2E2F5F5F5F5E2F5F5E2E2E2F5E2E2E2E2E2E2E2E2E2E2E2E2E2E2E2E2E2E2E2E2E2E2E2E2E2E2E2E2E2E2E2E2E2E2E2E2E2
310
E2E2E2E2E2E2E2E2E2E2E2E2E2E2E2E2E2E2E2E2E2E2E2E2E2E2E2E2E2E2E2E2E2E2E2E2E2E2E2E2E2E2E2E2E2E2E2E2E2E2E2E2E2E2E2E2E2E2E2E2E2E2E2E2E2E2E2E2E2E2E2E2E2E2E2E2E2E2E2E2E2E2E2E2E2E2E2E2E2E2E2E2E2E2E2E2E2E2E2E2E2E2E2E2E2E2E2E2E2E2E2E2E2E2E2E2E2E2E2E2E2E2E2E2E2E2E2
310
E2E2E2E2E2E2E2E2E2E2E2E2E2E2E2E2E2E2E2E2E2E2E2E2E2E2E2E2E2E2E2E2E2E2E2E2E2E2E2E2E2E2E2E2F5F5F5F5E2E2E2E2F5E2E2E2F5F5F5F5E2E2E2E2E2E2E2E2E2E2E2E2E2E2E2E2E2F5F5E2E2F5E2F5F5E2F5F5E2E2E2F5E2E2E2E2E2E2E2E2E2E2E2E2E2E2E2E2E2E2E2E2E2E2E2E2E2E2E2E2E2E2E2E2E2E2E2
310
E2E2E2E2E2E2E2E2E2E2E2E2E2E2E2E2E2E2E2E2E2E2E2E2E2E2E2E2E2E2E2E2E2E2E2E2E2E2E2E2E2E2E2E2E2E2E2E2E2E2E2E2E2E2E2E2E2E2E2E2E2E2E2E2E2E2E2E2E2E2E2E2E2E2E2E2E2E2E2E2E2E2E2E2E2E2E2E2E2E2E2E2E2E2E2E2E2E2E2E2E2E2E2E2E2E2E2E2E2E2E2E2E2E2E2E2E2E2E2E2E2E2E2E2E2E2E2
310
E2E2E2E2E2E2E2E2E2E2E2E2E2E2E2E2E2E2E2E2E2E2E2E2E2E2E2E2E2E2E2E2E2E2E2E2E2E2E2E2E2E2E2E2E2E2E2F5F5F5F5F5F5E2F5E2F5F5E2E2F5F5E2E2E2E2E2E2E2E2E2E2E2E2E2E2E2E2E2F5F5E2E2F5E2F5F5E2F5F5E2E2E2F5E2E2E2E2E2E2E2E2E2E2E2E2E2E2E2E2E2E2E2E2E2E2E2E2E2E2E2E2E2E2E2E2E2
310
E2E2E2E2E2E2E2E2E2E2E2E2E2E2E2E2E2E2E2E2E2E2E2E2E2E2E2E2E2E2E2E2E2E2E2E2E2E2E2E2E2E2E2E2E2E2E2E2E2E2E2E2E2E2E2E2E2E2E2E2E2E2E2E2E2E2E2E2E2E2E2E2E2E2E2E2E2E2E2E2E2E2E2E2E2E2E2E2E2E2E2E2E2E2E2E2E2E2E2E2E2E2E2E2E2E2E2E2E2E2E2E2E2E2E2E2E2E2E2E2E2E2E2E2E2E2E2
310
E2E2E2E2E2E2E2E2E2E2E2E2E2E2E2E2E2E2E2E2E2E2E2E2E2E2E2E2E2E2E2E2E2E2E2E2E2E2E2E2E2E2E2E2E2E2E2E2E2F5F5F5F5E2E2F5F5F5E2F5F5F5F5E2E2E2E2E2E2E2E2E2E2E2E2E2E2E2E2E2E2F5F5F5F5F5F5F5F5E2F5F5F5F5F5F5E2E2E2E2E2E2E2E2E2E2E2E2E2E2E2E2E2E2E2E2E2E2E2E2E2E2E2E2E2E2E2
310
E2E2E2E2E2E2E2E2E2E2E2E2E2E2E2E2E2E2E2E2E2E2E2E2E2E2E2E2E2E2E2E2E2E2E2E2E2E2E2E2E2E2E2E2E2E2E2E2E2E2E2E2E2E2E2E2E2E2E2E2E2E2E2E2E2E2E2E2E2E2E2E2E2E2E2E2E2E2E2E2E2E2E2E2E2E2E2E2E2E2E2E2E2E2E2E2E2E2E2E2E2E2E2E2E2E2E2E2E2E2E2E2E2E2E2E2E2E2E2E2E2E2E2E2E2E2E2
310
E2E2E2E2E2E2E2E2E2E2E2E2E2E2E2E2E2E2E2E2E2E2E2E2E2E2E2E2E2E2E2E2E2E2E2E2E2E2E2E2E2E2E2E2E2E2E2E2E2E2E2E2E2F5F5F5F5F5F5F5F5F5F5F5E2E2E2E2E2E2E2E2E2E2E2E2E2E2E2E2E2E2E2F5F5E2E2E2F5F5F5E2F5F5E2E2E2F5E2E2E2E2E2E2E2E2E2E2E2E2E2E2E2E2E2E2E2E2E2E2E2E2E2E2E2E2E2
310
E2E2E2E2E2E2E2E2E2E2E2E2E2E2E2E2E2E2E2E2E2E2E2E2E2E2E2E2E2E2E2E2E2E2E2E2E2E2E2E2E2E2E2E2E2E2E2E2E2E2E2E2E2E2E2E2E2E2E2E2E2E2E2E2E2E2E2E2E2E2E2E2E2E2E2E2E2E2E2E2E2E2E2E2E2E2E2E2E2E2E2E2E2E2E2E2E2E2E2E2E2E2E2E2E2E2E2E2E2E2E2E2E2E2E2E2E2E2E2E2E2E2E2E2E2E2E2
310
E2E2E2E2E2E2E2E2E2E2E2E2E2E2E2E2E2E2E2E2E2E2E2E2E2E2E2E2E2E2E2E2E2E2E2E2E2E2E2E2E2E2E2E2E2E2E2E2E2E2E2E2E2E2E2E2F5F5F5F5F5F5F5F5F5E2E2E2E2E2E2E2E2E2E2E2E2E2E2E2E2E2E2E2E2E2E2E2E2E2F5F5F5F5F5F5E2E2E2E2E2E2E2E2E2E2E2E2E2E2E2E2E2E2E2E2E2E2E2E2E2E2E2E2E2E2E2
310
E2E2E2E2E2E2E2E2E2E2E2E2E2E2E2E2E2E2E2E2E2E2E2E2E2E2E2E2E2E2E2E2E2E2E2E2E2E2E2E2E2E2E2E2E2E2E2E2E2E2E2E2E2E2E2E2E2E2E2E2E2E2E2E2E2E2E2E2E2E2E2E2E2E2E2E2E2E2E2E2E2E2E2E2E2E2E2E2E2E2E2E2E2E2E2E2E2E2E2E2E2E2E2E2E2E2E2E2E2E2E2E2E2E2E2E2E2E2E2E2E2E2E2E2E2E2E2
310
E2E2E2E2E2E2E2E2E2E2E2E2E2E2E2E2E2E2E2E2E2E2E2E2E2E2E2E2E2E2E2E2E2E2E2E2E2E2E2E2E2E2E2E2E2E2E2E2E2E2E2E2E2E2E2E2E2E2F5E2E2E2F5E2E2E2F5E2E2E2E2E2E2E2E2E2E2E2E2E2E2E2E2E2E2E2E2E2E2E2E2F5F5F5F5F5F5F5F5E2E2E2E2E2E2E2E2E2E2E2E2E2E2E2E2E2E2E2E2E2E2E2E2E2E2E2E2
310
E2E2E2E2E2E2E2E2E2E2E2E2E2E2E2E2E2E2E2E2E2E2E2E2E2E2E2E2E2E2E2E2E2E2E2E2E2E2E2E2E2E2E2E2E2E2E2E2E2E2E2E2E2E2E2E2E2E2E2E2E2E2E2E2E2E2E2E2E2E2E2E2E2E2E2E2E2E2E2E2E2E2E2E2E2E2E2E2E2E2E2E2E2E2E2E2E2E2E2E2E2E2E2E2E2E2E2E2E2E2E2E2E2E2E2E2E2E2E2E2E2E2E2E2E2E2E2
310
E2E2E2E2E2E2E2E2E2E2E2E2E2E2E2E2E2E2E2E2E2E2E2E2E2E2E2E2E2E2E2E2E2E2E2E2E2E2E2E2E2E2E2E2E2E2E2E2E2E2E2E2E2E2E2E2E2E2E2E2F5F5F5F5F5F5F5F5F5E2E2E2E2E2E2E2E2E2E2E2E2E2E2E2E2E2E2E2E2E2E2F5F5E2F5F5F5F5F5F5E2F5F5E2E2E2E2E2E2E2E2E2E2E2E2E2E2E2E2E2E2E2E2E2E2E2E2
310
E2E2E2E2E2E2E2E2E2E2E2E2E2E2E2E2E2E2E2E2E2E2E2E2E2E2E2E2E2E2E2E2E2E2E2E2E2E2E2E2E2E2E2E2E2E2E2E2E2E2E2E2E2E2E2E2E2E2E2E2E2E2E2E2E2E2E2E2E2E2E2E2E2E2E2E2E2E2E2E2E2E2E2E2E2E2E2E2E2E2E2E2E2E2E2E2E2E2E2E2E2E2E2E2E2E2E2E2E2E2E2E2E2E2E2E2E2E2E2E2E2E2E2E2E2E2E2
310
E2E2E2E2E2E2E2E2E2E2E2E2E2E2E2E2E2E2E2E2E2E2E2E2E2E2E2E2E2E2E2E2E2E2E2E2E2E2E2E2E2E2E2E2E2E2E2E2E2E2E2E2E2E2E2E2E2E2E2E2E2E2F5E2E2E2F5E2E2E2F5E2E2E2E2E2E2E2E2E2E2E2E2E2E2E2E2E2E2E2E2E2E2F5F5E2F5F5F5F5F5E2E2F5F5E2E2E2E2E2E2E2E2E2E2E2E2E2E2E2E2E2E2E2E2E2E2
310
E2E2E2E2E2E2E2E2E2E2E2E2E2E2E2E2E2E2E2E2E2E2E2E2E2E2E2E2E2E2E2E2E2E2E2E2E2E2E2E2E2E2E2E2E2E2E2E2E2E2E2E2E2E2E2E2E2E2E2E2E2E2E2E2E2E2E2E2E2E2E2E2E2E2E2E2E2E2E2E2E2E2E2E2E2E2E2E2E2E2E2E2E2E2E2E2E2E2E2E2E2E2E2E2E2E2E2E2E2E2E2E2E2E2E2E2E2E2E2E2E2E2E2E2E2E2E2
310
E2E2E2E2E2E2E2E2E2E2E2E2E2E2E2E2E2E2E2E2E2E2E2E2E2E2E2E2E2E2E2E2E2E2E2E2E2E2E2E2E2E2E2E2E2E2E2E2E2E2E2E2E2E2E2E2E2E2E2E2E2E2E2E2F5E2E2E2F5E2E2E2F5E2E2E2E2E2E2E2E2E2E2E2E2E2E2E2E2E2E2E2E2E2E2F5F5F5F5E2F5E2F5F5F5F5F5E2E2E2E2E2E2E2E2E2E2E2E2E2E2E2E2E2E2E2E2
310
E2E2E2E2E2E2E2E2E2E2E2E2E2E2E2E2E2E2E2E2E2E2E2E2E2E2E2E2E2E2E2E2E2E2E2E2E2E2E2E2E2E2E2E2E2E2E2E2E2E2E2E2E2E2E2E2E2E2E2E2E2E2E2E2E2E2E2E2E2E2E2E2E2E2E2E2E2E2E2E2E2E2E2E2E2E2E2E2E2E2E2E2E2E2E2E2E2E2E2E2E2E2E2E2E2E2E2E2E2E2E2E2E2E2E2E2E2E2E2E2E2E2E2E2E2E2E2
310
E2E2E2E2E2E2E2E2E2E2E2E2E2E2E2E2E2E2E2E2E2E2E2E2E2E2E2E2E2E2E2E2E2E2E2E2E2E2E2E2E2E2E2E2E2E2E2E2E2E2E2E2E2E2E2E2E2E2E2E2E2E2E2E2E2E2F5E2E2E2F5E2E2E2F5E2E2E2E2E2E2E2E2E2E2E2E2E2E2E2E2E2E2E2E2E2E2F5F5F5F5E2F5E2F5F5F5F5F5E2E2E2E2E2E2E2E2E2E2E2E2E2E2E2E2E2E2
310
E2E2E2E2E2E2E2E2E2E2E2E2E2E2E2E2E2E2E2E2E2E2E2E2E2E2E2E2E2E2E2E2E2E2E2E2E2E2E2E2E2E2E2E2E2E2E2E2E2E2E2E2E2E2E2E2E2E2E2E2E2E2E2E2E2E2E2E2E2E2E2E2E2E2E2E2E2E2E2E2E2E2E2E2E2E2E2E2E2E2E2E2E2E2E2E2E2E2E2E2E2E2E2E2E2E2E2E2E2E2E2E2E2E2E2E2E2E2E2E2E2E2E2E2E2E2E2
310
E2E2E2E2E2E2E2E2E2E2E2E2E2E2E2E2E2E2E2E2E2E2E2E2E2E2E2E2E2E2E2E2E2E2E2E2E2E2E2E2E2E2E2E2E2E2E2E2E2E2E2E2E2E2E2E2E2E2E2E2E2E2E2E2E2E2E2E2F5F5F5F5F5F5F5F5F5E2E2E2E2E2E2E2E2E2E2E2E2E2E2E2E2E2E2F5F5F5F5F5F5F5F5F5F5F5F5F5F5F5F5F5F5F5F5F5F5F5E2E2E2E2E2E2E2E2E2
310
E2E2E2E2E2E2E2E2E2E2E2E2E2E2E2E2E2E2E2E2E2E2E2E2E2E2E2E2E2E2E2E2E2E2E2E2E2E2E2E2E2E2E2E2E2E2E2E2E2E2E2E2E2E2E2E2E2E2E2E2E2E2E2E2E2E2E2E2E2E2E2E2E2E2E2E2E2E2E2E2E2E2E2E2E2E2E2E2E2E2E2E2E2E2E2E2E2E2E2E2E2E2E2E2E2E2E2E2E2E2E2E2E2E2E2E2E2E2E2E2E2E2E2E2E2E2E2
310
E2E2E2E2E2E2E2E2E2E2E2E2E2E2E2E2E2E2E2E2E2E2E2E2E2E2E2E2E2E2E2E2E2E2E2E2E2E2E2E2E2E2E2E2E2E2E2E2E2E2E2E2E2E2E2E2E2E2E2E2E2E2E2E2E2E2E2E2E2E2F5F5F5E2F5E2F5F5F5E2E2E2E2E2E2E2E2E2E2E2E2E2E2E2E2E2E2F5F5E2E2E2E2E2E2E2F5E2E2E2E2E2E2E2E2E2E2F5F5F5E2E2E2E2E2E2E2
310
E2E2E2E2E2E2E2E2E2E2E2E2E2E2E2E2E2E2E2E2E2E2E2E2E2E2E2E2E2E2E2E2E2E2E2E2E2E2E2E2E2E2E2E2E2E2E2E2E2E2E2E2E2E2E2E2E2E2E2E2E2E2E2E2E2E2E2E2E2E2E2E2E2E2E2E2E2E2E2E2E2E2E2E2E2E2E2E2E2E2E2E2E2E2E2E2E2E2E2E2E2E2E2E2E2E2E2E2E2E2E2E2E2E2E2E2E2E2E2E2E2E2E2E2E2E2E2
310
E2E2E2E2E2E2E2E2E2E2E2E2E2E2E2E2E2E2E2E2E2E2E2E2E2E2E2E2E2E2E2E2E2E2E2E2E2E2E2E2E2E2E2E2E2E2E2E2E2E2E2E2E2E2E2E2E2E2E2E2E2E2E2E2E2E2E2E2E2E2E2E2F5F5E2E2F5E2E2F5F5E2E2E2E2E2E2E2E2E2E2E2E2E2E2E2E2E2E2F5F5E2E2E2E2E2E2E2F5E2E2E2E2E2E2E2E2E2E2F5F5F5E2E2E2E2E2
310
E2E2E2E2E2E2E2E2E2E2E2E2E2E2E2E2E2E2E2E2E2E2E2E2E2E2E2E2E2E2E2E2E2E2E2E2E2E2E2E2E2E2E2E2E2E2E2E2E2E2E2E2E2E2E2E2E2E2E2E2E2E2E2E2E2E2E2E2E2E2E2E2E2E2E2E2E2E2E2E2E2E2E2E2E2E2E2E2E2E2E2E2E2E2E2E2E2E2E2E2E2E2E2E2E2E2E2E2E2E2E2E2E2E2E2E2E2E2E2E2E2E2E2E2E2E2E2
310
E2E2E2E2E2E2E2E2E2E2E2E2E2E2E2E2E2E2E2E2E2E2E2E2E2E2E2E2E2E2E2E2E2E2E2E2E2E2E2E2E2E2E2E2E2E2E2E2E2E2E2E2E2E2E2E2E2E2E2E2E2E2E2E2E2E2E2E2E2E2E2E2E2E2F5E2E2E2F5E2E2E2F5E2E2E2E2E2E2E2E2E2E2E2E2E2E2E2E2E2E2E2F5F5F5F5F5F5F5F5F5F5F5F5F5F5F5F5F5F5F5F5F5E2E2E2E2
310
E2E2E2E2E2E2E2E2E2E2E2E2E2E2E2E2E2E2E2E2E2E2E2E2E2E2E2E2E2E2E2E2E2E2E2E2E2E2E2E2E2E2E2E2E2E2E2E2E2E2E2E2E2E2E2E2E2E2E2E2E2E2E2E2E2E2E2E2E2E2E2E2E2E2E2E2E2E2E2E2E2E2E2E2E2E2E2E2E2E2E2E2E2E2E2E2E2E2E2E2E2E2E2E2E2E2E2E2E2E2E2E2E2E2E2E2E2E2E2E2E2E2E2E2E2E2E2
310
E2E2E2E2E2E2E2E2E2E2E2E2E2E2E2E2E2E2E2E2E2E2E2E2E2E2E2E2E2E2E2E2E2E2E2E2E2E2E2E2E2E2E2E2E2E2E2E2E2E2E2E2E2E2E2E2E2E2E2E2E2E2E2E2E2E2E2E2E2E2E2E2E2E2E2E2F5E2E2E2F5E2E2E2E2F5E2E2E2E2E2E2E2E2E2E2E2E2E2E2E2E2E2E2F5E2E2E2E2E2E2E2F5E2E2E2E2E2E2E2E2E2E2F5F5E2E2
310
E2E2E2E2E2E2E2E2E2E2E2E2E2E2E2E2E2E2E2E2E2E2E2E2E2E2E2E2E2E2E2E2E2E2E2E2E2E2E2E2E2E2E2E2E2E2E2E2E2E2E2E2E2E2E2E2E2E2E2E2E2E2E2E2E2E2E2E2E2E2E2E2E2E2E2E2E2E2E2E2E2E2E2E2E2E2E2E2E2E2E2E2E2E2E2E2E2E2E2E2E2E2E2E2E2E2E2E2E2E2E2E2E2E2E2E2E2E2E2E2E2E2E2E2E2E2E2
310
E2E2E2E2E2E2E2E2E2E2E2E2E2E2E2E2E2E2E2E2E2E2E2E2E2E2E2E2E2E2E2E2E2E2E2E2E2E2E2E2E2E2E2E2E2E2E2E2E2E2E2E2E2E2E2E2E2E2E2E2E2E2E2E2E2E2E2E2E2E2E2E2E2E2E2E2E2F5E2F5F5E2F5E2F5F5F5F5E2E2E2E2E2E2E2E2E2E2E2E2E2E2E2E2F5F5F5E2E2E2E2E2E2E2F5E2E2E2E2E2E2E2E2E2E2F5F5
310
F5F5E2E2E2E2E2E2E2E2E2E2E2E2E2E2E2E2E2E2E2E2E2E2E2E2E2E2E2E2E2E2E2E2E2E2E2E2E2E2E2E2E2E2E2E2E2E2E2E2E2E2E2E2E2E2E2E2E2E2E2E2E2E2E2E2E2E2E2E2E2E2E2E2E2E2E2E2E2E2E2E2E2E2E2E2E2E2E2E2E2E2E2E2E2E2E2E2E2E2E2E2E2E2E2E2E2E2E2E2E2E2E2E2E2E2E2E2E2E2E2E2E2E2E2E2E2
310
E2E2E2E2E2E2E2E2E2E2E2E2E2E2E2E2E2E2E2E2E2E2E2E2E2E2E2E2E2E2E2E2E2E2E2E2E2E2E2E2E2E2E2E2E2E2E2E2E2E2E2E2E2E2E2E2E2E2E2E2E2E2E2E2E2E2E2E2E2E2E2E2E2E2E2E2E2E2E2F5E2F5F5E2F5E2F5F5F5F5E2E2E2E2E2E2E2E2E2E2E2E2E2E2E2E2F5F5F5E2E2E2E2E2E2E2F5E2E2E2E2E2E2E2E2E2E2
310
F5F5F5F5E2E2E2E2E2E2E2E2E2E2E2E2E2E2E2E2E2E2E2E2E2E2E2E2E2E2E2E2E2E2E2E2E2E2E2E2E2E2E2E2E2E2E2E2E2E2E2E2E2E2E2E2E2E2E2E2E2E2E2E2E2E2E2E2E2E2E2E2E2E2E2E2E2E2E2E2E2E2E2E2E2E2E2E2E2E2E2E2E2E2E2E2E2E2E2E2E2E2E2E2E2E2E2E2E2E2E2E2E2E2E2E2E2E2E2E2E2E2E2E2E2E2E2
310
E2E2E2E2E2E2E2E2E2E2E2E2E2E2E2E2E2E2E2E2E2E2E2E2E2E2E2E2E2E2E2E2E2E2E2E2E2E2E2E2E2E2E2E2E2E2E2E2E2E2E2E2E2E2E2E2E2E2E2E2E2E2E2E2E2E2E2E2E2E2E2E2E2E2E2E2E2E2E2E2E2F5E2E2E2E2F5E2E2F5E2F5E2E2E2E2E2E2E2E2E2E2E2E2E2E2E2E2F5F5F5E2E2E2E2E2E2E2F5E2E2E2E2E2E2E2E2
310
E2E2F5F5F5F5E2E2E2E2E2E2E2E2E2E2E2E2E2E2E2E2E2E2E2E2E2E2E2E2E2E2E2E2E2E2E2E2E2E2E2E2E2E2E2E2E2E2E2E2E2E2E2E2E2E2E2E2E2E2E2E2E2E2E2E2E2E2E2E2E2E2E2E2E2E2E2E2E2E2E2E2E2E2E2E2E2E2E2E2E2E2E2E2E2E2E2E2E2E2E2E2E2E2E2E2E2E2E2E2E2E2E2E2E2E2E2E2E2E2E2E2E2E2E2E2E2
310
E2E2E2E2E2E2E2E2E2E2E2E2E2E2E2E2E2E2E2E2E2E2E2E2E2E2E2E2E2E2E2E2E2E2E2E2E2E2E2E2E2E2E2E2E2E2E2E2E2E2E2E2E2E2E2E2E2E2E2E2E2E2E2E2E2E2E2E2E2E2E2E2E2E2E2E2E2E2E2E2E2E2E2E2F5E2E2E2F5E2E2E2E2F5E2E2E2E2E2E2E2E2E2E2E2E2E2E2E2E2E2E2F5E2E2E2E2E2E2E2F5E2E2E2E2E2E2
310
E2E2E2E2F5F5E2E2E2E2E2E2E2E2E2E2E2E2E2E2E2E2E2E2E2E2E2E2E2E2E2E2E2E2E2E2E2E2E2E2E2E2E2E2E2E2E2E2E2E2E2E2E2E2E2E2E2E2E2E2E2E2E2E2E2E2E2E2E2E2E2E2E2E2E2E2E2E2E2E2E2E2E2E2E2E2E2E2E2E2E2E2E2E2E2E2E2E2E2E2E2E2E2E2E2E2E2E2E2E2E2E2E2E2E2E2E2E2E2E2E2E2E2E2E2E2E2
310
E2E2E2E2E2E2E2E2E2E2E2E2E2E2E2E2E2E2E2E2E2E2E2E2E2E2E2E2E2E2E2E2E2E2E2E2E2E2E2E2E2E2E2E2E2E2E2E2E2E2E2E2E2E2E2E2E2E2E2E2E2E2E2E2E2E2E2E2E2E2E2E2E2E2E2E2E2E2E2E2E2E2E2E2E2E2F5E2E2E2F5E2E2E2F5E2E2E2E2E2E2E2E2E2E2E2E2E2E2E2E2E2E2E2F5F5F5F5F5F5F5F5F5F5F5F5F5
310
F5F5F5F5F5F5F5F5E2E2E2E2E2E2E2E2E2E2E2E2E2E2E2E2E2E2E2E2E2E2E2E2E2E2E2E2E2E2E2E2E2E2E2E2E2E2E2E2E2E2E2E2E2E2E2E2E2E2E2E2E2E2E2E2E2E2E2E2E2E2E2E2E2E2E2E2E2E2E2E2E2E2E2E2E2E2E2E2E2E2E2E2E2E2E2E2E2E2E2E2E2E2E2E2E2E2E2E2E2E2E2E2E2E2E2E2E2E2E2E2E2E2E2E2E2E2E2
310
E2E2E2E2E2E2E2E2E2E2E2E2E2E2E2E2E2E2E2E2E2E2E2E2E2E2E2E2E2E2E2E2E2E2E2E2E2E2E2E2E2E2E2E2E2E2E2E2E2E2E2E2E2E2E2E2E2E2E2E2E2E2E2E2E2E2E2E2E2E2E2E2E2E2E2E2E2E2E2E2E2E2E2E2E2E2E2E2F5F5F5E2F5E2F5F5F5E2E2E2E2E2E2E2E2E2E2E2E2E2E2E2E2E2E2F5F5E2E2E2E2E2E2E2F5E2E2
310
E2E2E2E2E2E2E2E2F5F5F5E2E2E2E2E2E2E2E2E2E2E2E2E2E2E2E2E2E2E2E2E2E2E2E2E2E2E2E2E2E2E2E2E2E2E2E2E2E2E2E2E2E2E2E2E2E2E2E2E2E2E2E2E2E2E2E2E2E2E2E2E2E2E2E2E2E2E2E2E2E2E2E2E2E2E2E2E2E2E2E2E2E2E2E2E2E2E2E2E2E2E2E2E2E2E2E2E2E2E2E2E2E2E2E2E2E2E2E2E2E2E2E2E2E2E2E2
310
E2E2E2E2E2E2E2E2E2E2E2E2E2E2E2E2E2E2E2E2E2E2E2E2E2E2E2E2E2E2E2E2E2E2E2E2E2E2E2E2E2E2E2E2E2E2E2E2E2E2E2E2E2E2E2E2E2E2E2E2E2E2E2E2E2E2E2E2E2E2E2E2E2E2E2E2E2E2E2E2E2E2E2E2E2E2E2E2E2E2F5F5F5F5F5F5F5F5F5E2E2E2E2E2E2E2E2E2E2E2E2E2E2E2E2E2E2F5F5F5F5F5F5F5F5F5F5
310
F5F5F5F5F5F5F5F5F5F5F5F5F5E2E2E2E2E2E2E2E2E2E2E2E2E2E2E2E2E2E2E2E2E2E2E2E2E2E2E2E2E2E2E2E2E2E2E2E2E2E2E2E2E2E2E2E2E2E2E2E2E2E2E2E2E2E2E2E2E2E2E2E2E2E2E2E2E2E2E2E2E2E2E2E2E2E2E2E2E2E2E2E2E2E2E2E2E2E2E2E2E2E2E2E2E2E2E2E2E2E2E2E2E2E2E2E2E2E2E2E2E2E2E2E2E2E2
310
E2E2E2E2E2E2E2E2E2E2E2E2E2E2E2E2E2E2E2E2E2E2E2E2E2E2E2E2E2E2E2E2E2E2E2E2E2E2E2E2E2E2E2E2E2E2E2E2E2E2E2E2E2E2E2E2E2E2E2E2E2E2E2E2E2E2E2E2E2E2E2E2E2E2E2E2E2E2E2E2E2E2E2E2E2E2E2E2E2E2E2E2E2E2F5F5F5F5F5E2E2E2E2E2E2E2E2E2E2E2E2E2E2E2E2E2E2E2E2E2E2E2E2F5F5F5F5
310
F5F5F5F5F5F5F5F5E2E2E2E2E2E2E2E2E2E2E2E2E2E2E2E2E2E2E2E2E2E2E2E2E2E2E2E2E2E2E2E2E2E2E2E2E2E2E2E2E2E2E2E2E2E2E2E2E2E2E2E2E2E2E2E2E2E2E2E2E2E2E2E2E2E2E2E2E2E2E2E2E2E2E2E2E2E2E2E2E2E2E2E2E2E2E2E2E2E2E2E2E2E2E2E2E2E2E2E2E2E2E2E2E2E2E2E2E2E2E2E2E2E2E2E2E2E2E2
310
E2E2E2E2E2E2E2E2E2E2E2E2E2E2E2E2E2E2E2E2E2E2E2E2E2E2E2E2E2E2E2E2E2E2E2E2E2E2E2E2E2E2E2E2E2E2E2E2E2E2E2E2E2E2E2E2E2E2E2E2E2E2E2E2E2E2E2E2E2E2E2E2E2E2E2E2E2E2E2E2E2E2E2E2E2E2E2E2E2E2E2E2E2E2E2E2F5E2F5E2F5E2E2E2E2E2E2E2E2E2E2E2E2E2E2E2E2E2E2E2E2E2E2E2E2F5E2
310
E2E2E2F5E2E2E2E2E2F5E2E2E2E2E2E2E2E2E2E2E2E2E2E2E2E2E2E2E2E2E2E2E2E2E2E2E2E2E2E2E2E2E2E2E2E2E2E2E2E2E2E2E2E2E2E2E2E2E2E2E2E2E2E2E2E2E2E2E2E2E2E2E2E2E2E2E2E2E2E2E2E2E2E2E2E2E2E2E2E2E2E2E2E2E2E2E2E2E2E2E2E2E2E2E2E2E2E2E2E2E2E2E2E2E2E2E2E2E2E2E2E2E2E2E2E2E2
310
E2E2E2E2E2E2E2E2E2E2E2E2E2E2E2E2E2E2E2E2E2E2E2E2E2E2E2E2E2E2E2E2E2E2E2E2E2E2E2E2E2E2E2E2E2E2E2E2E2E2E2E2E2E2E2E2E2E2E2E2E2E2E2E2E2E2E2E2E2E2E2E2E2E2E2E2E2E2E2E2E2E2E2E2E2E2E2E2E2E2E2E2E2E2E2E2E2E2F5E2F5E2F5E2E2E2E2E2E2E2E2E2E2E2E2E2E2E2E2E2E2E2E2E2E2E2E2
310
F5E2E2E2E2F5E2E2E2E2E2F5E2E2E2E2E2E2E2E2E2E2E2E2E2E2E2E2E2E2E2E2E2E2E2E2E2E2E2E2E2E2E2E2E2E2E2E2E2E2E2E2E2E2E2E2E2E2E2E2E2E2E2E2E2E2E2E2E2E2E2E2E2E2E2E2E2E2E2E2E2E2E2E2E2E2E2E2E2E2E2E2E2E2E2E2E2E2E2E2E2E2E2E2E2E2E2E2E2E2E2E2E2E2E2E2E2E2E2E2E2E2E2E2E2E2E2
310
E2E2E2E2E2E2E2E2E2E2E2E2E2E2E2E2E2E2E2E2E2E2E2E2E2E2E2E2E2E2E2E2E2E2E2E2E2E2E2E2E2E2E2E2E2E2E2E2E2E2E2E2E2E2E2E2E2E2E2E2E2E2E2E2E2E2E2E2E2E2E2E2E2E2E2E2E2E2E2E2E2E2E2E2E2E2E2E2E2E2E2E2E2E2E2E2E2E2E2E2F5F5F5F5F5E2E2E2E2E2E2E2E2E2E2E2E2E2E2E2E2E2E2E2E2E2E2
310
E2E2F5F5F5F5F5F5F5F5F5F5F5F5E2E2E2E2E2E2E2E2E2E2E2E2E2E2E2E2E2E2E2E2E2E2E2E2E2E2E2E2E2E2E2E2E2E2E2E2E2E2E2E2E2E2E2E2E2E2E2E2E2E2E2E2E2E2E2E2E2E2E2E2E2E2E2E2E2E2E2E2E2E2E2E2E2E2E2E2E2E2E2E2E2E2E2E2E2E2E2E2E2E2E2E2E2E2E2E2E2E2E2E2E2E2E2E2E2E2E2E2E2E2E2E2E2
310
E2E2E2E2E2E2E2E2E2E2E2E2E2E2E2E2E2E2E2E2E2E2E2E2E2E2E2E2E2E2E2E2E2E2E2E2E2E2E2E2E2E2E2E2E2E2E2E2E2E2E2E2E2E2E2E2E2E2E2E2E2E2E2E2E2E2E2E2E2E2E2E2E2E2E2E2E2E2E2E2E2E2E2E2E2E2E2E2E2E2E2E2E2E2E2E2E2E2E2E2E2E2E2F5F5F5E2E2E2E2E2E2E2E2E2E2E2E2E2E2E2E2E2E2E2E2E2
310
E2E2E2E2E2E2E2E2E2F5F5E2E2E2E2E2E2E2E2E2E2E2E2E2E2E2E2E2E2E2E2E2E2E2E2E2E2E2E2E2E2E2E2E2E2E2E2E2E2E2E2E2E2E2E2E2E2E2E2E2E2E2E2E2E2E2E2E2E2E2E2E2E2E2E2E2E2E2E2E2E2E2E2E2E2E2E2E2E2E2E2E2E2E2E2E2E2E2E2E2E2E2E2E2E2E2E2E2E2E2E2E2E2E2E2E2E2E2E2E2E2E2E2E2E2E2E2
310
E2E2E2E2E2E2E2E2E2E2E2E2E2E2E2E2E2E2E2E2E2E2E2E2E2E2E2E2E2E2E2E2E2E2E2E2E2E2E2E2E2E2E2E2E2E2E2E2E2E2E2E2E2E2E2E2E2E2E2E2E2E2E2E2E2E2E2E2E2E2E2E2E2E2E2E2E2E2E2E2E2E2E2E2E2E2E2E2E2E2E2E2E2E2E2E2E2E2E2E2E2E2E2E2E2E2F5E2E2E2E2E2E2E2E2E2E2E2E2E2E2E2E2E2E2E2E2
310
E2E2E2E2E2E2E2E2E2E2E2F5E2E2E2E2E2E2E2E2E2E2E2E2E2E2E2E2E2E2E2E2E2E2E2E2E2E2E2E2E2E2E2E2E2E2E2E2E2E2E2E2E2E2E2E2E2E2E2E2E2E2E2E2E2E2E2E2E2E2E2E2E2E2E2E2E2E2E2E2E2E2E2E2E2E2E2E2E2E2E2E2E2E2E2E2E2E2E2E2E2E2E2E2E2E2E2E2E2E2E2E2E2E2E2E2E2E2E2E2E2E2E2E2E2E2E2
310
E2E2E2E2E2E2E2E2E2E2E2E2E2E2E2E2E2E2E2E2E2E2E2E2E2E2E2E2E2E2E2E2E2E2E2E2E2E2E2E2E2E2E2E2E2E2E2E2E2E2E2E2E2E2E2E2E2E2E2E2E2E2E2E2E2E2E2E2E2E2E2E2E2E2E2E2E2E2E2E2E2E2E2E2E2E2E2E2E2E2E2E2E2E2E2E2E2E2E2E2E2E2E2E2E2E2E2E2E2E2E2E2E2E2E2E2E2E2E2E2E2E2E2E2E2E2E2
310
E2E2E2E2E2E2E2E2E2E2E2E2E2E2E2E2E2E2E2E2E2E2E2E2E2E2E2E2E2E2E2E2E2E2E2E2E2E2E2E2E2E2E2E2E2E2E2E2E2E2E2E2E2E2E2E2E2E2E2E2E2E2E2E2E2E2E2E2E2E2E2E2E2E2E2E2E2E2E2E2E2E2E2E2E2E2E2E2E2E2E2E2E2E2E2E2E2E2E2E2E2E2E2E2E2E2E2E2E2E2E2E2E2E2E2E2E2E2E2E2E2E2E2E2E2E2E2
310
E2E2E2E2E2E2E2E2E2E2E2E2E2E2E2E2E2E2E2E2E2E2E2E2E2E2E2E2E2E2E2E2E2E2E2E2E2E2E2E2E2E2E2E2E2E2E2E2E2E2E2E2E2E2E2E2E2E2E2E2E2E2E2E2E2E2E2E2E2E2E2E2E2E2E2E2E2E2E2E2E2E2E2E2E2E2E2E2E2E2E2E2E2E2E2E2E2E2E2E2E2E2E2E2E2E2E2E2E2E2E2E2E2E2E2E2E2E2E2E2E2E2E2E2E2E2E2
310
E2E2E2E2E2E2E2E2E2E2E2E2E2E2E2E2E2E2E2E2E2E2E2E2E2E2E2E2E2E2E2E2E2E2E2E2E2E2E2E2E2E2E2E2E2E2E2E2E2E2E2E2E2E2E2E2E2E2E2E2E2E2E2E2E2E2E2E2E2E2E2E2E2E2E2E2E2E2E2E2E2E2E2E2E2E2E2E2E2E2E2E2E2E2E2E2E2E2E2E2E2E2E2E2E2E2E2E2E2E2E2E2E2E2E2E2E2E2E2E2E2E2E2E2E2E2E2
310
E2E2E2E2E2E2E2E2E2E2E2E2E2E2E2E2E2E2E2E2E2E2E2E2E2E2E2E2E2E2E2E2E2E2E2E2E2E2E2E2E2E2E2E2E2E2E2E2E2E2E2E2E2E2E2E2E2E2E2E2E2E2E2E2E2E2E2E2E2E2E2E2E2E2E2E2E2E2E2E2E2E2E2E2E2E2E2E2E2E2E2E2E2E2E2E2E2E2E2E2E2E2E2E2E2E2E2E2E2E2E2E2E2E2E2E2E2E2E2E2E2E2E2E2E2E2E2
310
E2E2E2E2E2E2E2E2E2E2E2E2E2E2E2E2E2E2E2E2E2E2E2E2E2E2E2E2E2E2E2E2E2E2E2E2E2E2E2E2E2E2E2E2E2E2E2E2E2E2E2E2E2E2E2E2E2E2E2E2E2E2E2E2E2E2E2E2E2E2E2E2E2E2E2E2E2E2E2E2E2E2E2E2E2E2E2E2E2E2E2E2E2E2E2E2E2E2E2E2E2E2E2E2E2E2E2E2E2E2E2E2E2E2E2E2E2E2E2E2E2E2E2E2E2E2E2
310
E2E2E2E2E2E2E2E2E2E2E2E2E2E2E2E2E2E2E2E2E2E2E2E2E2E2E2E2E2E2E2E2E2E2E2E2E2E2E2E2E2E2E2E2E2E2E2E2E2E2E2E2E2E2E2E2E2E2E2E2E2E2E2E2E2E2E2E2E2E2E2E2E2E2E2E2E2E2E2E2E2E2E2E2E2E2E2E2E2E2E2E2E2E2E2E2E2E2E2E2E2E2E2E2E2E2E2E2E2E2E2E2E2E2E2E2E2E2E2E2E2E2E2E2E2E2E2
310
E2E2E2E2E2E2E2E2E2E2E2E2E2E2E2E2E2E2E2F5E2E2E2E2E2E2E2E2E2E2E2E2E2E2E2E2E2E2E2E2E2E2E2E2E2E2E2E2E2E2E2E2E2E2E2E2E2E2E2E2E2E2E2E2E2E2E2E2E2E2E2E2E2E2E2E2E2E2E2E2E2E2E2E2E2E2E2E2E2E2E2E2E2E2E2E2E2E2E2E2E2E2E2E2E2E2E2E2E2E2E2E2E2E2E2E2E2E2E2E2E2E2E2E2E2E2E2
310
E2E2E2E2E2E2E2E2E2E2E2E2E2E2E2E2E2E2E2E2E2E2E2E2E2E2E2E2E2E2E2E2E2E2E2E2E2E2E2E2E2E2E2E2E2E2E2E2E2E2E2E2E2E2E2E2E2E2E2E2E2E2E2E2E2E2E2E2E2E2E2E2E2E2E2E2E2E2E2E2E2E2E2E2E2E2E2E2E2E2E2E2E2E2E2E2E2E2E2E2E2E2E2E2E2E2E2E2E2E2E2E2E2E2E2E2E2E2E2E2E2E2E2E2E2E2E2
310
E2E2E2E2E2E2E2E2E2E2E2E2E2E2E2E2E2E2E2E2F5F5F5F5E2E2E2E2E2E2E2E2E2E2E2E2E2E2E2E2E2E2E2E2E2E2E2E2E2E2E2E2E2E2E2E2E2E2E2E2E2E2E2E2E2E2E2E2E2E2E2E2E2E2E2E2E2E2E2E2E2E2E2E2E2E2E2E2E2E2E2E2E2E2E2E2E2E2E2E2E2E2E2E2E2E2E2E2E2E2E2E2E2E2E2E2E2E2E2E2E2E2E2E2E2E2E2
310
E2E2E2E2E2E2E2E2E2E2E2E2E2E2E2E2E2E2E2E2E2E2E2E2E2E2E2E2E2E2E2E2E2E2E2E2E2E2E2E2E2E2E2E2E2E2E2E2E2E2E2E2E2E2E2E2E2E2E2E2E2E2E2E2E2E2E2E2E2E2E2E2E2E2E2E2E2E2E2E2E2E2E2E2E2E2E2E2E2E2E2E2E2E2E2E2E2E2E2E2E2E2E2E2E2E2E2E2E2E2E2E2E2E2E2E2E2E2E2E2E2E2E2E2E2E2E2
310
E2E2E2E2E2E2E2E2E2E2E2E2E2E2E2E2E2E2E2E2E2F5F5F5E2F5F5E2E2E2E2E2E2E2E2E2E2E2E2E2E2E2E2E2E2E2E2E2E2E2E2E2E2E2E2E2E2E2E2E2E2E2E2E2E2E2E2E2E2E2E2E2E2E2E2E2E2E2E2E2E2E2E2E2E2E2E2E2E2E2E2E2E2E2E2E2E2E2E2E2E2E2E2E2E2E2E2E2E2E2E2E2E2E2E2E2E2E2E2E2E2E2E2E2E2E2E2
310
E2E2E2E2E2E2E2E2E2E2E2E2E2E2E2E2E2E2E2E2E2E2E2E2E2E2E2E2E2E2E2E2E2E2E2E2E2E2E2E2E2E2E2E2E2E2E2E2E2E2E2E2E2E2E2E2E2E2E2E2E2E2E2E2E2E2E2E2E2E2E2E2E2E2E2E2E2E2E2E2E2E2E2E2E2E2E2E2E2E2E2E2E2E2E2E2E2E2E2E2E2E2E2E2E2E2E2E2E2E2E2E2E2E2E2E2E2E2E2E2E2E2E2E2E2E2E2
310
E2E2E2E2E2E2E2E2E2E2E2E2E2E2E2E2E2E2F5F5E2E2E2F5F5F5E2F5F5E2E2E2F5E2E2E2E2E2E2E2E2E2E2E2E2E2E2E2E2E2E2E2E2E2E2E2E2E2E2E2E2E2E2E2E2E2E2E2E2E2E2E2E2E2E2E2E2E2E2E2E2E2E2E2E2E2E2E2E2E2E2E2E2E2E2E2E2E2E2E2E2E2E2E2E2E2E2E2E2E2E2E2E2E2E2E2E2E2E2E2E2E2E2E2E2E2E2
310
E2E2E2E2E2E2E2E2E2E2E2E2E2E2E2E2E2E2E2E2E2E2E2E2E2E2E2E2E2E2E2E2E2E2E2E2E2E2E2E2E2E2E2E2E2E2E2E2E2E2E2E2E2E2E2E2E2E2E2E2E2E2E2E2E2E2E2E2E2E2E2E2E2E2E2E2E2E2E2E2E2E2E2E2E2E2E2E2E2E2E2E2E2E2E2E2E2E2E2E2E2E2E2E2E2E2E2E2E2E2E2E2E2E2E2E2E2E2E2E2E2E2E2E2E2E2E2
310
E2E2E2E2E2E2E2E2E2E2E2E2E2E2E2E2E2E2E2E2F5F5F5F5F5F5F5F5E2F5F5F5F5F5F5E2E2E2E2E2E2E2E2E2E2E2E2E2E2E2E2E2E2E2E2E2E2E2E2E2E2E2E2E2E2E2E2E2E2E2E2E2E2E2E2E2E2E2E2E2E2E2E2E2E2E2E2E2E2E2E2E2E2E2E2E2E2E2E2E2E2E2E2E2E2E2E2E2E2E2E2E2E2E2E2E2E2E2E2E2E2E2E2E2E2E2E2
310
E2E2E2E2E2E2E2E2E2E2E2E2E2E2E2E2E2E2E2E2E2E2E2E2E2E2E2E2E2E2E2E2E2E2E2E2E2E2E2E2E2E2E2E2E2E2E2E2E2E2E2E2E2E2E2E2E2E2E2E2E2E2E2E2E2E2E2E2E2E2E2E2E2E2E2E2E2E2E2E2E2E2E2E2E2E2E2E2E2E2E2E2E2E2E2E2E2E2E2E2E2E2E2E2E2E2E2E2E2E2E2E2E2E2E2E2E2E2E2E2E2E2E2E2E2E2E2
310
E2E2E2E2E2E2E2E2E2E2E2E2E2E2E2E2E2E2E2E2E2F5F5F5F5F5F5F5F5F5F5F5F5F5F5F5F5F5F5F5F5F5E2E2E2E2E2E2E2E2E2E2E2E2E2E2E2E2E2E2E2E2E2E2E2E2E2E2E2E2E2E2E2E2E2E2E2E2E2E2E2E2E2E2E2E2E2E2E2E2E2E2E2E2E2E2E2E2E2E2E2E2E2E2E2E2E2E2E2E2E2E2E2E2E2E2E2E2E2E2E2E2E2E2E2E2E2
310
E2E2E2E2E2E2E2E2E2E2E2E2E2E2E2E2E2E2E2E2E2E2E2E2E2E2E2E2E2E2E2E2E2E2E2E2E2E2E2E2E2E2E2E2E2E2E2E2E2E2E2E2E2E2E2E2E2E2E2E2E2E2E2E2E2E2E2E2E2E2E2E2E2E2E2E2E2E2E2E2E2E2E2E2E2E2E2E2E2E2E2E2E2E2E2E2E2E2E2E2E2E2E2E2E2E2E2E2E2E2E2E2E2E2E2E2E2E2E2E2E2E2E2E2E2E2E2
310
E2E2E2E2E2E2E2E2E2E2E2E2E2E2E2E2E2E2E2E2E2E2F5F5F5F5F5F5F5F5F5F5F5F5F5F5F5F5F5F5F5F5F5F5E2E2E2E2E2E2E2E2E2E2E2E2E2E2E2E2E2E2E2E2E2E2E2E2E2E2E2E2E2E2E2E2E2E2E2E2E2E2E2E2E2E2E2E2E2E2E2E2E2E2E2E2E2E2E2E2E2E2E2E2E2E2E2E2E2E2E2E2E2E2E2E2E2E2E2E2E2E2E2E2E2E2E2
310
E2E2E2E2E2E2E2E2E2E2E2E2E2E2E2E2E2E2E2E2E2E2E2E2E2E2E2E2E2E2E2E2E2E2E2E2E2E2E2E2E2E2E2E2E2E2E2E2E2E2E2E2E2E2E2E2E2E2E2E2E2E2E2E2E2E2E2E2E2E2E2E2E2E2E2E2E2E2E2E2E2E2E2E2E2E2E2E2E2E2E2E2E2E2E2E2E2E2E2E2E2E2E2E2E2E2E2E2E2E2E2E2E2E2E2E2E2E2E2E2E2E2E2E2E2E2E2
310
E2E2E2E2E2E2E2E2E2E2E2E2E2E2E2E2E2E2E2E2E2E2E2F5F5F5E2E2E2E2F5F5E2F5E2E2F5F5E2E2E2E2E2E2F5F5F5F5E2E2E2E2E2E2E2E2E2E2E2E2E2E2E2E2E2E2E2E2E2E2E2E2E2E2E2E2E2E2E2E2E2E2E2E2E2E2E2E2E2E2E2E2E2E2E2E2E2E2E2E2E2E2E2E2E2E2E2E2E2E2E2E2E2E2E2E2E2E2E2E2E2E2E2E2E2E2E2
310
E2E2E2E2E2E2E2E2E2E2E2E2E2E2E2E2E2E2E2E2E2E2E2E2E2E2E2E2E2E2E2E2E2E2E2E2E2E2E2E2E2E2E2E2E2E2E2E2E2E2E2E2E2E2E2E2E2E2E2E2E2E2E2E2E2E2E2E2E2E2E2E2E2E2E2E2E2E2E2E2E2E2E2E2E2E2E2E2E2E2E2E2E2E2E2E2E2E2E2E2E2E2E2E2E2E2E2E2E2E2E2E2E2E2E2E2E2E2E2E2E2E2E2E2E2E2E2
310
E2E2E2E2E2E2E2E2E2E2E2E2E2E2E2E2E2E2E2E2E2E2E2E2E2F5F5F5F5F5F5F5F5F5F5F5F5F5F5F5F5F5F5F5F5F5F5F5F5F5E2E2E2E2E2E2E2E2E2E2E2E2E2E2E2E2E2E2E2E2E2E2E2E2E2E2E2E2E2E2E2E2E2E2E2E2E2E2E2E2E2E2E2E2E2E2E2E2E2E2E2E2E2E2E2E2E2E2E2E2E2E2E2E2E2E2E2E2E2E2E2E2E2E2E2E2E2
310
E2E2E2E2E2E2E2E2E2E2E2E2E2E2E2E2E2E2E2E2E2E2E2E2E2E2E2E2E2E2E2E2E2E2E2E2E2E2E2E2E2E2E2E2E2E2E2E2E2E2E2E2E2E2E2E2E2E2E2E2E2E2E2E2E2E2E2E2E2E2E2E2E2E2E2E2E2E2E2E2E2E2E2E2E2E2E2E2E2E2E2E2E2E2E2E2E2E2E2E2E2E2E2E2E2E2E2E2E2E2E2E2E2E2E2E2E2E2E2E2E2E2E2E2E2E2E2
310
E2E2E2E2E2E2E2E2E2E2E2E2E2E2E2E2E2E2E2E2E2E2E2E2E2E2E2F5F5F5E2E2E2E2F5F5E2F5E2F5F5F5E2E2E2E2E2E2F5F5F5F5E2E2E2E2E2E2E2E2E2E2E2E2E2E2E2E2E2E2E2E2E2E2E2E2E2E2E2E2E2E2E2E2E2E2E2E2E2E2E2E2E2E2E2E2E2E2E2E2E2E2E2E2E2E2E2E2E2E2E2E2E2E2E2E2E2E2E2E2E2E2E2E2E2E2E2
310
E2E2E2E2E2E2E2E2E2E2E2E2E2E2E2E2E2E2E2E2E2E2E2E2E2E2E2E2E2E2E2E2E2E2E2E2E2E2E2E2E2E2E2E2E2E2E2E2E2E2E2E2E2E2E2E2E2E2E2E2E2E2E2E2E2E2E2E2E2E2E2E2E2E2E2E2E2E2E2E2E2E2E2E2E2E2E2E2E2E2E2E2E2E2E2E2E2E2E2E2E2E2E2E2E2E2E2E2E2E2E2E2E2E2E2E2E2E2E2E2E2E2E2E2E2E2E2
310
E2E2E2E2E2E2E2E2E2E2E2E2E2E2E2E2E2E2E2E2E2E2E2E2E2E2E2E2E2E2E2F5E2E2F5F5E2E2E2F5F5E2E2E2F5F5E2E2E2E2F5F5E2E2E2E2E2E2E2E2E2E2E2E2E2E2E2E2E2E2E2E2E2E2E2E2E2E2E2E2E2E2E2E2E2E2E2E2E2E2E2E2E2E2E2E2E2E2E2E2E2E2E2E2E2E2E2E2E2E2E2E2E2E2E2E2E2E2E2E2E2E2E2E2E2E2E2
310
E2E2E2E2E2E2E2E2E2E2E2E2E2E2E2E2E2E2E2E2E2E2E2E2E2E2E2E2E2E2E2E2E2E2E2E2E2E2E2E2E2E2E2E2E2E2E2E2E2E2E2E2E2E2E2E2E2E2E2E2E2E2E2E2E2E2E2E2E2E2E2E2E2E2E2E2E2E2E2E2E2E2E2E2E2E2E2E2E2E2E2E2E2E2E2E2E2E2E2E2E2E2E2E2E2E2E2E2E2E2E2E2E2E2E2E2E2E2E2E2E2E2E2E2E2E2E2
310
E2E2E2E2E2E2E2E2E2E2E2E2E2E2E2E2E2E2E2E2E2E2E2E2E2E2E2E2E2E2E2E2F5F5F5F5F5F5F5F5F5F5F5F5F5F5F5F5F5F5F5F5F5F5E2E2E2E2E2E2E2E2E2E2E2E2E2E2E2E2E2E2E2E2E2E2E2E2E2E2E2E2E2E2E2E2E2E2E2E2E2E2E2E2E2E2E2E2E2E2E2E2E2E2E2E2E2E2E2E2E2E2E2E2E2E2E2E2E2E2E2E2E2E2E2E2E2
310
E2E2E2E2E2E2E2E2E2E2E2E2E2E2E2E2E2E2E2E2E2E2E2E2E2E2E2E2E2E2E2E2E2E2E2E2E2E2E2E2E2E2E2E2E2E2E2E2E2E2E2E2E2E2E2E2E2E2E2E2E2E2E2E2E2E2E2E2E2E2E2E2E2E2E2E2E2E2E2E2E2E2E2E2E2E2E2E2E2E2E2E2E2E2E2E2E2E2E2E2E2E2E2E2E2E2E2E2E2E2E2E2E2E2E2E2E2E2E2E2E2E2E2E2E2E2E2
310
E2E2E2E2E2E2E2E2E2E2E2E2E2E2E2E2E2E2E2E2E2E2E2E2E2E2E2E2E2E2E2E2E2E2E2F5E2E2E2E2F5F5E2F5E2F5F5F5E2E2E2E2E2E2F5F5E2E2E2E2E2E2E2E2E2E2E2E2E2E2E2E2E2E2E2E2E2E2E2E2E2E2E2E2E2E2E2E2E2E2E2E2E2E2E2E2E2E2E2E2E2E2E2E2E2E2E2E2E2E2E2E2E2E2E2E2E2E2E2E2E2E2E2E2E2E2E2
310
E2E2E2E2E2E2E2E2E2E2E2E2E2E2E2E2E2E2E2E2E2E2E2E2E2E2E2E2E2E2E2E2E2E2E2E2E2E2E2E2E2E2E2E2E2E2E2E2E2E2E2E2E2E2E2E2E2E2E2E2E2E2E2E2E2E2E2E2E2E2E2E2E2E2E2E2E2E2E2E2E2E2E2E2E2E2E2E2E2E2E2E2E2E2E2E2E2E2E2E2E2E2E2E2E2E2E2E2E2E2E2E2E2E2E2E2E2E2E2E2E2E2E2E2E2E2E2
310
E2E2E2E2E2E2E2E2E2E2E2E2E2E2E2E2E2E2E2E2E2E2E2E2E2E2E2E2E2E2E2E2E2E2E2E2F5F5F5F5F5F5F5F5F5F5F5F5F5F5F5F5F5F5F5F5F5F5F5E2E2E2E2E2E2E2E2E2E2E2E2E2E2E2E2E2E2E2E2E2E2E2E2E2E2E2E2E2E2E2E2E2E2E2E2E2E2E2E2E2E2E2E2E2E2E2E2E2E2E2E2E2E2E2E2E2E2E2E2E2E2E2E2E2E2E2E2
310
E2E2E2E2E2E2E2E2E2E2E2E2E2E2E2E2E2E2E2E2E2E2E2E2E2E2E2E2E2E2E2E2E2E2E2E2E2E2E2E2E2E2E2E2E2E2E2E2E2E2E2E2E2E2E2E2E2E2E2E2E2E2E2E2E2E2E2E2E2E2E2E2E2E2E2E2E2E2E2E2E2E2E2E2E2E2E2E2E2E2E2E2E2E2E2E2E2E2E2E2E2E2E2E2E2E2E2E2E2E2E2E2E2E2E2E2E2E2E2E2E2E2E2E2E2E2E2
310
E2E2E2E2E2E2E2E2E2E2E2E2E2E2E2E2E2E2E2E2E2E2E2E2E2E2E2E2E2E2E2E2E2E2E2E2E2E2F5F5E2E2E2E2F5F5E2F5E2E2F5F5E2E2E2E2E2E2F5F5F5E2E2E2E2E2E2E2E2E2E2E2E2E2E2E2E2E2E2E2E2E2E2E2E2E2E2E2E2E2E2E2E2E2E2E2E2E2E2E2E2E2E2E2E2E2E2E2E2E2E2E2E2E2E2E2E2E2E2E2E2E2E2E2E2E2E2
310
E2E2E2E2E2E2E2E2E2E2E2E2E2E2E2E2E2E2E2E2E2E2E2E2E2E2E2E2E2E2E2E2E2E2E2E2E2E2E2E2E2E2E2E2E2E2E2E2E2E2E2E2E2E2E2E2E2E2E2E2E2E2E2E2E2E2E2E2E2E2E2E2E2E2E2E2E2E2E2E2E2E2E2E2E2E2E2E2E2E2E2E2E2E2E2E2E2E2E2E2E2E2E2E2E2E2E2E2E2E2E2E2E2E2E2E2E2E2E2E2E2E2E2E2E2E2E2
310
E2E2E2E2E2E2E2E2E2E2E2E2E2E2E2E2E2E2E2E2E2E2E2E2E2E2E2E2E2E2E2E2E2E2E2E2E2E2E2E2F5F5F5F5F5F5F5F5F5F5F5F5F5F5F5F5F5F5F5F5F5F5E2E2E2E2E2E2E2E2E2E2E2E2E2E2E2E2E2E2E2E2E2E2E2E2E2E2E2E2E2E2E2E2E2E2E2E2E2E2E2E2E2E2E2E2E2E2E2E2E2E2E2E2E2E2E2E2E2E2E2E2E2E2E2E2E2
310
E2E2E2E2E2E2E2E2E2E2E2E2E2E2E2E2E2E2E2E2E2E2E2E2E2E2E2E2E2E2E2E2E2E2E2E2E2E2E2E2E2E2E2E2E2E2E2E2E2E2E2E2E2E2E2E2E2E2E2E2E2E2E2E2E2E2E2E2E2E2E2E2E2E2E2E2E2E2E2E2E2E2E2E2E2E2E2E2E2E2E2E2E2E2E2E2E2E2E2E2E2E2E2E2E2E2E2E2E2E2E2E2E2E2E2E2E2E2E2E2E2E2E2E2E2E2E2
310
E2E2E2E2E2E2E2E2E2E2E2E2E2E2E2E2E2E2E2E2E2E2E2E2E2E2E2E2E2E2E2E2E2E2E2E2E2E2E2E2E2E2E2F5F5F5F5F5F5F5F5F5F5F5F5F5F5F5F5F5F5F5F5F5E2E2E2E2E2E2E2E2E2E2E2E2E2E2E2E2E2E2E2E2E2E2E2E2E2E2E2E2E2E2E2E2E2E2E2E2E2E2E2E2E2E2E2E2E2E2E2E2E2E2E2E2E2E2E2E2E2E2E2E2E2E2E2
310
E2E2E2E2E2E2E2E2E2E2E2E2E2E2E2E2E2E2E2E2E2E2E2E2E2E2E2E2E2E2E2E2E2E2E2E2E2E2E2E2E2E2E2E2E2E2E2E2E2E2E2E2E2E2E2E2E2E2E2E2E2E2E2E2E2E2E2E2E2E2E2E2E2E2E2E2E2E2E2E2E2E2E2E2E2E2E2E2E2E2E2E2E2E2E2E2E2E2E2E2E2E2E2E2E2E2E2E2E2E2E2E2E2E2E2E2E2E2E2E2E2E2E2E2E2E2E2
310
E2E2E2E2E2E2E2E2E2E2E2E2E2E2E2E2E2E2E2E2E2E2E2E2E2E2E2E2E2E2E2E2E2E2E2E2E2E2E2E2E2E2E2E2E2E2F5F5F5F5F5E2F5F5E2F5F5F5F5F5F5E2E2E2E2E2E2E2E2E2E2E2E2E2E2E2E2E2E2E2E2E2E2E2E2E2E2E2E2E2E2E2E2E2E2E2E2E2E2E2E2E2E2E2E2E2E2E2E2E2E2E2E2E2E2E2E2E2E2E2E2E2E2E2E2E2E2
310
E2E2E2E2E2E2E2E2E2E2E2E2E2E2E2E2E2E2E2E2E2E2E2E2E2E2E2E2E2E2E2E2E2E2E2E2E2E2E2E2E2E2E2E2E2E2E2E2E2E2E2E2E2E2E2E2E2E2E2E2E2E2E2E2E2E2E2E2E2E2E2E2E2E2E2E2E2E2E2E2E2E2E2E2E2E2E2E2E2E2E2E2E2E2E2E2E2E2E2E2E2E2E2E2E2E2E2E2E2E2E2E2E2E2E2E2E2E2E2E2E2E2E2E2E2E2E2
310
E2E2E2E2E2E2E2E2E2E2E2E2E2E2E2E2E2E2E2E2E2E2E2E2E2E2E2E2E2E2E2E2E2E2E2E2E2E2E2E2E2E2E2E2E2E2E2E2F5F5E2E2E2F5F5F5E2F5F5E2E2E2F5E2E2E2E2E2E2E2E2E2E2E2E2E2E2E2E2E2E2E2E2E2E2E2E2E2E2E2E2E2E2E2E2E2E2E2E2E2E2E2E2E2E2E2E2E2E2E2E2E2E2E2E2E2E2E2E2E2E2E2E2E2E2E2E2
310
E2E2E2E2E2E2E2E2E2E2E2E2E2E2E2E2E2E2E2E2E2E2E2E2E2E2E2E2E2E2E2E2E2E2E2E2E2E2E2E2E2E2E2E2E2E2E2E2E2E2E2E2E2E2E2E2E2E2E2E2E2E2E2E2E2E2E2E2E2E2E2E2E2E2E2E2E2E2E2E2E2E2E2E2E2E2E2E2E2E2E2E2E2E2E2E2E2E2E2E2E2E2E2E2E2E2E2E2E2E2E2E2E2E2E2E2E2E2E2E2E2E2E2E2E2E2E2
310
E2E2E2E2E2E2E2E2E2E2E2E2E2E2E2E2E2E2E2E2E2E2E2E2E2E2E2E2E2E2E2E2E2E2E2E2E2E2E2E2E2E2E2E2E2E2E2E2E2E2E2E2E2E2E2F5F5F5E2F5F5E2E2E2E2E2E2E2E2E2E2E2E2E2E2E2E2E2E2E2E2E2E2E2E2E2E2E2E2E2E2E2E2E2E2E2E2E2E2E2E2E2E2E2E2E2E2E2E2E2E2E2E2E2E2E2E2E2E2E2E2E2E2E2E2E2E2
310
E2E2E2E2E2E2E2E2E2E2E2E2E2E2E2E2E2E2E2E2E2E2E2E2E2E2E2E2E2E2E2E2E2E2E2E2E2E2E2E2E2E2E2E2E2E2E2E2E2E2E2E2E2E2E2E2E2E2E2E2E2E2E2E2E2E2E2E2E2E2E2E2E2E2E2E2E2E2E2E2E2E2E2E2E2E2E2E2E2E2E2E2E2E2E2E2E2E2E2E2E2E2E2E2E2E2E2E2E2E2E2E2E2E2E2E2E2E2E2E2E2E2E2E2E2E2E2
310
E2E2E2E2E2E2E2E2E2E2E2E2E2E2E2E2E2E2E2E2E2E2E2E2E2E2E2E2E2E2E2E2E2E2E2E2E2E2E2E2E2E2E2E2E2E2E2E2E2E2E2E2E2E2E2E2E2E2F5F5F5F5E2E2E2E2E2E2E2E2E2E2E2E2E2E2E2E2E2E2E2E2E2E2E2E2E2E2E2E2E2E2E2E2E2E2E2E2E2E2E2E2E2E2E2E2E2E2E2E2E2E2E2E2E2E2E2E2E2E2E2E2E2E2E2E2E2
310
E2E2E2E2E2E2E2E2E2E2E2E2E2E2E2E2E2E2E2E2E2E2E2E2E2E2E2E2E2E2E2E2E2E2E2E2E2E2E2E2E2E2E2E2E2E2E2E2E2E2E2E2E2E2E2E2E2E2E2E2E2E2E2E2E2E2E2E2E2E2E2E2E2E2E2E2E2E2E2E2E2E2E2E2E2E2E2E2E2E2E2E2E2E2E2E2E2E2E2E2E2E2E2E2E2E2E2E2E2E2E2E2E2E2E2E2E2E2E2E2E2E2E2E2E2E2E2
310
E2E2E2E2E2E2E2E2E2E2E2E2E2E2E2E2E2E2E2E2E2E2E2E2E2E2E2E2E2E2E2E2E2E2E2E2E2E2E2E2E2E2E2E2E2E2E2E2E2E2E2E2E2E2E2E2E2E2E2E2E2F5E2E2E2E2E2E2E2E2E2E2E2E2E2E2E2E2E2E2E2E2E2E2E2E2E2E2E2E2E2E2E2E2E2E2E2E2E2E2E2E2E2E2E2E2E2E2E2E2E2E2E2E2E2E2E2E2E2E2E2E2E2E2E2E2E2
310
E2E2E2E2E2E2E2E2E2E2E2E2E2E2E2E2E2E2E2E2E2E2E2E2E2E2E2E2E2E2E2E2E2E2E2E2E2E2E2E2E2E2E2E2E2E2E2E2E2E2E2E2E2E2E2E2E2E2E2E2E2E2E2E2E2E2E2E2E2E2E2E2E2E2E2E2E2E2E2E2E2E2E2E2E2E2E2E2E2E2E2E2E2E2E2E2E2E2E2E2E2E2E2E2E2E2E2E2E2E2E2E2E2E2E2E2E2E2E2E2E2E2E2E2E2E2E2
310
E2E2E2E2E2E2E2E2E2E2E2E2E2E2E2E2E2E2E2E2E2E2E2E2E2E2E2E2E2E2E2E2E2E2E2E2E2E2E2E2E2E2E2E2E2E2E2E2E2E2E2E2E2E2E2E2E2E2E2E2E2E2E2E2E2E2E2E2E2E2E2E2E2E2E2E2E2E2E2E2E2E2E2E2E2E2E2E2E2E2E2E2E2E2E2E2E2E2E2E2E2E2E2E2E2E2E2E2E2E2E2E2E2E2E2E2E2E2E2E2E2E2E2E2E2E2E2
310
E2E2E2E2E2E2E2E2E2E2E2E2E2E2E2E2E2E2E2E2E2E2E2E2E2E2E2E2E2E2E2E2E2E2E2E2E2E2E2E2E2E2E2E2E2E2E2E2E2E2E2E2E2E2E2E2E2E2E2E2E2E2E2E2E2E2E2E2E2E2E2E2E2E2E2E2E2E2E2E2E2E2E2E2E2E2E2E2E2E2E2E2E2E2E2E2E2E2E2E2E2E2E2E2E2E2E2E2E2E2E2E2E2E2E2E2E2E2E2E2E2E2E2E2E2E2E2
310
E2E2E2E2E2E2E2E2E2E2E2E2E2E2E2E2E2E2E2E2E2E2E2E2E2E2E2E2E2E2E2E2E2E2E2E2E2E2E2E2E2E2E2E2E2E2E2E2E2E2E2E2E2E2E2E2E2E2E2E2E2E2E2E2E2E2E2E2E2E2E2E2E2E2E2E2E2E2E2E2E2E2E2E2E2E2E2E2E2E2E2E2E2E2E2E2E2E2E2E2E2E2E2E2E2E2E2E2E2E2E2E2E2E2E2E2E2E2E2E2E2E2E2E2E2E2E2
310
E2E2E2E2E2E2E2E2E2E2E2E2E2E2E2E2E2E2E2E2E2E2E2E2E2E2E2E2E2E2E2E2E2E2E2E2E2E2E2E2E2E2E2E2E2E2E2E2E2E2E2E2E2E2E2E2E2E2E2E2E2E2E2E2E2E2E2E2E2E2E2E2E2E2E2E2E2E2E2E2E2E2E2E2E2E2E2E2E2E2E2E2E2E2E2E2E2E2E2E2E2E2E2E2E2E2E2E2E2E2E2E2E2E2E2E2E2E2E2E2E2E2E2E2E2E2E2
310
E2E2E2E2E2E2E2E2E2E2E2E2E2E2E2E2E2E2E2E2E2E2E2E2E2E2E2E2E2E2E2E2E2E2E2E2E2E2E2E2E2E2E2E2E2F5F5F5F5F5E2F5F5F5F5F5F5E2E2E2E2E2E2E2E2E2E2E2E2E2E2E2E2E2E2E2E2E2E2E2E2E2E2E2E2E2E2E2E2E2E2E2E2E2E2E2E2E2E2E2E2E2E2E2E2E2E2E2E2E2E2E2E2E2E2E2E2E2E2E2E2E2E2E2E2E2E2
310
E2E2E2E2E2E2E2E2E2E2E2E2E2E2E2E2E2E2E2E2E2E2E2E2E2E2E2E2E2E2E2E2E2E2E2E2E2E2E2E2E2E2E2E2E2E2E2E2E2E2E2E2E2E2E2E2E2E2E2E2E2E2E2E2E2E2E2E2E2E2E2E2E2E2E2E2E2E2E2E2E2E2E2E2E2E2E2E2E2E2E2E2E2E2E2E2E2E2E2E2E2E2E2E2E2E2E2E2E2E2E2E2E2E2E2E2E2E2E2E2E2E2E2E2E2E2E2
310
E2E2E2E2E2E2E2E2E2E2E2E2E2E2E2E2E2E2E2E2E2E2E2E2F5F5F5F5F5F5E2E2E2E2F5E2E2E2E2E2F5F5F5F5E2E2E2E2E2E2E2E2E2E2E2E2E2E2E2E2E2E2F5E2E2E2E2E2F5F5F5E2E2E2F5F5F5F5E2E2E2F5F5E2E2E2E2F5F5E2E2E2F5F5E2E2E2E2E2E2E2E2E2E2E2E2E2F5E2E2E2F5F5F5E2E2E2E2E2E2E2E2E2E2E2E2E2
310
E2E2E2E2E2E2E2E2E2E2E2E2E2E2E2E2E2E2E2E2E2E2E2E2E2E2E2E2E2E2E2E2E2E2E2E2E2E2E2E2E2E2E2E2E2E2E2E2E2E2E2E2E2E2E2E2E2E2E2E2E2E2E2E2E2E2E2E2E2E2E2E2E2E2E2E2E2E2E2E2E2E2E2E2E2E2E2E2E2E2E2E2E2E2E2E2E2E2E2E2E2E2E2E2E2E2E2E2E2E2E2E2E2E2E2E2E2E2E2E2E2E2E2E2E2E2E2
310
E2E2E2E2E2E2E2E2E2E2E2E2E2E2E2E2E2E2E2E2E2E2E2E2E2E2F5E2E2E2E2E2E2E2E2E2F5F5E2E2E2E2E2F5E2E2F5E2E2E2E2E2E2E2E2E2E2E2E2E2E2E2E2E2F5E2E2E2E2F5E2E2E2F5E2F5E2E2E2E2F5E2F5E2E2F5E2E2F5E2E2F5E2F5E2E2F5E2E2E2E2E2E2E2E2E2E2E2E2F5E2E2F5E2E2E2F5F5E2E2E2E2E2E2E2E2E2
310
E2E2E2E2E2E2E2E2E2E2E2E2E2E2E2E2E2E2E2E2E2E2E2E2E2E2E2E2E2E2E2E2E2E2E2E2E2E2E2E2E2E2E2E2E2E2E2E2E2E2E2E2E2E2E2E2E2E2E2E2E2E2E2E2E2E2E2E2E2E2E2E2E2E2E2E2E2E2E2E2E2E2E2E2E2E2E2E2E2E2E2E2E2E2E2E2E2E2E2E2E2E2E2E2E2E2E2E2E2E2E2E2E2E2E2E2E2E2E2E2E2E2E2E2E2E2E2
310
E2E2E2E2E2E2E2E2E2E2E2E2E2E2E2E2E2E2E2E2E2E2E2E2E2E2E2E2F5E2E2E2E2E2E2E2E2F5E2F5E2E2E2E2E2F5E2E2F5E2E2E2E2E2E2E2E2E2E2E2E2E2E2E2E2E2F5E2E2E2E2E2E2E2E2F5E2E2E2E2E2E2F5E2F5E2E2F5E2E2F5E2E2F5E2F5E2E2F5E2E2E2E2E2E2E2E2F5F5F5F5F5F5E2E2E2E2E2F5E2E2E2E2E2E2E2E2
310
E2E2E2E2E2E2E2E2E2E2E2E2E2E2E2E2E2E2E2E2E2E2E2E2E2E2E2E2E2E2E2E2E2E2E2E2E2E2E2E2E2E2E2E2E2E2E2E2E2E2E2E2E2E2E2E2E2E2E2E2E2E2E2E2E2E2E2E2E2E2E2E2E2E2E2E2E2E2E2E2E2E2E2E2E2E2E2E2E2E2E2E2E2E2E2E2E2E2E2E2E2E2E2E2E2E2E2E2E2E2E2E2E2E2E2E2E2E2E2E2E2E2E2E2E2E2E2
310
E2E2E2E2E2E2E2E2E2E2E2E2E2E2E2E2E2E2E2E2E2E2E2E2E2E2E2E2E2E2F5E2E2E2E2E2E2E2E2F5E2E2F5E2E2E2E2F5F5F5E2E2E2E2E2E2E2E2E2E2E2E2E2E2E2E2E2E2F5E2E2E2E2E2E2F5F5E2E2E2E2E2E2E2F5E2F5E2E2F5E2E2F5E2E2F5E2F5E2E2F5E2E2E2E2E2E2E2E2E2F5E2E2F5E2E2E2E2F5F5E2E2E2E2E2E2E2
310
E2E2E2E2E2E2E2E2E2E2E2E2E2E2E2E2E2E2E2E2E2E2E2E2E2E2E2E2E2E2E2E2E2E2E2E2E2E2E2E2E2E2E2E2E2E2E2E2E2E2E2E2E2E2E2E2E2E2E2E2E2E2E2E2E2E2E2E2E2E2E2E2E2E2E2E2E2E2E2E2E2E2E2E2E2E2E2E2E2E2E2E2E2E2E2E2E2E2E2E2E2E2E2E2E2E2E2E2E2E2E2E2E2E2E2E2E2E2E2E2E2E2E2E2E2E2E2
310
E2E2E2E2E2E2E2E2E2E2E2E2E2E2E2E2E2E2E2E2E2E2E2E2E2E2E2E2E2E2E2E2F5E2E2E2E2E2E2E2F5E2E2E2F5E2E2E2E2F5E2E2F5E2E2E2E2E2E2E2E2E2E2E2E2E2E2E2E2E2F5E2E2E2E2E2E2E2E2F5E2F5F5F5F5F5E2E2F5E2E2F5E2E2F5E2E2F5E2F5E2E2F5E2E2E2E2E2E2E2E2E2E2F5E2F5E2E2E2F5E2E2E2E2E2E2E2
310
E2E2E2E2E2E2E2E2E2E2E2E2E2E2E2E2E2E2E2E2E2E2E2E2E2E2E2E2E2E2E2E2E2E2E2E2E2E2E2E2E2E2E2E2E2E2E2E2E2E2E2E2E2E2E2E2E2E2E2E2E2E2E2E2E2E2E2E2E2E2E2E2E2E2E2E2E2E2E2E2E2E2E2E2E2E2E2E2E2E2E2E2E2E2E2E2E2E2E2E2E2E2E2E2E2E2E2E2E2E2E2E2E2E2E2E2E2E2E2E2E2E2E2E2E2E2E2
310
E2E2E2E2E2E2E2E2E2E2E2E2E2E2E2E2E2E2E2E2E2E2E2E2E2E2E2E2E2E2E2E2E2E2F5E2E2E2E2E2E2E2F5E2E2E2E2F5E2E2E2F5E2E2F5E2E2E2E2E2E2E2E2E2E2E2E2E2E2E2E2E2F5E2E2E2E2F5E2E2E2F5E2F5E2E2E2E2E2E2F5E2E2F5E2E2F5E2E2F5E2F5E2E2F5E2E2E2E2E2E2E2E2E2E2F5E2F5E2E2F5E2E2E2E2F5E2
310
E2E2E2E2E2E2E2E2E2E2E2E2E2E2E2E2E2E2E2E2E2E2E2E2E2E2E2E2E2E2E2E2E2E2E2E2E2E2E2E2E2E2E2E2E2E2E2E2E2E2E2E2E2E2E2E2E2E2E2E2E2E2E2E2E2E2E2E2E2E2E2E2E2E2E2E2E2E2E2E2E2E2E2E2E2E2E2E2E2E2E2E2E2E2E2E2E2E2E2E2E2E2E2E2E2E2E2E2E2E2E2E2E2E2E2E2E2E2E2E2E2E2E2E2E2E2E2
310
E2E2E2E2E2E2E2E2E2E2E2E2E2E2E2E2E2E2E2E2E2E2E2E2E2E2E2E2E2E2E2E2E2E2E2E2F5E2E2E2E2E2E2F5E2E2E2E2E2F5E2E2E2F5E2E2F5E2E2E2E2E2E2E2E2E2E2E2E2E2E2E2E2E2F5E2E2E2E2E2F5E2E2F5E2F5E2E2E2E2E2E2E2F5E2F5E2E2E2F5E2F5E2E2F5E2F5E2E2E2E2E2E2E2E2E2E2E2F5F5E2E2E2F5E2E2F5
310
E2E2E2E2E2E2E2E2E2E2E2E2E2E2E2E2E2E2E2E2E2E2E2E2E2E2E2E2E2E2E2E2E2E2E2E2E2E2E2E2E2E2E2E2E2E2E2E2E2E2E2E2E2E2E2E2E2E2E2E2E2E2E2E2E2E2E2E2E2E2E2E2E2E2E2E2E2E2E2E2E2E2E2E2E2E2E2E2E2E2E2E2E2E2E2E2E2E2E2E2E2E2E2E2E2E2E2E2E2E2E2E2E2E2E2E2E2E2E2E2E2E2E2E2E2E2E2
310
E2E2E2E2E2E2E2E2E2E2E2E2E2E2E2E2E2E2E2E2E2E2E2E2E2E2E2E2E2E2E2E2E2E2E2E2E2E2F5E2E2E2E2E2E2F5E2E2E2E2E2E2F5E2F5F5F5F5E2E2E2E2E2E2E2E2E2E2E2E2E2E2E2E2F5F5F5F5F5E2E2E2F5F5F5E2E2F5F5F5F5F5F5E2E2F5F5E2E2E2E2F5F5E2E2E2F5F5E2E2E2E2E2E2E2E2E2E2E2E2E2F5E2E2E2F5F5
310
F5E2E2E2E2E2E2E2E2E2E2E2E2E2E2E2E2E2E2E2E2E2E2E2E2E2E2E2E2E2E2E2E2E2E2E2E2E2E2E2E2E2E2E2E2E2E2E2E2E2E2E2E2E2E2E2E2E2E2E2E2E2E2E2E2E2E2E2E2E2E2E2E2E2E2E2E2E2E2E2E2E2E2E2E2E2E2E2E2E2E2E2E2E2E2E2E2E2E2E2E2E2E2E2E2E2E2E2E2E2E2E2E2E2E2E2E2E2E2E2E2E2E2E2E2E2E2
310
E2E2E2E2E2E2E2E2E2E2E2E2E2E2E2E2E2E2E2E2E2E2E2E2E2E2E2E2E2E2E2E2E2E2E2E2E2E2E2E2E2E2E2E2E2E2E2E2E2E2E2E2E2E2E2E2E2E2E2E2E2E2E2E2E2E2E2E2E2E2E2E2E2E2E2E2E2E2E2E2E2E2E2E2E2E2E2E2E2E2E2E2E2E2E2E2E2E2E2E2E2E2E2E2E2E2E2E2E2E2E2E2E2E2E2E2E2E2E2E2E2E2E2E2E2E2E2
310
E2E2E2E2E2E2E2E2E2E2E2E2E2E2E2E2E2E2E2E2E2E2E2E2E2E2E2E2E2E2E2E2E2E2E2E2E2E2E2E2E2E2E2E2E2E2E2E2E2E2E2E2E2E2E2E2E2E2E2E2E2E2E2E2E2E2E2E2E2E2E2E2E2E2E2E2E2E2E2E2E2E2E2E2E2E2E2E2E2E2E2E2E2E2E2E2E2E2E2E2E2E2E2E2E2E2E2E2E2E2E2E2E2E2E2E2E2E2E2E2E2E2E2E2E2E2E2
310
E2E2E2E2E2E2E2E2E2E2E2E2E2E2E2E2E2E2E2E2E2E2E2E2E2E2E2E2E2E2E2E2E2E2E2E2E2E2E2E2E2E2E2E2E2E2E2E2E2E2E2E2E2E2E2E2E2E2E2E2E2E2E2E2E2E2E2E2E2E2E2E2E2E2E2E2E2E2E2E2E2E2E2E2E2E2E2E2E2E2E2E2E2E2E2E2E2E2E2E2E2E2E2E2E2E2E2E2E2E2E2E2E2E2E2E2E2E2E2E2E2E2E2E2E2E2E2
310
E2E2E2E2E2E2E2E2E2E2E2E2E2E2E2E2E2E2E2E2E2E2E2E2E2E2E2E2E2E2E2E2E2E2E2E2E2E2E2E2E2E2E2E2E2E2E2E2E2E2E2E2E2E2E2E2E2E2E2E2E2E2E2E2E2E2E2E2E2E2E2E2E2E2E2E2E2E2E2E2E2E2E2E2E2E2E2E2E2E2E2E2E2E2E2E2E2E2E2E2E2E2E2E2E2E2E2E2E2E2E2E2E2E2E2E2E2E2E2E2E2E2E2E2E2E2E2
310
E2E2E2E2E2E2E2E2E2E2E2E2E2E2E2E2E2E2E2E2E2E2E2E2E2E2E2E2E2E2E2E2E2E2E2E2E2E2E2E2E2E2E2E2E2E2E2E2E2E2E2E2E2E2E2E2E2E2E2E2E2E2E2E2E2E2E2E2E2E2E2E2E2E2E2E2E2E2E2E2E2E2E2E2E2E2E2E2E2E2E2E2E2E2E2E2E2E2E2E2E2E2E2E2E2E2E2E2E2E2E2E2E2E2E2E2E2E2E2E2E2E2E2E2E2E2E2
310
E2E2E2E2E2E2E2E2E2E2E2E2E2E2E2E2E2E2E2E2E2E2E2E2E2E2E2E2E2E2E2E2E2E2E2E2E2E2E2E2E2E2E2E2E2E2E2E2E2E2E2E2E2E2E2E2E2E2E2E2E2E2E2E2E2E2E2E2E2E2E2E2E2E2E2E2E2E2E2E2E2E2E2E2E2E2E2E2E2E2E2E2E2E2E2E2E2E2E2E2E2E2E2E2E2E2E2E2E2E2E2E2E2E2E2E2E2E2E2E2E2E2E2E2E2E2E2
310
E2E2E2E2E2E2E2E2E2E2E2E2E2E2E2E2E2E2E2E2E2E2E2E2E2E2E2E2E2E2E2E2E2E2E2E2E2E2E2E2E2E2E2E2E2E2E2E2E2E2E2E2E2E2E2E2E2E2E2E2E2E2E2E2E2E2E2E2E2E2E2E2E2E2E2E2E2E2E2E2E2E2E2E2E2E2E2E2E2E2E2E2E2E2E2E2E2E2E2E2E2E2E2E2E2E2E2E2E2E2E2E2E2E2E2E2E2E2E2E2E2E2E2E2E2E2E2
310
E2E2E2E2E2E2E2E2E2E2E2E2E2E2E2E2E2E2E2E2E2E2E2E2E2E2E2E2E2E2E2E2E2E2E2E2E2E2E2E2E2E2E2E2E2E2E2E2E2E2E2E2E2E2E2E2E2E2E2E2E2E2E2E2E2E2E2E2E2E2E2E2E2E2E2E2E2E2E2E2E2E2E2E2E2E2E2E2E2E2E2E2E2E2E2E2E2E2E2E2E2E2E2E2E2E2E2E2E2E2E2E2E2E2E2E2E2E2E2E2E2E2E2E2E2E2E2
310
E2E2E2E2E2E2E2E2E2E2E2E2E2E2E2E2E2E2E2E2E2E2E2E2E2E2E2E2E2E2E2E2E2E2E2E2E2E2E2E2E2E2E2E2E2E2E2E2E2E2E2E2E2E2E2E2E2E2E2E2E2E2E2E2E2E2E2E2E2E2E2E2E2E2E2E2E2E2E2E2E2E2E2E2E2E2E2E2E2E2E2E2E2E2E2E2E2E2E2E2E2E2E2E2E2E2E2E2E2E2E2E2E2E2E2E2E2E2E2E2E2E2E2E2E2E2E2
310
E2E2E2E2E2E2E2E2E2E2E2E2E2E2E2E2E2E2E2E2E2E2E2E2E2E2E2E2E2E2E2E2E2E2E2E2E2E2E2E2E2E2E2E2E2E2E2E2E2E2E2E2E2E2E2E2E2E2E2E2E2E2E2E2E2E2E2E2E2E2E2E2E2E2E2E2E2E2E2E2E2E2E2E2E2E2E2E2E2E2E2E2E2E2E2E2E2E2E2E2E2E2E2E2E2E2E2E2E2E2E2E2E2E2E2E2E2E2E2E2E2E2E2E2E2E2E2
310
E2E2E2E2E2E2E2E2E2E2E2E2E2E2E2E2E2E2E2E2E2E2E2E2E2E2E2E2E2E2E2E2E2E2E2E2E2E2E2E2E2E2E2E2E2E2E2E2E2E2E2E2E2E2E2E2E2E2E2E2E2E2E2E2E2E2E2E2E2E2E2E2E2E2E2E2E2E2E2E2E2E2E2E2E2E2E2E2E2E2E2E2E2E2E2E2E2E2E2E2E2E2E2E2E2E2E2E2E2E2E2E2E2E2E2E2E2E2E2E2E2E2E2E2E2E2E2
310
E2E2E2E2E2E2E2E2E2E2E2E2E2E2E2E2E2E2E2E2E2E2E2E2E2E2E2E2E2E2E2E2E2E2E2E2E2E2E2E2E2E2E2E2E2E2E2E2E2E2E2E2E2E2E2E2E2E2E2E2E2E2E2E2E2E2E2E2E2E2E2E2E2E2E2E2E2E2E2E2E2E2E2E2E2E2E2E2E2E2E2E2E2E2E2E2E2E2E2E2E2E2E2E2E2E2E2E2E2E2E2E2E2E2E2E2E2E2E2E2E2E2E2E2E2E2E2
310
E2E2E2E2E2E2E2E2E2E2E2E2E2E2E2E2E2E2E2E2E2E2E2E2E2E2E2E2E2E2E2E2E2E2E2E2E2E2E2E2E2E2E2E2E2E2E2E2E2E2E2E2E2E2E2E2E2E2E2E2E2E2E2E2E2E2E2E2E2E2E2E2E2E2E2E2E2E2E2E2E2E2E2E2E2E2E2E2E2E2E2E2E2E2E2E2E2E2E2E2E2E2E2E2E2E2E2E2E2E2E2E2E2E2E2E2E2E2E2E2E2E2E2E2E2E2E2
310
E2E2E2E2E2E2E2E2E2E2E2E2E2E2E2E2E2E2E2E2E2E2E2E2E2E2E2E2E2E2E2E2E2E2E2E2E2E2E2E2E2E2E2E2E2E2E2E2E2E2E2E2E2E2E2E2E2E2E2E2E2E2E2E2E2E2E2E2E2E2E2E2E2E2E2E2E2E2E2E2E2E2E2E2E2E2E2E2E2E2E2E2E2E2E2E2E2E2E2E2E2E2E2E2E2E2E2E2E2E2E2E2E2E2E2E2E2E2E2E2E2E2E2E2E2E2E2
310
E2E2E2E2E2E2E2E2E2E2E2E2E2E2E2E2E2E2E2E2E2E2E2E2E2E2E2E2E2E2E2E2E2E2E2E2E2E2E2E2E2E2E2E2E2E2E2E2E2E2E2E2E2E2E2E2E2E2E2E2E2E2E2E2E2E2E2E2E2E2E2E2E2E2E2E2E2E2E2E2E2E2E2E2E2E2E2E2E2E2E2E2E2E2E2E2E2E2E2E2E2E2E2E2E2E2E2E2E2E2E2E2E2E2E2E2E2E2E2E2E2E2E2E2E2E2E2
310
E2E2E2E2E2E2E2E2E2E2E2E2E2E2E2E2E2E2E2E2E2E2E2E2E2E2E2E2E2E2E2E2E2E2E2E2E2E2E2E2E2E2E2E2E2E2E2E2E2E2E2E2E2E2E2E2E2E2E2E2E2E2E2E2E2E2E2E2E2E2E2E2E2E2E2E2E2E2E2E2E2E2E2E2E2E2E2E2E2E2E2E2E2E2E2E2E2E2E2E2E2E2E2E2E2E2E2E2E2E2E2E2E2E2E2E2E2E2E2E2E2E2E2E2E2E2E2
310
E2E2E2E2E2E2E2E2E2E2E2E2E2E2E2E2E2E2E2E2E2E2E2E2E2E2E2E2E2E2E2E2E2E2E2E2E2E2E2E2E2E2E2E2E2E2E2E2E2E2E2E2E2E2E2E2E2E2E2E2E2E2E2E2E2E2E2E2E2E2E2E2E2E2E2E2E2E2E2E2E2E2E2E2E2E2E2E2E2E2E2E2E2E2E2E2E2E2E2E2E2E2E2E2E2E2E2E2E2E2E2E2E2E2E2E2E2E2E2E2E2E2E2E2E2E2E2
310
E2E2E2E2E2E2E2E2E2E2E2E2E2E2E2E2E2E2E2E2E2E2E2E2E2E2E2E2E2E2E2E2E2E2E2E2E2E2E2E2E2E2E2E2E2E2E2E2E2E2E2E2E2E2E2E2E2E2E2E2E2E2E2E2E2E2E2E2E2E2E2E2E2E2E2E2E2E2E2E2E2E2E2E2E2E2E2E2E2E2E2E2E2E2E2E2E2E2E2E2E2E2E2E2E2E2E2E2E2E2E2E2E2E2E2E2E2E2E2E2E2E2E2E2E2E2E2
310
E2E2E2E2E2E2E2E2E2E2E2E2E2E2E2E2E2E2E2E2E2E2E2E2E2E2E2E2E2E2E2E2E2E2E2E2E2E2E2E2E2E2E2E2E2E2E2E2E2E2E2E2E2E2E2E2E2E2E2E2E2E2E2E2E2E2E2E2E2E2E2E2E2E2E2E2E2E2E2E2E2E2E2E2E2E2E2E2E2E2E2E2E2E2E2E2E2E2E2E2E2E2E2E2E2E2E2E2E2E2E2E2E2E2E2E2E2E2E2E2E2E2E2E2E2E2E2
310
E2E2E2E2E2E2E2E2E2E2E2E2E2E2E2E2E2E2E2E2E2E2E2E2E2E2E2E2E2E2E2E2E2E2E2E2E2E2E2E2E2E2E2E2E2E2E2E2E2E2E2E2E2E2E2E2E2E2E2E2E2E2E2E2E2E2E2E2E2E2E2E2E2E2E2E2E2E2E2E2E2E2E2E2E2E2E2E2E2E2E2E2E2E2E2E2E2E2E2E2E2E2E2E2E2E2E2E2E2E2E2E2E2E2E2E2E2E2E2E2E2E2E2E2E2E2E2
310
E2E2E2E2E2E2E2E2E2E2E2E2E2E2E2E2E2E2E2E2E2E2E2E2E2E2E2E2E2E2E2E2E2E2E2E2E2E2E2E2E2E2E2E2E2E2E2E2E2E2E2E2E2E2E2E2E2E2E2E2E2E2E2E2E2E2E2E2E2E2E2E2E2E2E2E2E2E2E2E2E2E2E2E2E2E2E2E2E2E2E2E2E2E2E2E2E2E2E2E2E2E2E2E2E2E2E2E2E2E2E2E2E2E2E2E2E2E2E2E2E2E2E2E2E2E2E2
310
E2E2E2E2E2E2E2E2E2E2E2E2E2E2E2E2E2E2E2E2E2E2E2E2E2E2E2E2E2E2E2E2E2E2E2E2E2E2E2E2E2E2E2E2E2E2E2E2E2E2E2E2E2E2E2E2E2E2E2E2E2E2E2E2E2E2E2E2E2E2E2E2E2E2E2E2E2E2E2E2E2E2E2E2E2E2E2E2E2E2E2E2E2E2E2E2E2E2E2E2E2E2E2E2E2E2E2E2E2E2E2E2E2E2E2E2E2E2E2E2E2E2E2E2E2E2E2
310
E2E2E2E2E2E2E2E2E2E2E2E2E2E2E2E2E2E2E2E2E2E2E2E2E2E2E2E2E2E2E2E2E2E2E2E2E2E2E2E2E2E2E2E2E2E2E2E2E2E2E2E2E2E2E2E2E2E2E2E2E2E2E2E2E2E2E2E2E2E2E2E2E2E2E2E2E2E2E2E2E2E2E2E2E2E2E2E2E2E2E2E2E2E2E2E2E2E2E2E2E2E2E2E2E2E2E2E2E2E2E2E2E2E2E2E2E2E2E2E2E2E2E2E2E2E2E2
310
E2E2E2E2E2E2E2E2E2E2E2E2E2E2E2E2E2E2E2E2E2E2E2E2E2E2E2E2E2E2E2E2E2E2E2E2E2E2E2E2E2E2E2E2E2E2E2E2E2E2E2E2E2E2E2E2E2E2E2E2E2E2E2E2E2E2E2E2E2E2E2E2E2E2E2E2E2E2E2E2E2E2E2E2E2E2E2E2E2E2E2E2E2E2E2E2E2E2E2E2E2E2E2E2E2E2E2E2E2E2E2E2E2E2E2E2E2E2E2E2E2E2E2E2E2E2E2
310
E2E2E2E2E2E2E2E2E2E2E2E2E2E2E2E2E2E2E2E2E2E2E2E2E2E2E2E2E2E2E2E2E2E2E2E2E2E2E2E2E2E2E2E2E2E2E2E2E2E2E2E2E2E2E2E2E2E2E2E2E2E2E2E2E2E2E2E2E2E2E2E2E2E2E2E2E2E2E2E2E2E2E2E2E2E2E2E2E2E2E2E2E2E2E2E2E2E2E2E2E2E2E2E2E2E2E2E2E2E2E2E2E2E2E2E2E2E2E2E2E2E2E2E2E2E2E2
310
E2E2E2E2E2E2E2E2E2E2E2E2E2E2E2E2E2E2E2E2E2E2E2E2E2E2E2E2E2E2E2E2E2E2E2E2E2E2E2E2E2E2E2E2E2E2E2E2E2E2E2E2E2E2E2E2E2E2E2E2E2E2E2E2E2E2E2E2E2E2E2E2E2E2E2E2E2E2E2E2E2E2E2E2E2E2E2E2E2E2E2E2E2E2E2E2E2E2E2E2E2E2E2E2E2E2E2E2E2E2E2E2E2E2E2E2E2E2E2E2E2E2E2E2E2E2E2
310
E2E2E2E2E2E2E2E2E2E2E2E2E2E2E2E2E2E2E2E2E2E2E2E2E2E2E2E2E2E2E2E2E2E2E2E2E2E2E2E2E2E2E2E2E2E2E2E2E2E2E2E2E2E2E2E2E2E2E2E2E2E2E2E2E2E2E2E2E2E2E2E2E2E2E2E2E2E2E2E2E2E2E2E2E2E2E2E2E2E2E2E2E2E2E2E2E2E2E2E2E2E2E2E2E2E2E2E2E2E2E2E2E2E2E2E2E2E2E2E2E2E2E2E2E2E2E2
310
E2E2E2E2E2E2E2E2E2E2E2E2E2E2E2E2E2E2E2E2E2E2E2E2E2E2E2E2E2E2E2E2E2E2E2E2E2E2E2E2E2E2E2E2E2E2E2E2E2E2E2E2E2E2E2E2E2E2E2E2E2E2E2E2E2E2E2E2E2E2E2E2E2E2E2E2E2E2E2E2E2E2E2E2E2E2E2E2E2E2E2E2E2E2E2E2E2E2E2E2E2E2E2E2E2E2E2E2E2E2E2E2E2E2E2E2E2E2E2E2E2E2E2E2E2E2E2
310
E2E2E2E2E2E2E2E2E2E2E2E2E2E2E2E2E2E2E2E2E2E2E2E2E2E2E2E2E2E2E2E2E2E2E2E2E2E2E2E2E2E2E2E2E2E2E2E2E2E2E2E2E2E2E2E2E2E2E2E2E2E2E2E2E2E2E2E2E2E2E2E2E2E2E2E2E2E2E2E2E2E2E2E2E2E2E2E2E2E2E2E2E2E2E2E2E2E2E2E2E2E2E2E2E2E2E2E2E2E2E2E2E2E2E2E2E2E2E2E2E2E2E2E2E2E2E2
310
E2E2E2E2E2E2E2E2E2E2E2E2E2E2E2E2E2E2E2E2E2E2E2E2E2E2E2E2E2E2E2E2E2E2E2E2E2E2E2E2E2E2E2E2E2E2E2E2E2E2E2E2E2E2E2E2E2E2E2E2E2E2E2E2E2E2E2E2E2E2E2E2E2E2E2E2E2E2E2E2E2E2E2E2E2E2E2E2E2E2E2E2E2E2E2E2E2E2E2E2E2E2E2E2E2E2E2E2E2E2E2E2E2E2E2E2E2E2E2E2E2E2E2E2E2E2E2
310
E2E2E2E2E2E2E2E2E2E2E2E2E2E2E2E2E2E2E2E2E2E2E2E2E2E2E2E2E2E2E2E2E2E2E2E2E2E2E2E2E2E2E2E2E2E2E2E2E2E2E2E2E2E2E2E2E2E2E2E2E2E2E2E2E2E2E2E2E2E2E2E2E2E2E2E2E2E2E2E2E2E2E2E2E2E2E2E2E2E2E2E2E2E2E2E2E2E2E2E2E2E2E2E2E2E2E2E2E2E2E2E2E2E2E2E2E2E2E2E2E2E2E2E2E2E2E2
310
E2E2E2E2E2E2E2E2E2E2E2E2E2E2E2E2E2E2E2E2E2E2E2E2E2E2E2E2E2E2E2E2E2E2E2E2E2E2E2E2E2E2E2E2E2E2E2E2E2E2E2E2E2E2E2E2E2E2E2E2E2E2E2E2E2E2E2E2E2E2E2E2E2E2E2E2E2E2E2E2E2E2E2E2E2E2E2E2E2E2E2E2E2E2E2E2E2E2E2E2E2E2E2E2E2E2E2E2E2E2E2E2E2E2E2E2E2E2E2E2E2E2E2E2E2E2E2
310
E2E2E2E2E2E2E2E2E2E2E2E2E2E2E2E2E2E2E2E2E2E2E2E2E2E2E2E2E2E2E2E2E2E2E2E2E2E2E2E2E2E2E2E2E2E2E2E2E2E2E2E2E2E2E2E2E2E2E2E2E2E2E2E2E2E2E2E2E2E2E2E2E2E2E2E2E2E2E2E2E2E2E2E2E2E2E2E2E2E2E2E2E2E2E2E2E2E2E2E2E2E2E2E2E2E2E2E2E2E2E2E2E2E2E2E2E2E2E2E2E2E2E2E2E2E2E2
310
E2E2E2E2E2E2E2E2E2E2E2E2E2E2E2E2E2E2E2E2E2E2E2E2E2E2E2E2E2E2E2E2E2E2E2E2E2E2E2E2E2E2E2E2E2E2E2E2E2E2E2E2E2E2E2E2E2E2E2E2E2E2E2E2E2E2E2E2E2E2E2E2E2E2E2E2E2E2E2E2E2E2E2E2E2E2E2E2E2E2E2E2E2E2E2E2E2E2E2E2E2E2E2E2E2E2E2E2E2E2E2E2E2E2E2E2E2E2E2E2E2E2E2E2E2E2E2
310
E2E2E2E2E2E2E2E2E2E2E2E2E2E2E2E2E2E2E2E2E2E2E2E2E2E2E2E2E2E2E2E2E2E2E2E2E2E2E2E2E2E2E2E2E2E2E2E2E2E2E2E2E2E2E2E2E2E2E2E2E2E2E2E2E2E2E2E2E2E2E2E2E2E2E2E2E2E2E2E2E2E2E2E2E2E2E2E2E2E2E2E2E2E2E2E2E2E2E2E2E2E2E2E2E2E2E2E2E2E2E2E2E2E2E2E2E2E2E2E2E2E2E2E2E2E2E2
310
E2E2E2E2E2E2E2E2E2E2E2E2E2E2E2E2E2E2E2E2E2E2E2E2E2E2E2E2E2E2E2E2E2E2E2E2E2E2E2E2E2E2E2E2E2E2E2E2E2E2E2E2E2E2E2E2E2E2E2E2E2E2E2E2E2E2E2E2E2E2E2E2E2E2E2E2E2E2E2E2E2E2E2E2E2E2E2E2E2E2E2E2E2E2E2E2E2E2E2E2E2E2E2E2E2E2E2E2E2E2E2E2E2E2E2E2E2E2E2E2E2E2E2E2E2E2E2
310
E2E2E2E2E2E2E2E2E2E2E2E2E2E2E2E2E2E2E2E2E2E2E2E2E2E2E2E2E2E2E2E2E2E2E2E2E2E2E2E2E2E2
  0
XRECORD
  5
2369
102
{ACAD_REACTORS
330
100B
102
}
330
100B
100
AcDbXrecord
280
     1
102
MATERIAL
148
0.0
149
0.0
149
0.0
 93
        0
 94
      127
282
     0
 72
     0
 77
     0
171
     0
175
     0
179
     0
273
     0
  0
XRECORD
  5
100D
102
{ACAD_REACTORS
330
100B
102
}
330
100B
100
AcDbXrecord
280
     1
270
     1
271
     1
  0
XRECORD
  5
100C
102
{ACAD_REACTORS
330
100B
102
}
330
100B
100
AcDbXrecord
280
     1
270
     1
271
     1
  0
XRECORD
  5
1010
102
{ACAD_REACTORS
330
100B
102
}
330
100B
100
AcDbXrecord
280
     1
270
     1
271
     1
  0
XRECORD
  5
100F
102
{ACAD_REACTORS
330
100B
102
}
330
100B
100
AcDbXrecord
280
     1
270
     1
271
     1
  0
XRECORD
  5
1011
102
{ACAD_REACTORS
330
100B
102
}
330
100B
100
AcDbXrecord
280
     1
270
     1
271
     1
  0
XRECORD
  5
100E
102
{ACAD_REACTORS
330
100B
102
}
330
100B
100
AcDbXrecord
280
     1
270
     1
271
     1
  0
XRECORD
  5
2368
102
{ACAD_REACTORS
330
1003
102
}
330
1003
100
AcDbXrecord
280
     1
102
MATERIAL
148
0.0
149
0.0
149
0.0
 93
        0
 94
      127
282
     0
 72
     0
 77
     0
171
     0
175
     0
179
     0
273
     0
  0
XRECORD
  5
1005
102
{ACAD_REACTORS
330
1003
102
}
330
1003
100
AcDbXrecord
280
     1
270
     1
271
     1
  0
XRECORD
  5
1004
102
{ACAD_REACTORS
330
1003
102
}
330
1003
100
AcDbXrecord
280
     1
270
     1
271
     1
  0
XRECORD
  5
1008
102
{ACAD_REACTORS
330
1003
102
}
330
1003
100
AcDbXrecord
280
     1
270
     1
271
     1
  0
XRECORD
  5
1007
102
{ACAD_REACTORS
330
1003
102
}
330
1003
100
AcDbXrecord
280
     1
270
     1
271
     1
  0
XRECORD
  5
1009
102
{ACAD_REACTORS
330
1003
102
}
330
1003
100
AcDbXrecord
280
     1
270
     1
271
     1
  0
XRECORD
  5
1006
102
{ACAD_REACTORS
330
1003
102
}
330
1003
100
AcDbXrecord
280
     1
270
     1
271
     1
  0
XRECORD
  5
236A
102
{ACAD_REACTORS
330
1013
102
}
330
1013
100
AcDbXrecord
280
     1
102
MATERIAL
148
0.0
149
0.0
149
0.0
 93
        0
 94
      127
282
     0
 72
     0
 77
     0
171
     0
175
     0
179
     0
273
     0
  0
XRECORD
  5
1015
102
{ACAD_REACTORS
330
1013
102
}
330
1013
100
AcDbXrecord
280
     1
270
     1
271
     1
  0
XRECORD
  5
1014
102
{ACAD_REACTORS
330
1013
102
}
330
1013
100
AcDbXrecord
280
     1
270
     1
271
     1
  0
XRECORD
  5
1018
102
{ACAD_REACTORS
330
1013
102
}
330
1013
100
AcDbXrecord
280
     1
270
     1
271
     1
  0
XRECORD
  5
1017
102
{ACAD_REACTORS
330
1013
102
}
330
1013
100
AcDbXrecord
280
     1
270
     1
271
     1
  0
XRECORD
  5
1019
102
{ACAD_REACTORS
330
1013
102
}
330
1013
100
AcDbXrecord
280
     1
270
     1
271
     1
  0
XRECORD
  5
1016
102
{ACAD_REACTORS
330
1013
102
}
330
1013
100
AcDbXrecord
280
     1
270
     1
271
     1
  0
CELLSTYLEMAP
  5
2361
102
{ACAD_REACTORS
330
122A
102
}
330
122A
100
AcDbCellStyleMap
 90
        3
300
CELLSTYLE
  1
TABLEFORMAT_BEGIN
 90
        5
170
     1
 91
        0
 92
    32768
 62
   257
 93
        1
300
CONTENTFORMAT
  1
CONTENTFORMAT_BEGIN
 90
        0
 91
        0
 92
      512
 93
        0
300

 40
0.0
140
1.0
 94
        5
 62
     0
340
1046
144
0.25
309
CONTENTFORMAT_END
171
     0
 94
        0
309
TABLEFORMAT_END
  1
CELLSTYLE_BEGIN
 90
        1
 91
        1
300
_TITLE
309
CELLSTYLE_END
300
CELLSTYLE
  1
TABLEFORMAT_BEGIN
 90
        5
170
     1
 91
        0
 92
        0
 62
   257
 93
        1
300
CONTENTFORMAT
  1
CONTENTFORMAT_BEGIN
 90
        0
 91
        0
 92
      512
 93
        0
300

 40
0.0
140
1.0
 94
        5
 62
     0
340
1046
144
0.18
309
CONTENTFORMAT_END
171
     0
 94
        0
309
TABLEFORMAT_END
  1
CELLSTYLE_BEGIN
 90
        2
 91
        1
300
_HEADER
309
CELLSTYLE_END
300
CELLSTYLE
  1
TABLEFORMAT_BEGIN
 90
        5
170
     1
 91
        0
 92
        0
 62
   257
 93
        1
300
CONTENTFORMAT
  1
CONTENTFORMAT_BEGIN
 90
        0
 91
        0
 92
      512
 93
        0
300

 40
0.0
140
1.0
 94
        2
 62
     0
340
1046
144
0.18
309
CONTENTFORMAT_END
171
     0
 94
        0
309
TABLEFORMAT_END
  1
CELLSTYLE_BEGIN
 90
        3
 91
        2
300
_DATA
309
CELLSTYLE_END
  0
XRECORD
  5
236B
102
{ACAD_REACTORS
330
122A
102
}
330
122A
100
AcDbXrecord
280
     1
102
ACAD_ROUNDTRIP_PRE2007_TABLESTYLE
 90
      512
 91
        0
  1

 92
      512
 93
        0
  2

 94
      512
 95
        0
  3

  0
XRECORD
  5
22F6
102
{ACAD_REACTORS
330
22F5
102
}
330
22F5
100
AcDbXrecord
280
     1
102
RTVSPropertyOp28
 70
     1
102
RTVSPropertyOp29
 70
     1
102
RTVSPropertyOp30
 70
     1
102
RTVSPropertyOp31
 70
     1
102
RTVSPropertyOp32
 70
     1
102
RTVSPropertyOp0
 70
     1
102
RTVSPropertyOp1
 70
     1
102
RTVSPropertyOp2
 70
     1
102
RTVSPropertyOp3
 70
     1
102
RTVSPropertyOp4
 70
     1
102
RTVSPropertyOp5
 70
     1
102
RTVSPropertyOp6
 70
     1
102
RTVSPropertyOp7
 70
     1
102
RTVSPropertyOp8
 70
     1
102
RTVSPropertyOp9
 70
     1
102
RTVSPropertyOp10
 70
     1
102
RTVSPropertyOp11
 70
     1
102
RTVSPropertyOp12
 70
     1
102
RTVSPropertyOp13
 70
     1
102
RTVSPropertyOp14
 70
     1
102
RTVSPropertyOp15
 70
     1
102
RTVSPropertyOp16
 70
     1
102
RTVSPropertyOp17
 70
     1
102
RTVSPropertyOp18
 70
     1
102
RTVSPropertyOp19
 70
     1
102
RTVSPropertyOp20
 70
     1
102
RTVSPropertyOp21
 70
     1
102
RTVSPropertyOp22
 70
     1
102
RTVSPropertyOp23
 70
     1
102
RTVSPropertyOp24
 70
     1
102
RTVSPropertyOp25
 70
     1
102
RTVSPropertyOp26
 70
     1
102
RTVSPropertyOp27
 70
     1
  0
XRECORD
  5
2322
102
{ACAD_REACTORS
330
2321
102
}
330
2321
100
AcDbXrecord
280
     1
102
RTVSPropertyOp28
 70
     1
102
RTVSPropertyOp29
 70
     1
102
RTVSPropertyOp30
 70
     1
102
RTVSPropertyOp31
 70
     1
102
RTVSPropertyOp32
 70
     1
102
RTVSPropertyOp0
 70
     1
102
RTVSPropertyOp1
 70
     1
102
RTVSPropertyOp2
 70
     1
102
RTVSPropertyOp3
 70
     1
102
RTVSPropertyOp4
 70
     1
102
RTVSPropertyOp5
 70
     1
102
RTVSPropertyOp6
 70
     1
102
RTVSPropertyOp7
 70
     1
102
RTVSPropertyOp8
 70
     1
102
RTVSPropertyOp9
 70
     1
102
RTVSPropertyOp10
 70
     1
102
RTVSPropertyOp11
 70
     1
102
RTVSPropertyOp12
 70
     1
102
RTVSPropertyOp13
 70
     1
102
RTVSPropertyOp14
 70
     1
102
RTVSPropertyOp15
 70
     1
102
RTVSPropertyOp16
 70
     1
102
RTVSPropertyOp17
 70
     1
102
RTVSPropertyOp18
 70
     1
102
RTVSPropertyOp19
 70
     1
102
RTVSPropertyOp20
 70
     1
102
RTVSPropertyOp21
 70
     1
102
RTVSPropertyOp22
 70
     1
102
RTVSPropertyOp23
 70
     1
102
RTVSPropertyOp24
 70
     1
102
RTVSPropertyOp25
 70
     1
102
RTVSPropertyOp26
 70
     1
102
RTVSPropertyOp27
 70
     1
  0
XRECORD
  5
2320
102
{ACAD_REACTORS
330
231F
102
}
330
231F
100
AcDbXrecord
280
     1
102
RTVSPropertyOp28
 70
     1
102
RTVSPropertyOp29
 70
     1
102
RTVSPropertyOp30
 70
     1
102
RTVSPropertyOp31
 70
     1
102
RTVSPropertyOp32
 70
     1
102
RTVSPropertyOp0
 70
     1
102
RTVSPropertyOp1
 70
     1
102
RTVSPropertyOp2
 70
     1
102
RTVSPropertyOp3
 70
     1
102
RTVSPropertyOp4
 70
     1
102
RTVSPropertyOp5
 70
     1
102
RTVSPropertyOp6
 70
     1
102
RTVSPropertyOp7
 70
     1
102
RTVSPropertyOp8
 70
     1
102
RTVSPropertyOp9
 70
     1
102
RTVSPropertyOp10
 70
     1
102
RTVSPropertyOp11
 70
     1
102
RTVSPropertyOp12
 70
     1
102
RTVSPropertyOp13
 70
     1
102
RTVSPropertyOp14
 70
     1
102
RTVSPropertyOp15
 70
     1
102
RTVSPropertyOp16
 70
     1
102
RTVSPropertyOp17
 70
     1
102
RTVSPropertyOp18
 70
     1
102
RTVSPropertyOp19
 70
     1
102
RTVSPropertyOp20
 70
     1
102
RTVSPropertyOp21
 70
     1
102
RTVSPropertyOp22
 70
     1
102
RTVSPropertyOp23
 70
     1
102
RTVSPropertyOp24
 70
     1
102
RTVSPropertyOp25
 70
     1
102
RTVSPropertyOp26
 70
     1
102
RTVSPropertyOp27
 70
     1
  0
XRECORD
  5
22F4
102
{ACAD_REACTORS
330
22F3
102
}
330
22F3
100
AcDbXrecord
280
     1
102
RTVSPropertyOp28
 70
     1
102
RTVSPropertyOp29
 70
     1
102
RTVSPropertyOp30
 70
     1
102
RTVSPropertyOp31
 70
     1
102
RTVSPropertyOp32
 70
     1
102
RTVSPropertyOp0
 70
     1
102
RTVSPropertyOp1
 70
     1
102
RTVSPropertyOp2
 70
     1
102
RTVSPropertyOp3
 70
     1
102
RTVSPropertyOp4
 70
     1
102
RTVSPropertyOp5
 70
     1
102
RTVSPropertyOp6
 70
     1
102
RTVSPropertyOp7
 70
     1
102
RTVSPropertyOp8
 70
     1
102
RTVSPropertyOp9
 70
     1
102
RTVSPropertyOp10
 70
     1
102
RTVSPropertyOp11
 70
     1
102
RTVSPropertyOp12
 70
     1
102
RTVSPropertyOp13
 70
     1
102
RTVSPropertyOp14
 70
     1
102
RTVSPropertyOp15
 70
     1
102
RTVSPropertyOp16
 70
     1
102
RTVSPropertyOp17
 70
     1
102
RTVSPropertyOp18
 70
     1
102
RTVSPropertyOp19
 70
     1
102
RTVSPropertyOp20
 70
     1
102
RTVSPropertyOp21
 70
     1
102
RTVSPropertyOp22
 70
     1
102
RTVSPropertyOp23
 70
     1
102
RTVSPropertyOp24
 70
     1
102
RTVSPropertyOp25
 70
     1
102
RTVSPropertyOp26
 70
     1
102
RTVSPropertyOp27
 70
     1
  0
XRECORD
  5
2302
102
{ACAD_REACTORS
330
2301
102
}
330
2301
100
AcDbXrecord
280
     1
102
RTVSPropertyOp28
 70
     1
102
RTVSPropertyOp29
 70
     1
102
RTVSPropertyOp30
 70
     1
102
RTVSPropertyOp31
 70
     1
102
RTVSPropertyOp32
 70
     1
102
RTVSPropertyOp0
 70
     1
102
RTVSPropertyOp1
 70
     1
102
RTVSPropertyOp2
 70
     1
102
RTVSPropertyOp3
 70
     1
102
RTVSPropertyOp4
 70
     1
102
RTVSPropertyOp5
 70
     1
102
RTVSPropertyOp6
 70
     1
102
RTVSPropertyOp7
 70
     1
102
RTVSPropertyOp8
 70
     1
102
RTVSPropertyOp9
 70
     1
102
RTVSPropertyOp10
 70
     1
102
RTVSPropertyOp11
 70
     1
102
RTVSPropertyOp12
 70
     1
102
RTVSPropertyOp13
 70
     1
102
RTVSPropertyOp14
 70
     1
102
RTVSPropertyOp15
 70
     1
102
RTVSPropertyOp16
 70
     1
102
RTVSPropertyOp17
 70
     1
102
RTVSPropertyOp18
 70
     1
102
RTVSPropertyOp19
 70
     1
102
RTVSPropertyOp20
 70
     1
102
RTVSPropertyOp21
 70
     1
102
RTVSPropertyOp22
 70
     1
102
RTVSPropertyOp23
 70
     1
102
RTVSPropertyOp24
 70
     1
102
RTVSPropertyOp25
 70
     1
102
RTVSPropertyOp26
 70
     1
102
RTVSPropertyOp27
 70
     1
  0
XRECORD
  5
230A
102
{ACAD_REACTORS
330
2309
102
}
330
2309
100
AcDbXrecord
280
     1
102
RTVSPropertyOp28
 70
     1
102
RTVSPropertyOp29
 70
     1
102
RTVSPropertyOp30
 70
     1
102
RTVSPropertyOp31
 70
     1
102
RTVSPropertyOp32
 70
     1
102
RTVSPropertyOp0
 70
     1
102
RTVSPropertyOp1
 70
     1
102
RTVSPropertyOp2
 70
     1
102
RTVSPropertyOp3
 70
     1
102
RTVSPropertyOp4
 70
     1
102
RTVSPropertyOp5
 70
     1
102
RTVSPropertyOp6
 70
     1
102
RTVSPropertyOp7
 70
     1
102
RTVSPropertyOp8
 70
     1
102
RTVSPropertyOp9
 70
     1
102
RTVSPropertyOp10
 70
     1
102
RTVSPropertyOp11
 70
     1
102
RTVSPropertyOp12
 70
     1
102
RTVSPropertyOp13
 70
     1
102
RTVSPropertyOp14
 70
     1
102
RTVSPropertyOp15
 70
     1
102
RTVSPropertyOp16
 70
     1
102
RTVSPropertyOp17
 70
     1
102
RTVSPropertyOp18
 70
     1
102
RTVSPropertyOp19
 70
     1
102
RTVSPropertyOp20
 70
     1
102
RTVSPropertyOp21
 70
     1
102
RTVSPropertyOp22
 70
     1
102
RTVSPropertyOp23
 70
     1
102
RTVSPropertyOp24
 70
     1
102
RTVSPropertyOp25
 70
     1
102
RTVSPropertyOp26
 70
     1
102
RTVSPropertyOp27
 70
     1
  0
XRECORD
  5
22FC
102
{ACAD_REACTORS
330
22FB
102
}
330
22FB
100
AcDbXrecord
280
     1
102
RTVSPropertyOp28
 70
     1
102
RTVSPropertyOp29
 70
     1
102
RTVSPropertyOp30
 70
     1
102
RTVSPropertyOp31
 70
     1
102
RTVSPropertyOp32
 70
     1
102
RTVSPropertyOp0
 70
     1
102
RTVSPropertyOp1
 70
     1
102
RTVSPropertyOp2
 70
     1
102
RTVSPropertyOp3
 70
     1
102
RTVSPropertyOp4
 70
     1
102
RTVSPropertyOp5
 70
     1
102
RTVSPropertyOp6
 70
     1
102
RTVSPropertyOp7
 70
     1
102
RTVSPropertyOp8
 70
     1
102
RTVSPropertyOp9
 70
     1
102
RTVSPropertyOp10
 70
     1
102
RTVSPropertyOp11
 70
     1
102
RTVSPropertyOp12
 70
     1
102
RTVSPropertyOp13
 70
     1
102
RTVSPropertyOp14
 70
     1
102
RTVSPropertyOp15
 70
     1
102
RTVSPropertyOp16
 70
     1
102
RTVSPropertyOp17
 70
     1
102
RTVSPropertyOp18
 70
     1
102
RTVSPropertyOp19
 70
     1
102
RTVSPropertyOp20
 70
     1
102
RTVSPropertyOp21
 70
     1
102
RTVSPropertyOp22
 70
     1
102
RTVSPropertyOp23
 70
     1
102
RTVSPropertyOp24
 70
     1
102
RTVSPropertyOp25
 70
     1
102
RTVSPropertyOp26
 70
     1
102
RTVSPropertyOp27
 70
     1
  0
XRECORD
  5
2300
102
{ACAD_REACTORS
330
22FF
102
}
330
22FF
100
AcDbXrecord
280
     1
102
RTVSPropertyOp28
 70
     1
102
RTVSPropertyOp29
 70
     1
102
RTVSPropertyOp30
 70
     1
102
RTVSPropertyOp31
 70
     1
102
RTVSPropertyOp32
 70
     1
102
RTVSPropertyOp0
 70
     1
102
RTVSPropertyOp1
 70
     1
102
RTVSPropertyOp2
 70
     1
102
RTVSPropertyOp3
 70
     1
102
RTVSPropertyOp4
 70
     1
102
RTVSPropertyOp5
 70
     1
102
RTVSPropertyOp6
 70
     1
102
RTVSPropertyOp7
 70
     1
102
RTVSPropertyOp8
 70
     1
102
RTVSPropertyOp9
 70
     1
102
RTVSPropertyOp10
 70
     1
102
RTVSPropertyOp11
 70
     1
102
RTVSPropertyOp12
 70
     1
102
RTVSPropertyOp13
 70
     1
102
RTVSPropertyOp14
 70
     1
102
RTVSPropertyOp15
 70
     1
102
RTVSPropertyOp16
 70
     1
102
RTVSPropertyOp17
 70
     1
102
RTVSPropertyOp18
 70
     1
102
RTVSPropertyOp19
 70
     1
102
RTVSPropertyOp20
 70
     1
102
RTVSPropertyOp21
 70
     1
102
RTVSPropertyOp22
 70
     1
102
RTVSPropertyOp23
 70
     1
102
RTVSPropertyOp24
 70
     1
102
RTVSPropertyOp25
 70
     1
102
RTVSPropertyOp26
 70
     1
102
RTVSPropertyOp27
 70
     1
  0
XRECORD
  5
231A
102
{ACAD_REACTORS
330
2319
102
}
330
2319
100
AcDbXrecord
280
     1
102
RTVSPropertyOp28
 70
     1
102
RTVSPropertyOp29
 70
     1
102
RTVSPropertyOp30
 70
     1
102
RTVSPropertyOp31
 70
     1
102
RTVSPropertyOp32
 70
     1
102
RTVSPropertyOp0
 70
     0
102
RTVSPropertyOp1
 70
     0
102
RTVSPropertyOp2
 70
     0
102
RTVSPropertyOp3
 70
     0
102
RTVSPropertyOp4
 70
     0
102
RTVSPropertyOp5
 70
     0
102
RTVSPropertyOp6
 70
     0
102
RTVSPropertyOp7
 70
     0
102
RTVSPropertyOp8
 70
     0
102
RTVSPropertyOp9
 70
     0
102
RTVSPropertyOp10
 70
     0
102
RTVSPropertyOp11
 70
     0
102
RTVSPropertyOp12
 70
     0
102
RTVSPropertyOp13
 70
     0
102
RTVSPropertyOp14
 70
     2
102
RTVSPropertyOp15
 70
     0
102
RTVSPropertyOp16
 70
     0
102
RTVSPropertyOp17
 70
     0
102
RTVSPropertyOp18
 70
     0
102
RTVSPropertyOp19
 70
     0
102
RTVSPropertyOp20
 70
     0
102
RTVSPropertyOp21
 70
     0
102
RTVSPropertyOp22
 70
     0
102
RTVSPropertyOp23
 70
     0
102
RTVSPropertyOp24
 70
     0
102
RTVSPropertyOp25
 70
     0
102
RTVSPropertyOp26
 70
     0
102
RTVSPropertyOp27
 70
     0
  0
XRECORD
  5
2308
102
{ACAD_REACTORS
330
2307
102
}
330
2307
100
AcDbXrecord
280
     1
102
RTVSPropertyOp28
 70
     1
102
RTVSPropertyOp29
 70
     1
102
RTVSPropertyOp30
 70
     1
102
RTVSPropertyOp31
 70
     1
102
RTVSPropertyOp32
 70
     1
102
RTVSPropertyOp0
 70
     1
102
RTVSPropertyOp1
 70
     1
102
RTVSPropertyOp2
 70
     1
102
RTVSPropertyOp3
 70
     1
102
RTVSPropertyOp4
 70
     1
102
RTVSPropertyOp5
 70
     1
102
RTVSPropertyOp6
 70
     1
102
RTVSPropertyOp7
 70
     1
102
RTVSPropertyOp8
 70
     1
102
RTVSPropertyOp9
 70
     1
102
RTVSPropertyOp10
 70
     1
102
RTVSPropertyOp11
 70
     1
102
RTVSPropertyOp12
 70
     1
102
RTVSPropertyOp13
 70
     1
102
RTVSPropertyOp14
 70
     1
102
RTVSPropertyOp15
 70
     1
102
RTVSPropertyOp16
 70
     1
102
RTVSPropertyOp17
 70
     1
102
RTVSPropertyOp18
 70
     1
102
RTVSPropertyOp19
 70
     1
102
RTVSPropertyOp20
 70
     1
102
RTVSPropertyOp21
 70
     1
102
RTVSPropertyOp22
 70
     1
102
RTVSPropertyOp23
 70
     1
102
RTVSPropertyOp24
 70
     1
102
RTVSPropertyOp25
 70
     1
102
RTVSPropertyOp26
 70
     1
102
RTVSPropertyOp27
 70
     1
  0
XRECORD
  5
22EC
102
{ACAD_REACTORS
330
22EB
102
}
330
22EB
100
AcDbXrecord
280
     1
102
RTVSPropertyOp28
 70
     1
102
RTVSPropertyOp29
 70
     1
102
RTVSPropertyOp30
 70
     1
102
RTVSPropertyOp31
 70
     1
102
RTVSPropertyOp32
 70
     1
102
RTVSPropertyOp0
 70
     1
102
RTVSPropertyOp1
 70
     1
102
RTVSPropertyOp2
 70
     1
102
RTVSPropertyOp3
 70
     1
102
RTVSPropertyOp4
 70
     1
102
RTVSPropertyOp5
 70
     1
102
RTVSPropertyOp6
 70
     1
102
RTVSPropertyOp7
 70
     1
102
RTVSPropertyOp8
 70
     1
102
RTVSPropertyOp9
 70
     1
102
RTVSPropertyOp10
 70
     1
102
RTVSPropertyOp11
 70
     1
102
RTVSPropertyOp12
 70
     1
102
RTVSPropertyOp13
 70
     1
102
RTVSPropertyOp14
 70
     1
102
RTVSPropertyOp15
 70
     1
102
RTVSPropertyOp16
 70
     1
102
RTVSPropertyOp17
 70
     1
102
RTVSPropertyOp18
 70
     1
102
RTVSPropertyOp19
 70
     1
102
RTVSPropertyOp20
 70
     1
102
RTVSPropertyOp21
 70
     1
102
RTVSPropertyOp22
 70
     1
102
RTVSPropertyOp23
 70
     1
102
RTVSPropertyOp24
 70
     1
102
RTVSPropertyOp25
 70
     1
102
RTVSPropertyOp26
 70
     1
102
RTVSPropertyOp27
 70
     1
  0
XRECORD
  5
22EE
102
{ACAD_REACTORS
330
22ED
102
}
330
22ED
100
AcDbXrecord
280
     1
102
RTVSPropertyOp28
 70
     1
102
RTVSPropertyOp29
 70
     1
102
RTVSPropertyOp30
 70
     1
102
RTVSPropertyOp31
 70
     1
102
RTVSPropertyOp32
 70
     1
102
RTVSPropertyOp0
 70
     1
102
RTVSPropertyOp1
 70
     1
102
RTVSPropertyOp2
 70
     1
102
RTVSPropertyOp3
 70
     1
102
RTVSPropertyOp4
 70
     1
102
RTVSPropertyOp5
 70
     1
102
RTVSPropertyOp6
 70
     1
102
RTVSPropertyOp7
 70
     1
102
RTVSPropertyOp8
 70
     1
102
RTVSPropertyOp9
 70
     1
102
RTVSPropertyOp10
 70
     1
102
RTVSPropertyOp11
 70
     1
102
RTVSPropertyOp12
 70
     1
102
RTVSPropertyOp13
 70
     1
102
RTVSPropertyOp14
 70
     1
102
RTVSPropertyOp15
 70
     1
102
RTVSPropertyOp16
 70
     1
102
RTVSPropertyOp17
 70
     1
102
RTVSPropertyOp18
 70
     1
102
RTVSPropertyOp19
 70
     1
102
RTVSPropertyOp20
 70
     1
102
RTVSPropertyOp21
 70
     1
102
RTVSPropertyOp22
 70
     1
102
RTVSPropertyOp23
 70
     1
102
RTVSPropertyOp24
 70
     1
102
RTVSPropertyOp25
 70
     1
102
RTVSPropertyOp26
 70
     1
102
RTVSPropertyOp27
 70
     1
  0
XRECORD
  5
22F0
102
{ACAD_REACTORS
330
22EF
102
}
330
22EF
100
AcDbXrecord
280
     1
102
RTVSPropertyOp28
 70
     1
102
RTVSPropertyOp29
 70
     1
102
RTVSPropertyOp30
 70
     1
102
RTVSPropertyOp31
 70
     1
102
RTVSPropertyOp32
 70
     1
102
RTVSPropertyOp0
 70
     1
102
RTVSPropertyOp1
 70
     1
102
RTVSPropertyOp2
 70
     1
102
RTVSPropertyOp3
 70
     1
102
RTVSPropertyOp4
 70
     1
102
RTVSPropertyOp5
 70
     1
102
RTVSPropertyOp6
 70
     1
102
RTVSPropertyOp7
 70
     1
102
RTVSPropertyOp8
 70
     1
102
RTVSPropertyOp9
 70
     1
102
RTVSPropertyOp10
 70
     1
102
RTVSPropertyOp11
 70
     1
102
RTVSPropertyOp12
 70
     1
102
RTVSPropertyOp13
 70
     1
102
RTVSPropertyOp14
 70
     1
102
RTVSPropertyOp15
 70
     1
102
RTVSPropertyOp16
 70
     1
102
RTVSPropertyOp17
 70
     1
102
RTVSPropertyOp18
 70
     1
102
RTVSPropertyOp19
 70
     1
102
RTVSPropertyOp20
 70
     1
102
RTVSPropertyOp21
 70
     1
102
RTVSPropertyOp22
 70
     1
102
RTVSPropertyOp23
 70
     1
102
RTVSPropertyOp24
 70
     1
102
RTVSPropertyOp25
 70
     1
102
RTVSPropertyOp26
 70
     1
102
RTVSPropertyOp27
 70
     1
  0
XRECORD
  5
22F2
102
{ACAD_REACTORS
330
22F1
102
}
330
22F1
100
AcDbXrecord
280
     1
102
RTVSPropertyOp28
 70
     1
102
RTVSPropertyOp29
 70
     1
102
RTVSPropertyOp30
 70
     1
102
RTVSPropertyOp31
 70
     1
102
RTVSPropertyOp32
 70
     1
102
RTVSPropertyOp0
 70
     1
102
RTVSPropertyOp1
 70
     1
102
RTVSPropertyOp2
 70
     1
102
RTVSPropertyOp3
 70
     1
102
RTVSPropertyOp4
 70
     1
102
RTVSPropertyOp5
 70
     1
102
RTVSPropertyOp6
 70
     1
102
RTVSPropertyOp7
 70
     1
102
RTVSPropertyOp8
 70
     1
102
RTVSPropertyOp9
 70
     1
102
RTVSPropertyOp10
 70
     1
102
RTVSPropertyOp11
 70
     1
102
RTVSPropertyOp12
 70
     1
102
RTVSPropertyOp13
 70
     1
102
RTVSPropertyOp14
 70
     1
102
RTVSPropertyOp15
 70
     1
102
RTVSPropertyOp16
 70
     1
102
RTVSPropertyOp17
 70
     1
102
RTVSPropertyOp18
 70
     1
102
RTVSPropertyOp19
 70
     1
102
RTVSPropertyOp20
 70
     1
102
RTVSPropertyOp21
 70
     1
102
RTVSPropertyOp22
 70
     1
102
RTVSPropertyOp23
 70
     1
102
RTVSPropertyOp24
 70
     1
102
RTVSPropertyOp25
 70
     1
102
RTVSPropertyOp26
 70
     1
102
RTVSPropertyOp27
 70
     1
  0
XRECORD
  5
22FA
102
{ACAD_REACTORS
330
22F9
102
}
330
22F9
100
AcDbXrecord
280
     1
102
RTVSPropertyOp28
 70
     1
102
RTVSPropertyOp29
 70
     1
102
RTVSPropertyOp30
 70
     1
102
RTVSPropertyOp31
 70
     1
102
RTVSPropertyOp32
 70
     1
102
RTVSPropertyOp0
 70
     1
102
RTVSPropertyOp1
 70
     1
102
RTVSPropertyOp2
 70
     1
102
RTVSPropertyOp3
 70
     1
102
RTVSPropertyOp4
 70
     1
102
RTVSPropertyOp5
 70
     1
102
RTVSPropertyOp6
 70
     1
102
RTVSPropertyOp7
 70
     1
102
RTVSPropertyOp8
 70
     1
102
RTVSPropertyOp9
 70
     1
102
RTVSPropertyOp10
 70
     1
102
RTVSPropertyOp11
 70
     1
102
RTVSPropertyOp12
 70
     1
102
RTVSPropertyOp13
 70
     1
102
RTVSPropertyOp14
 70
     1
102
RTVSPropertyOp15
 70
     1
102
RTVSPropertyOp16
 70
     1
102
RTVSPropertyOp17
 70
     1
102
RTVSPropertyOp18
 70
     1
102
RTVSPropertyOp19
 70
     1
102
RTVSPropertyOp20
 70
     1
102
RTVSPropertyOp21
 70
     1
102
RTVSPropertyOp22
 70
     1
102
RTVSPropertyOp23
 70
     1
102
RTVSPropertyOp24
 70
     1
102
RTVSPropertyOp25
 70
     1
102
RTVSPropertyOp26
 70
     1
102
RTVSPropertyOp27
 70
     1
  0
XRECORD
  5
2316
102
{ACAD_REACTORS
330
2315
102
}
330
2315
100
AcDbXrecord
280
     1
102
RTVSPropertyOp28
 70
     1
102
RTVSPropertyOp29
 70
     1
102
RTVSPropertyOp30
 70
     1
102
RTVSPropertyOp31
 70
     1
102
RTVSPropertyOp32
 70
     1
102
RTVSPropertyOp0
 70
     0
102
RTVSPropertyOp1
 70
     0
102
RTVSPropertyOp2
 70
     0
102
RTVSPropertyOp3
 70
     0
102
RTVSPropertyOp4
 70
     0
102
RTVSPropertyOp5
 70
     0
102
RTVSPropertyOp6
 70
     0
102
RTVSPropertyOp7
 70
     0
102
RTVSPropertyOp8
 70
     0
102
RTVSPropertyOp9
 70
     0
102
RTVSPropertyOp10
 70
     0
102
RTVSPropertyOp11
 70
     0
102
RTVSPropertyOp12
 70
     0
102
RTVSPropertyOp13
 70
     0
102
RTVSPropertyOp14
 70
     2
102
RTVSPropertyOp15
 70
     0
102
RTVSPropertyOp16
 70
     0
102
RTVSPropertyOp17
 70
     0
102
RTVSPropertyOp18
 70
     0
102
RTVSPropertyOp19
 70
     0
102
RTVSPropertyOp20
 70
     0
102
RTVSPropertyOp21
 70
     0
102
RTVSPropertyOp22
 70
     0
102
RTVSPropertyOp23
 70
     0
102
RTVSPropertyOp24
 70
     0
102
RTVSPropertyOp25
 70
     0
102
RTVSPropertyOp26
 70
     0
102
RTVSPropertyOp27
 70
     0
  0
XRECORD
  5
2306
102
{ACAD_REACTORS
330
2305
102
}
330
2305
100
AcDbXrecord
280
     1
102
RTVSPropertyOp28
 70
     1
102
RTVSPropertyOp29
 70
     1
102
RTVSPropertyOp30
 70
     1
102
RTVSPropertyOp31
 70
     1
102
RTVSPropertyOp32
 70
     1
102
RTVSPropertyOp0
 70
     1
102
RTVSPropertyOp1
 70
     1
102
RTVSPropertyOp2
 70
     1
102
RTVSPropertyOp3
 70
     1
102
RTVSPropertyOp4
 70
     1
102
RTVSPropertyOp5
 70
     1
102
RTVSPropertyOp6
 70
     1
102
RTVSPropertyOp7
 70
     1
102
RTVSPropertyOp8
 70
     1
102
RTVSPropertyOp9
 70
     1
102
RTVSPropertyOp10
 70
     1
102
RTVSPropertyOp11
 70
     1
102
RTVSPropertyOp12
 70
     1
102
RTVSPropertyOp13
 70
     1
102
RTVSPropertyOp14
 70
     1
102
RTVSPropertyOp15
 70
     1
102
RTVSPropertyOp16
 70
     1
102
RTVSPropertyOp17
 70
     1
102
RTVSPropertyOp18
 70
     1
102
RTVSPropertyOp19
 70
     1
102
RTVSPropertyOp20
 70
     1
102
RTVSPropertyOp21
 70
     1
102
RTVSPropertyOp22
 70
     1
102
RTVSPropertyOp23
 70
     1
102
RTVSPropertyOp24
 70
     1
102
RTVSPropertyOp25
 70
     1
102
RTVSPropertyOp26
 70
     1
102
RTVSPropertyOp27
 70
     1
  0
XRECORD
  5
2318
102
{ACAD_REACTORS
330
2317
102
}
330
2317
100
AcDbXrecord
280
     1
102
RTVSPropertyOp28
 70
     1
102
RTVSPropertyOp29
 70
     1
102
RTVSPropertyOp30
 70
     1
102
RTVSPropertyOp31
 70
     1
102
RTVSPropertyOp32
 70
     1
102
RTVSPropertyOp0
 70
     0
102
RTVSPropertyOp1
 70
     0
102
RTVSPropertyOp2
 70
     0
102
RTVSPropertyOp3
 70
     0
102
RTVSPropertyOp4
 70
     0
102
RTVSPropertyOp5
 70
     0
102
RTVSPropertyOp6
 70
     0
102
RTVSPropertyOp7
 70
     0
102
RTVSPropertyOp8
 70
     0
102
RTVSPropertyOp9
 70
     0
102
RTVSPropertyOp10
 70
     0
102
RTVSPropertyOp11
 70
     0
102
RTVSPropertyOp12
 70
     0
102
RTVSPropertyOp13
 70
     0
102
RTVSPropertyOp14
 70
     2
102
RTVSPropertyOp15
 70
     0
102
RTVSPropertyOp16
 70
     0
102
RTVSPropertyOp17
 70
     0
102
RTVSPropertyOp18
 70
     0
102
RTVSPropertyOp19
 70
     0
102
RTVSPropertyOp20
 70
     0
102
RTVSPropertyOp21
 70
     0
102
RTVSPropertyOp22
 70
     0
102
RTVSPropertyOp23
 70
     0
102
RTVSPropertyOp24
 70
     0
102
RTVSPropertyOp25
 70
     0
102
RTVSPropertyOp26
 70
     0
102
RTVSPropertyOp27
 70
     0
  0
XRECORD
  5
22FE
102
{ACAD_REACTORS
330
22FD
102
}
330
22FD
100
AcDbXrecord
280
     1
102
RTVSPropertyOp28
 70
     1
102
RTVSPropertyOp29
 70
     1
102
RTVSPropertyOp30
 70
     1
102
RTVSPropertyOp31
 70
     1
102
RTVSPropertyOp32
 70
     1
102
RTVSPropertyOp0
 70
     1
102
RTVSPropertyOp1
 70
     1
102
RTVSPropertyOp2
 70
     1
102
RTVSPropertyOp3
 70
     1
102
RTVSPropertyOp4
 70
     1
102
RTVSPropertyOp5
 70
     1
102
RTVSPropertyOp6
 70
     1
102
RTVSPropertyOp7
 70
     1
102
RTVSPropertyOp8
 70
     1
102
RTVSPropertyOp9
 70
     1
102
RTVSPropertyOp10
 70
     1
102
RTVSPropertyOp11
 70
     1
102
RTVSPropertyOp12
 70
     1
102
RTVSPropertyOp13
 70
     1
102
RTVSPropertyOp14
 70
     1
102
RTVSPropertyOp15
 70
     1
102
RTVSPropertyOp16
 70
     1
102
RTVSPropertyOp17
 70
     1
102
RTVSPropertyOp18
 70
     1
102
RTVSPropertyOp19
 70
     1
102
RTVSPropertyOp20
 70
     1
102
RTVSPropertyOp21
 70
     1
102
RTVSPropertyOp22
 70
     1
102
RTVSPropertyOp23
 70
     1
102
RTVSPropertyOp24
 70
     1
102
RTVSPropertyOp25
 70
     1
102
RTVSPropertyOp26
 70
     1
102
RTVSPropertyOp27
 70
     1
  0
XRECORD
  5
2314
102
{ACAD_REACTORS
330
2313
102
}
330
2313
100
AcDbXrecord
280
     1
102
RTVSPropertyOp28
 70
     1
102
RTVSPropertyOp29
 70
     1
102
RTVSPropertyOp30
 70
     1
102
RTVSPropertyOp31
 70
     1
102
RTVSPropertyOp32
 70
     1
102
RTVSPropertyOp0
 70
     1
102
RTVSPropertyOp1
 70
     1
102
RTVSPropertyOp2
 70
     1
102
RTVSPropertyOp3
 70
     1
102
RTVSPropertyOp4
 70
     1
102
RTVSPropertyOp5
 70
     1
102
RTVSPropertyOp6
 70
     1
102
RTVSPropertyOp7
 70
     1
102
RTVSPropertyOp8
 70
     1
102
RTVSPropertyOp9
 70
     1
102
RTVSPropertyOp10
 70
     1
102
RTVSPropertyOp11
 70
     1
102
RTVSPropertyOp12
 70
     1
102
RTVSPropertyOp13
 70
     1
102
RTVSPropertyOp14
 70
     1
102
RTVSPropertyOp15
 70
     1
102
RTVSPropertyOp16
 70
     1
102
RTVSPropertyOp17
 70
     1
102
RTVSPropertyOp18
 70
     1
102
RTVSPropertyOp19
 70
     1
102
RTVSPropertyOp20
 70
     1
102
RTVSPropertyOp21
 70
     1
102
RTVSPropertyOp22
 70
     1
102
RTVSPropertyOp23
 70
     1
102
RTVSPropertyOp24
 70
     1
102
RTVSPropertyOp25
 70
     1
102
RTVSPropertyOp26
 70
     1
102
RTVSPropertyOp27
 70
     1
  0
XRECORD
  5
2312
102
{ACAD_REACTORS
330
2311
102
}
330
2311
100
AcDbXrecord
280
     1
102
RTVSPropertyOp28
 70
     1
102
RTVSPropertyOp29
 70
     1
102
RTVSPropertyOp30
 70
     1
102
RTVSPropertyOp31
 70
     1
102
RTVSPropertyOp32
 70
     1
102
RTVSPropertyOp0
 70
     1
102
RTVSPropertyOp1
 70
     1
102
RTVSPropertyOp2
 70
     1
102
RTVSPropertyOp3
 70
     1
102
RTVSPropertyOp4
 70
     1
102
RTVSPropertyOp5
 70
     1
102
RTVSPropertyOp6
 70
     1
102
RTVSPropertyOp7
 70
     1
102
RTVSPropertyOp8
 70
     1
102
RTVSPropertyOp9
 70
     1
102
RTVSPropertyOp10
 70
     1
102
RTVSPropertyOp11
 70
     1
102
RTVSPropertyOp12
 70
     1
102
RTVSPropertyOp13
 70
     1
102
RTVSPropertyOp14
 70
     1
102
RTVSPropertyOp15
 70
     1
102
RTVSPropertyOp16
 70
     1
102
RTVSPropertyOp17
 70
     1
102
RTVSPropertyOp18
 70
     1
102
RTVSPropertyOp19
 70
     1
102
RTVSPropertyOp20
 70
     1
102
RTVSPropertyOp21
 70
     1
102
RTVSPropertyOp22
 70
     1
102
RTVSPropertyOp23
 70
     1
102
RTVSPropertyOp24
 70
     1
102
RTVSPropertyOp25
 70
     1
102
RTVSPropertyOp26
 70
     1
102
RTVSPropertyOp27
 70
     1
  0
XRECORD
  5
230C
102
{ACAD_REACTORS
330
230B
102
}
330
230B
100
AcDbXrecord
280
     1
102
RTVSPropertyOp28
 70
     1
102
RTVSPropertyOp29
 70
     1
102
RTVSPropertyOp30
 70
     1
102
RTVSPropertyOp31
 70
     1
102
RTVSPropertyOp32
 70
     1
102
RTVSPropertyOp0
 70
     1
102
RTVSPropertyOp1
 70
     1
102
RTVSPropertyOp2
 70
     1
102
RTVSPropertyOp3
 70
     1
102
RTVSPropertyOp4
 70
     1
102
RTVSPropertyOp5
 70
     1
102
RTVSPropertyOp6
 70
     1
102
RTVSPropertyOp7
 70
     1
102
RTVSPropertyOp8
 70
     1
102
RTVSPropertyOp9
 70
     1
102
RTVSPropertyOp10
 70
     1
102
RTVSPropertyOp11
 70
     1
102
RTVSPropertyOp12
 70
     1
102
RTVSPropertyOp13
 70
     1
102
RTVSPropertyOp14
 70
     1
102
RTVSPropertyOp15
 70
     1
102
RTVSPropertyOp16
 70
     1
102
RTVSPropertyOp17
 70
     1
102
RTVSPropertyOp18
 70
     1
102
RTVSPropertyOp19
 70
     1
102
RTVSPropertyOp20
 70
     1
102
RTVSPropertyOp21
 70
     1
102
RTVSPropertyOp22
 70
     1
102
RTVSPropertyOp23
 70
     1
102
RTVSPropertyOp24
 70
     1
102
RTVSPropertyOp25
 70
     1
102
RTVSPropertyOp26
 70
     1
102
RTVSPropertyOp27
 70
     1
  0
XRECORD
  5
230E
102
{ACAD_REACTORS
330
230D
102
}
330
230D
100
AcDbXrecord
280
     1
102
RTVSPropertyOp28
 70
     1
102
RTVSPropertyOp29
 70
     1
102
RTVSPropertyOp30
 70
     1
102
RTVSPropertyOp31
 70
     1
102
RTVSPropertyOp32
 70
     1
102
RTVSPropertyOp0
 70
     1
102
RTVSPropertyOp1
 70
     1
102
RTVSPropertyOp2
 70
     1
102
RTVSPropertyOp3
 70
     1
102
RTVSPropertyOp4
 70
     1
102
RTVSPropertyOp5
 70
     1
102
RTVSPropertyOp6
 70
     1
102
RTVSPropertyOp7
 70
     1
102
RTVSPropertyOp8
 70
     1
102
RTVSPropertyOp9
 70
     1
102
RTVSPropertyOp10
 70
     1
102
RTVSPropertyOp11
 70
     1
102
RTVSPropertyOp12
 70
     1
102
RTVSPropertyOp13
 70
     1
102
RTVSPropertyOp14
 70
     1
102
RTVSPropertyOp15
 70
     1
102
RTVSPropertyOp16
 70
     1
102
RTVSPropertyOp17
 70
     1
102
RTVSPropertyOp18
 70
     1
102
RTVSPropertyOp19
 70
     1
102
RTVSPropertyOp20
 70
     1
102
RTVSPropertyOp21
 70
     1
102
RTVSPropertyOp22
 70
     1
102
RTVSPropertyOp23
 70
     1
102
RTVSPropertyOp24
 70
     1
102
RTVSPropertyOp25
 70
     1
102
RTVSPropertyOp26
 70
     1
102
RTVSPropertyOp27
 70
     1
  0
XRECORD
  5
2304
102
{ACAD_REACTORS
330
2303
102
}
330
2303
100
AcDbXrecord
280
     1
102
RTVSPropertyOp28
 70
     1
102
RTVSPropertyOp29
 70
     1
102
RTVSPropertyOp30
 70
     1
102
RTVSPropertyOp31
 70
     1
102
RTVSPropertyOp32
 70
     1
102
RTVSPropertyOp0
 70
     1
102
RTVSPropertyOp1
 70
     1
102
RTVSPropertyOp2
 70
     1
102
RTVSPropertyOp3
 70
     1
102
RTVSPropertyOp4
 70
     1
102
RTVSPropertyOp5
 70
     1
102
RTVSPropertyOp6
 70
     1
102
RTVSPropertyOp7
 70
     1
102
RTVSPropertyOp8
 70
     1
102
RTVSPropertyOp9
 70
     1
102
RTVSPropertyOp10
 70
     1
102
RTVSPropertyOp11
 70
     1
102
RTVSPropertyOp12
 70
     1
102
RTVSPropertyOp13
 70
     1
102
RTVSPropertyOp14
 70
     1
102
RTVSPropertyOp15
 70
     1
102
RTVSPropertyOp16
 70
     1
102
RTVSPropertyOp17
 70
     1
102
RTVSPropertyOp18
 70
     1
102
RTVSPropertyOp19
 70
     1
102
RTVSPropertyOp20
 70
     1
102
RTVSPropertyOp21
 70
     1
102
RTVSPropertyOp22
 70
     1
102
RTVSPropertyOp23
 70
     1
102
RTVSPropertyOp24
 70
     1
102
RTVSPropertyOp25
 70
     1
102
RTVSPropertyOp26
 70
     1
102
RTVSPropertyOp27
 70
     1
  0
XRECORD
  5
22F8
102
{ACAD_REACTORS
330
22F7
102
}
330
22F7
100
AcDbXrecord
280
     1
102
RTVSPropertyOp28
 70
     1
102
RTVSPropertyOp29
 70
     1
102
RTVSPropertyOp30
 70
     1
102
RTVSPropertyOp31
 70
     1
102
RTVSPropertyOp32
 70
     1
102
RTVSPropertyOp0
 70
     1
102
RTVSPropertyOp1
 70
     1
102
RTVSPropertyOp2
 70
     1
102
RTVSPropertyOp3
 70
     1
102
RTVSPropertyOp4
 70
     1
102
RTVSPropertyOp5
 70
     1
102
RTVSPropertyOp6
 70
     1
102
RTVSPropertyOp7
 70
     1
102
RTVSPropertyOp8
 70
     1
102
RTVSPropertyOp9
 70
     1
102
RTVSPropertyOp10
 70
     1
102
RTVSPropertyOp11
 70
     1
102
RTVSPropertyOp12
 70
     1
102
RTVSPropertyOp13
 70
     1
102
RTVSPropertyOp14
 70
     1
102
RTVSPropertyOp15
 70
     1
102
RTVSPropertyOp16
 70
     1
102
RTVSPropertyOp17
 70
     1
102
RTVSPropertyOp18
 70
     1
102
RTVSPropertyOp19
 70
     1
102
RTVSPropertyOp20
 70
     1
102
RTVSPropertyOp21
 70
     1
102
RTVSPropertyOp22
 70
     1
102
RTVSPropertyOp23
 70
     1
102
RTVSPropertyOp24
 70
     1
102
RTVSPropertyOp25
 70
     1
102
RTVSPropertyOp26
 70
     1
102
RTVSPropertyOp27
 70
     1
  0
XRECORD
  5
2310
102
{ACAD_REACTORS
330
230F
102
}
330
230F
100
AcDbXrecord
280
     1
102
RTVSPropertyOp28
 70
     1
102
RTVSPropertyOp29
 70
     1
102
RTVSPropertyOp30
 70
     1
102
RTVSPropertyOp31
 70
     1
102
RTVSPropertyOp32
 70
     1
102
RTVSPropertyOp0
 70
     1
102
RTVSPropertyOp1
 70
     1
102
RTVSPropertyOp2
 70
     1
102
RTVSPropertyOp3
 70
     1
102
RTVSPropertyOp4
 70
     1
102
RTVSPropertyOp5
 70
     1
102
RTVSPropertyOp6
 70
     1
102
RTVSPropertyOp7
 70
     1
102
RTVSPropertyOp8
 70
     1
102
RTVSPropertyOp9
 70
     1
102
RTVSPropertyOp10
 70
     1
102
RTVSPropertyOp11
 70
     1
102
RTVSPropertyOp12
 70
     1
102
RTVSPropertyOp13
 70
     1
102
RTVSPropertyOp14
 70
     1
102
RTVSPropertyOp15
 70
     1
102
RTVSPropertyOp16
 70
     1
102
RTVSPropertyOp17
 70
     1
102
RTVSPropertyOp18
 70
     1
102
RTVSPropertyOp19
 70
     1
102
RTVSPropertyOp20
 70
     1
102
RTVSPropertyOp21
 70
     1
102
RTVSPropertyOp22
 70
     1
102
RTVSPropertyOp23
 70
     1
102
RTVSPropertyOp24
 70
     1
102
RTVSPropertyOp25
 70
     1
102
RTVSPropertyOp26
 70
     1
102
RTVSPropertyOp27
 70
     1
  0
ENDSEC
  0
EOF
