  0
SECTION
  2
HEADER
  9
$ACADVER
  1
AC1018
  9
$ACADMAINTVER
 70
   104
  9
$DWGCODEPAGE
  3
ANSI_932
  9
$LASTSAVEDBY
  1
kanatani
  9
$INSBASE
 10
0.0
 20
0.0
 30
0.0
  9
$EXTMIN
 10
-333.3333333333333
 20
-68.71088950232252
 30
0.0
  9
$EXTMAX
 10
333.3333333333333
 20
459.1666666666666
 30
0.0
  9
$LIMMIN
 10
-584.0
 20
0.0
  9
$LIMMAX
 10
0.0
 20
588.9623999834062
  9
$ORTHOMODE
 70
     0
  9
$REGENMODE
 70
     1
  9
$FILLMODE
 70
     1
  9
$QTEXTMODE
 70
     0
  9
$MIRRTEXT
 70
     1
  9
$LTSCALE
 40
1.0
  9
$ATTMODE
 70
     1
  9
$TEXTSIZE
 40
2.5
  9
$TRACEWID
 40
1.0
  9
$TEXTSTYLE
  7
STANDARD
  9
$CLAYER
  8
0
  9
$CELTYPE
  6
ByLayer
  9
$CECOLOR
 62
   256
  9
$CELTSCALE
 40
1.0
  9
$DISPSILH
 70
     0
  9
$DIMSCALE
 40
1.0
  9
$DIMASZ
 40
3.0
  9
$DIMEXO
 40
0.0625
  9
$DIMDLI
 40
0.38
  9
$DIMRND
 40
0.0
  9
$DIMDLE
 40
0.0
  9
$DIMEXE
 40
0.18
  9
$DIMTP
 40
0.0
  9
$DIMTM
 40
0.0
  9
$DIMTXT
 40
3.0
  9
$DIMCEN
 40
0.0
  9
$DIMTSZ
 40
0.0
  9
$DIMTOL
 70
     0
  9
$DIMLIM
 70
     0
  9
$DIMTIH
 70
     1
  9
$DIMTOH
 70
     1
  9
$DIMSE1
 70
     0
  9
$DIMSE2
 70
     0
  9
$DIMTAD
 70
     0
  9
$DIMZIN
 70
     0
  9
$DIMBLK
  1

  9
$DIMASO
 70
     1
  9
$DIMSHO
 70
     1
  9
$DIMPOST
  1

  9
$DIMAPOST
  1

  9
$DIMALT
 70
     0
  9
$DIMALTD
 70
     2
  9
$DIMALTF
 40
25.4
  9
$DIMLFAC
 40
1.0
  9
$DIMTOFL
 70
     0
  9
$DIMTVP
 40
0.0
  9
$DIMTIX
 70
     0
  9
$DIMSOXD
 70
     0
  9
$DIMSAH
 70
     0
  9
$DIMBLK1
  1

  9
$DIMBLK2
  1

  9
$DIMSTYLE
  2
STANDARD
  9
$DIMCLRD
 70
     0
  9
$DIMCLRE
 70
     0
  9
$DIMCLRT
 70
     0
  9
$DIMTFAC
 40
1.0
  9
$DIMGAP
 40
1.0
  9
$DIMJUST
 70
     0
  9
$DIMSD1
 70
     0
  9
$DIMSD2
 70
     0
  9
$DIMTOLJ
 70
     1
  9
$DIMTZIN
 70
     8
  9
$DIMALTZ
 70
     8
  9
$DIMALTTZ
 70
     8
  9
$DIMUPT
 70
     0
  9
$DIMDEC
 70
     8
  9
$DIMTDEC
 70
     8
  9
$DIMALTU
 70
     2
  9
$DIMALTTD
 70
     2
  9
$DIMTXSTY
  7
STANDARD
  9
$DIMAUNIT
 70
     0
  9
$DIMADEC
 70
     0
  9
$DIMALTRND
 40
0.0
  9
$DIMAZIN
 70
     0
  9
$DIMDSEP
 70
    46
  9
$DIMATFIT
 70
     3
  9
$DIMFRAC
 70
     0
  9
$DIMLDRBLK
  1

  9
$DIMLUNIT
 70
     2
  9
$DIMLWD
 70
    -2
  9
$DIMLWE
 70
    -2
  9
$DIMTMOVE
 70
     2
  9
$LUNITS
 70
     2
  9
$LUPREC
 70
     8
  9
$SKETCHINC
 40
1.0
  9
$FILLETRAD
 40
0.0
  9
$AUNITS
 70
     0
  9
$AUPREC
 70
     0
  9
$MENU
  1
.
  9
$ELEVATION
 40
0.0
  9
$PELEVATION
 40
0.0
  9
$THICKNESS
 40
0.0
  9
$LIMCHECK
 70
     0
  9
$CHAMFERA
 40
0.0
  9
$CHAMFERB
 40
0.0
  9
$CHAMFERC
 40
0.0
  9
$CHAMFERD
 40
0.0
  9
$SKPOLY
 70
     0
  9
$TDCREATE
 40
2456136.563759606
  9
$TDUCREATE
 40
2456136.188759606
  9
$TDUPDATE
 40
2456169.614488391
  9
$TDUUPDATE
 40
2456169.239488391
  9
$TDINDWG
 40
0.0543837269
  9
$TDUSRTIMER
 40
0.0543836343
  9
$USRTIMER
 70
     1
  9
$ANGBASE
 50
0.0
  9
$ANGDIR
 70
     0
  9
$PDMODE
 70
     0
  9
$PDSIZE
 40
0.0
  9
$PLINEWID
 40
0.0
  9
$SPLFRAME
 70
     0
  9
$SPLINETYPE
 70
     6
  9
$SPLINESEGS
 70
     8
  9
$HANDSEED
  5
1D16
  9
$SURFTAB1
 70
     6
  9
$SURFTAB2
 70
     6
  9
$SURFTYPE
 70
     6
  9
$SURFU
 70
     6
  9
$SURFV
 70
     6
  9
$UCSBASE
  2

  9
$UCSNAME
  2

  9
$UCSORG
 10
0.0
 20
0.0
 30
0.0
  9
$UCSXDIR
 10
1.0
 20
0.0
 30
0.0
  9
$UCSYDIR
 10
0.0
 20
1.0
 30
0.0
  9
$UCSORTHOREF
  2

  9
$UCSORTHOVIEW
 70
     0
  9
$UCSORGTOP
 10
0.0
 20
0.0
 30
0.0
  9
$UCSORGBOTTOM
 10
0.0
 20
0.0
 30
0.0
  9
$UCSORGLEFT
 10
0.0
 20
0.0
 30
0.0
  9
$UCSORGRIGHT
 10
0.0
 20
0.0
 30
0.0
  9
$UCSORGFRONT
 10
0.0
 20
0.0
 30
0.0
  9
$UCSORGBACK
 10
0.0
 20
0.0
 30
0.0
  9
$PUCSBASE
  2

  9
$PUCSNAME
  2

  9
$PUCSORG
 10
0.0
 20
0.0
 30
0.0
  9
$PUCSXDIR
 10
1.0
 20
0.0
 30
0.0
  9
$PUCSYDIR
 10
0.0
 20
1.0
 30
0.0
  9
$PUCSORTHOREF
  2

  9
$PUCSORTHOVIEW
 70
     0
  9
$PUCSORGTOP
 10
0.0
 20
0.0
 30
0.0
  9
$PUCSORGBOTTOM
 10
0.0
 20
0.0
 30
0.0
  9
$PUCSORGLEFT
 10
0.0
 20
0.0
 30
0.0
  9
$PUCSORGRIGHT
 10
0.0
 20
0.0
 30
0.0
  9
$PUCSORGFRONT
 10
0.0
 20
0.0
 30
0.0
  9
$PUCSORGBACK
 10
0.0
 20
0.0
 30
0.0
  9
$USERI1
 70
     0
  9
$USERI2
 70
     0
  9
$USERI3
 70
     0
  9
$USERI4
 70
     0
  9
$USERI5
 70
     0
  9
$USERR1
 40
0.0
  9
$USERR2
 40
0.0
  9
$USERR3
 40
0.0
  9
$USERR4
 40
0.0
  9
$USERR5
 40
0.0
  9
$WORLDVIEW
 70
     1
  9
$SHADEDGE
 70
     3
  9
$SHADEDIF
 70
    70
  9
$TILEMODE
 70
     1
  9
$MAXACTVP
 70
    64
  9
$PINSBASE
 10
0.0
 20
0.0
 30
0.0
  9
$PLIMCHECK
 70
     0
  9
$PEXTMIN
 10
1.000000000000000E+20
 20
1.000000000000000E+20
 30
1.000000000000000E+20
  9
$PEXTMAX
 10
-1.000000000000000E+20
 20
-1.000000000000000E+20
 30
-1.000000000000000E+20
  9
$PLIMMIN
 10
-584.0
 20
0.0
  9
$PLIMMAX
 10
0.0
 20
588.9623999834062
  9
$UNITMODE
 70
     0
  9
$VISRETAIN
 70
     1
  9
$PLINEGEN
 70
     0
  9
$PSLTSCALE
 70
     1
  9
$TREEDEPTH
 70
  3020
  9
$CMLSTYLE
  2
Standard
  9
$CMLJUST
 70
     0
  9
$CMLSCALE
 40
1.0
  9
$PROXYGRAPHICS
 70
     1
  9
$MEASUREMENT
 70
     0
  9
$CELWEIGHT
370
    -1
  9
$ENDCAPS
280
     0
  9
$JOINSTYLE
280
     0
  9
$LWDISPLAY
290
     0
  9
$INSUNITS
 70
     0
  9
$HYPERLINKBASE
  1

  9
$STYLESHEET
  1

  9
$XEDIT
290
     1
  9
$CEPSNTYPE
380
     0
  9
$PSTYLEMODE
290
     1
  9
$FINGERPRINTGUID
  2
{F1AE29D1-B18A-408E-B2F4-8A08E115ADC0}
  9
$VERSIONGUID
  2
{3FB7A906-2B9E-4573-A8C3-79501FB9D870}
  9
$EXTNAMES
290
     1
  9
$PSVPSCALE
 40
0.0
  9
$OLESTARTUP
290
     0
  9
$SORTENTS
280
   127
  9
$INDEXCTL
280
     0
  9
$HIDETEXT
280
     0
  9
$XCLIPFRAME
290
     0
  9
$HALOGAP
280
     0
  9
$OBSCOLOR
 70
   257
  9
$OBSLTYPE
280
     0
  9
$INTERSECTIONDISPLAY
280
     0
  9
$INTERSECTIONCOLOR
 70
   257
  9
$DIMASSOC
280
     1
  9
$PROJECTNAME
  1

  0
ENDSEC
  0
SECTION
  2
CLASSES
  0
CLASS
  1
ACDBDICTIONARYWDFLT
  2
AcDbDictionaryWithDefault
  3
ObjectDBX Classes
 90
        0
 91
        1
280
     0
281
     0
  0
CLASS
  1
MATERIAL
  2
AcDbMaterial
  3
ObjectDBX Classes
 90
     1153
 91
        3
280
     0
281
     0
  0
CLASS
  1
VISUALSTYLE
  2
AcDbVisualStyle
  3
ObjectDBX Classes
 90
     4095
 91
       26
280
     0
281
     0
  0
CLASS
  1
SCALE
  2
AcDbScale
  3
ObjectDBX Classes
 90
     1153
 91
       17
280
     0
281
     0
  0
CLASS
  1
TABLESTYLE
  2
AcDbTableStyle
  3
ObjectDBX Classes
 90
     4095
 91
        1
280
     0
281
     0
  0
CLASS
  1
MLEADERSTYLE
  2
AcDbMLeaderStyle
  3
ACDB_MLEADERSTYLE_CLASS
 90
     4095
 91
        1
280
     0
281
     0
  0
CLASS
  1
AMGSETTINGSOBJ
  2
AmgSettingsObj
  3
"AcadM|Product Description: AutoCAD Mechanical|Company: Autodesk, Inc."
 90
     1024
 91
        0
280
     0
281
     0
  0
CLASS
  1
ACME_DOCUMENT
  2
AcMeDbDoc
  3
AcMeServices
 90
     1024
 91
        0
280
     0
281
     0
  0
CLASS
  1
ACMESCOPE
  2
AcMeScope
  3
AcMeServices
 90
     1024
 91
        0
280
     0
281
     0
  0
CLASS
  1
ACMECOMMANDHISTORY
  2
AcMeCommandHistory
  3
AcMeServices
 90
     1024
 91
        0
280
     0
281
     0
  0
CLASS
  1
ACIMSYSVARMAN
  2
AcImSysVarManager
  3
AcMeServices
 90
     1024
 91
        0
280
     0
281
     0
  0
CLASS
  1
ACIMINTSYSVAR
  2
AcImIntSysVar
  3
AcMeServices
 90
     1024
 91
        0
280
     0
281
     0
  0
CLASS
  1
ACMESTATEMGR
  2
AcMeStateMgr
  3
AcMeServices
 90
     1024
 91
        0
280
     0
281
     0
  0
CLASS
  1
ACDBENTITYCACHE
  2
AcMeEntityCache
  3
AcMeServices
 90
     1024
 91
        0
280
     0
281
     0
  0
CLASS
  1
ACGREFMASTER
  2
AcGrefMaster
  3
AcAttribServices
 90
     1024
 91
        0
280
     0
281
     0
  0
CLASS
  1
ACME_DATABASE
  2
AcMeDbDatabase
  3
AcMeServices
 90
     1024
 91
        0
280
     0
281
     0
  0
CLASS
  1
ACRFINSADJUSTERMGR
  2
AcRfInsAdjusterMgr
  3
AcMeServices
 90
     1024
 91
        0
280
     0
281
     0
  0
CLASS
  1
ACGREFACADMASTER
  2
AcGrefacadMaster
  3
AcGrefServices
 90
     1024
 91
        0
280
     0
281
     0
  0
CLASS
  1
AMDTMENUSTATEMGR
  2
AmdtMenuStateMgr
  3
McadcomServices
 90
     1024
 91
        0
280
     0
281
     0
  0
CLASS
  1
AMDTMCOMMENUSTATE
  2
AmdtMcomMenuState
  3
McadcomServices
 90
     1024
 91
        0
280
     0
281
     0
  0
CLASS
  1
AMIMASTER
  2
AmiMaster
  3
AmiServices
 90
     1024
 91
        0
280
     0
281
     0
  0
CLASS
  1
MAPIAMMOUDLE
  2
MApiAmModule
  3
MApiAmServices
 90
     1024
 91
        0
280
     0
281
     0
  0
CLASS
  1
ACIMSTRSYSVAR
  2
AcImStrSysVar
  3
AcMeServices
 90
     1024
 91
        0
280
     0
281
     0
  0
CLASS
  1
AMDTAMMENUSTATE
  2
AmdtAmMenuState
  3
DesignerAssemblies
 90
     1024
 91
        0
280
     0
281
     0
  0
CLASS
  1
ACAMPROJECT
  2
AcAmProject
  3
DesignerAssemblies
 90
     1024
 91
        0
280
     0
281
     0
  0
CLASS
  1
ACAMGRCOMPDEF
  2
AcAmGrCompDef
  3
DesignerAssemblies
 90
     1024
 91
        0
280
     0
281
     0
  0
CLASS
  1
ACAMCOMPDEF
  2
AcAmCompDef
  3
DesignerAssemblies
 90
     1024
 91
        0
280
     0
281
     0
  0
CLASS
  1
ACAMCOMPDEFMGR
  2
AcAmCompDefMgr
  3
DesignerAssemblies
 90
     1024
 91
        0
280
     0
281
     0
  0
CLASS
  1
AMCONTEXTMGR
  2
AcAmContextMgr
  3
DesignerAssemblies
 90
     1024
 91
        0
280
     0
281
     0
  0
CLASS
  1
ACAMCONTEXTMODELER
  2
AcAmContextModeler
  3
DesignerAssemblies
 90
     1024
 91
        0
280
     0
281
     0
  0
CLASS
  1
ACMDATADICTIONARY
  2
AcmDataDictionary
  3
"AcmSymBB|Product Description: AutoCAD Mechanical|Company: Autodesk, Inc."
 90
     1024
 91
        0
280
     0
281
     0
  0
CLASS
  1
ACAMGRCOMPDEFSET
  2
AcAmGrCompDefSet
  3
DesignerAssemblies
 90
     1024
 91
        0
280
     0
281
     0
  0
CLASS
  1
AMDTBROWSERDBTAB
  2
AmdtBrowserDbTab
  3
McadcomServices
 90
     1024
 91
        0
280
     0
281
     0
  0
CLASS
  1
CBROWSERAPPOBJECT
  2
CBrowserAppObject
  3
McadcomServices
 90
     1024
 91
        0
280
     0
281
     0
  0
CLASS
  1
DM_PLACEHOLDER
  2
AcDmSelsetPlaceholder
  3
McadcomServices
 90
     1024
 91
        0
280
     0
281
     0
  0
CLASS
  1
EXACXREFPANELOBJECT
  2
ExAcXREFPanelObject
  3
EXAC_ESW
 90
     1025
 91
        0
280
     0
281
     0
  0
CLASS
  1
NPOCOLLECTION
  2
AcDbImpNonPersistentObjectsCollection
  3
ObjectDBX Classes
 90
     1153
 91
        0
280
     0
281
     0
  0
CLASS
  1
ACMSTANDARDANSI
  2
AcmStandardANSI
  3
"Amdt_StdImp|Product Description: AutoCAD Mechanical|Company: Autodesk, Inc."
 90
     1024
 91
        0
280
     0
281
     0
  0
CLASS
  1
ACMSURFSTANDARDANSI
  2
AcmSurfTextStdANSI
  3
"Amdt_StdImp|Product Description: AutoCAD Mechanical|Company: Autodesk, Inc."
 90
     1024
 91
        0
280
     0
281
     0
  0
CLASS
  1
ACMFCFSTANDARDANSI
  2
AcmFCFStdANSI
  3
"Amdt_StdImp|Product Description: AutoCAD Mechanical|Company: Autodesk, Inc."
 90
     1024
 91
        0
280
     0
281
     0
  0
CLASS
  1
ACMWELDSTANDARDANSI
  2
AcmWeldingStdANSI
  3
"Amdt_StdImp|Product Description: AutoCAD Mechanical|Company: Autodesk, Inc."
 90
     1024
 91
        0
280
     0
281
     0
  0
CLASS
  1
ACMIDSTANDARDANSI
  2
AcmIdStdANSI
  3
"Amdt_StdImp|Product Description: AutoCAD Mechanical|Company: Autodesk, Inc."
 90
     1024
 91
        0
280
     0
281
     0
  0
CLASS
  1
ACMDATUMSTANDARDANSI
  2
AcmDatumStdANSI
  3
"Amdt_StdImp|Product Description: AutoCAD Mechanical|Company: Autodesk, Inc."
 90
     1024
 91
        0
280
     0
281
     0
  0
CLASS
  1
ACMBOMSTANDARDANSI
  2
AcmBOMStdANSI
  3
"Amdt_StdImp|Product Description: AutoCAD Mechanical|Company: Autodesk, Inc."
 90
     1024
 91
        0
280
     0
281
     0
  0
CLASS
  1
ACMDETAILSTANDARDANSI
  2
AmdtDetailSymStdANSI
  3
"Amdt_StdImp|Product Description: AutoCAD Mechanical|Company: Autodesk, Inc."
 90
     1024
 91
        0
280
     0
281
     0
  0
CLASS
  1
ACMSECTIONSTANDARDANSI
  2
AmdtSectionSymStdANSI
  3
"Amdt_StdImp|Product Description: AutoCAD Mechanical|Company: Autodesk, Inc."
 90
     1024
 91
        0
280
     0
281
     0
  0
CLASS
  1
ACMCENTERLINESTANDARDANSI
  2
AmdtCenterLineStdANSI
  3
"Amdt_StdImp|Product Description: AutoCAD Mechanical|Company: Autodesk, Inc."
 90
     1024
 91
        0
280
     0
281
     0
  0
CLASS
  1
ACMTHREADLINESTANDARDANSI
  2
AmdtThreadLineStdANSI
  3
"Amdt_StdImp|Product Description: AutoCAD Mechanical|Company: Autodesk, Inc."
 90
     1024
 91
        0
280
     0
281
     0
  0
CLASS
  1
ACMNOTESTANDARDANSI
  2
AmdtNoteStdANSI
  3
"Amdt_StdImp|Product Description: AutoCAD Mechanical|Company: Autodesk, Inc."
 90
     1024
 91
        0
280
     0
281
     0
  0
CLASS
  1
ACMTAPERSTANDARDANSI
  2
AcmTaperStdANSI
  3
"Amdt_StdImp|Product Description: AutoCAD Mechanical|Company: Autodesk, Inc."
 90
     1024
 91
        0
280
     0
281
     0
  0
CLASS
  1
ACMANOOTATIONVIEWSTANDARDANSI
  2
AmdtAnViewStdANSI
  3
"Amdt_StdImp|Product Description: AutoCAD Mechanical|Company: Autodesk, Inc."
 90
     1024
 91
        0
280
     0
281
     0
  0
CLASS
  1
ACAMGLAYSTD
  2
AcAmgLayStd
  3
"AmgLay|Product Description: AutoCAD Mechanical|Company: Autodesk, Inc."
 90
     1024
 91
        0
280
     0
281
     0
  0
CLASS
  1
ACAMGDIMSTD
  2
AcAmgDimStd
  3
"AmgDim|Product Description: AutoCAD Mechanical|Company: Autodesk, Inc."
 90
     1024
 91
        0
280
     0
281
     0
  0
CLASS
  1
AMGOBJPROPCFG
  2
AmgObjPropCfg
  3
"AmgLay|Product Description: AutoCAD Mechanical|Company: Autodesk, Inc."
 90
     1025
 91
        0
280
     0
281
     0
  0
CLASS
  1
ACAMGHOLECHARTSTDANSI
  2
AcAmgHoleChartStdANSI
  3
AmgDim|Product Description: AutoCAD Mechanical|Company: Autodesk, Inc.
 90
     1024
 91
        0
280
     0
281
     0
  0
CLASS
  1
ACAMGTITLESTD
  2
AcAmgTitleStd
  3
"AmgTitle|Product Description: AutoCAD Mechanical|Company: Autodesk, Inc."
 90
     4095
 91
        0
280
     0
281
     0
  0
CLASS
  1
AMDTNOTETEMPLATEDB
  2
AmdtNoteTemplateDB
  3
AcmSymBB|Product Description: AutoCAD Mechanical|Company: Autodesk, Inc.
 90
     1024
 91
        0
280
     0
281
     0
  0
CLASS
  1
ACAMGFILTERDAT
  2
AcAmgFilterDat
  3
"AcadM|Product Description: AutoCAD Mechanical|Company: Autodesk, Inc."
 90
     1024
 91
        0
280
     0
281
     0
  0
CLASS
  1
CELLSTYLEMAP
  2
AcDbCellStyleMap
  3
ObjectDBX Classes
 90
     1152
 91
        2
280
     0
281
     0
  0
CLASS
  1
DICTIONARYVAR
  2
AcDbDictionaryVar
  3
ObjectDBX Classes
 90
        0
 91
       13
280
     0
281
     0
  0
CLASS
  1
SORTENTSTABLE
  2
AcDbSortentsTable
  3
ObjectDBX Classes
 90
        0
 91
        1
280
     0
281
     0
  0
ENDSEC
  0
SECTION
  2
TABLES
  0
TABLE
  2
VPORT
  5
FF9
102
{ACAD_XDICTIONARY
360
122E
102
}
330
0
100
AcDbSymbolTable
 70
     1
  0
VPORT
  5
1060
330
FF9
100
AcDbSymbolTableRecord
100
AcDbViewportTableRecord
  2
*ACTIVE
 70
     0
 10
0.0
 20
0.0
 11
1.0
 21
1.0
 12
145.73475891517
 22
347.074574755356
 13
0.0
 23
0.0
 14
10.0
 24
10.0
 15
10.0
 25
10.0
 16
0.0
 26
0.0
 36
1.0
 17
0.0
 27
0.0
 37
0.0
 40
987.7888825725609
 41
1.234567901234567
 42
50.0
 43
0.0
 44
0.0
 50
0.0
 51
0.0
 71
     0
 72
   100
 73
     1
 74
     3
 75
     0
 76
     0
 77
     0
 78
     0
281
     0
 65
     1
110
0.0
120
0.0
130
0.0
111
1.0
121
0.0
131
0.0
112
0.0
122
1.0
132
0.0
 79
     0
146
0.0
1001
ACAD_NAV_VCDISPLAY
1070
     3
  0
ENDTAB
  0
TABLE
  2
LTYPE
  5
FF6
330
0
100
AcDbSymbolTable
 70
     2
  0
LTYPE
  5
104B
330
FF6
100
AcDbSymbolTableRecord
100
AcDbLinetypeTableRecord
  2
ByBlock
 70
     0
  3

 72
    65
 73
     0
 40
0.0
  0
LTYPE
  5
104C
330
FF6
100
AcDbSymbolTableRecord
100
AcDbLinetypeTableRecord
  2
ByLayer
 70
     0
  3

 72
    65
 73
     0
 40
0.0
  0
LTYPE
  5
104D
330
FF6
100
AcDbSymbolTableRecord
100
AcDbLinetypeTableRecord
  2
CONTINUOUS
 70
     0
  3
Solid line
 72
    65
 73
     0
 40
0.0
  0
LTYPE
  5
1064
330
FF6
100
AcDbSymbolTableRecord
100
AcDbLinetypeTableRecord
  2
CENTER
 70
     0
  3
__ . __
 72
    65
 73
     4
 40
7.0
 49
4.0
 74
     0
 49
-1.0
 74
     0
 49
1.0
 74
     0
 49
-1.0
 74
     0
  0
ENDTAB
  0
TABLE
  2
LAYER
  5
FF3
102
{ACAD_XDICTIONARY
360
155F
102
}
330
0
100
AcDbSymbolTable
 70
     2
  0
LAYER
  5
1045
102
{ACAD_XDICTIONARY
360
1228
102
}
330
FF3
100
AcDbSymbolTableRecord
100
AcDbLayerTableRecord
  2
0
 70
     0
 62
     7
  6
CONTINUOUS
370
    -3
390
1000
  0
LAYER
  5
1570
330
FF3
100
AcDbSymbolTableRecord
100
AcDbLayerTableRecord
  2
Defpoints
 70
     0
 62
     7
  6
CONTINUOUS
290
     0
370
    -3
390
1000
  0
ENDTAB
  0
TABLE
  2
STYLE
  5
FF4
330
0
100
AcDbSymbolTable
 70
     1
  0
STYLE
  5
1046
330
FF4
100
AcDbSymbolTableRecord
100
AcDbTextStyleTableRecord
  2
STANDARD
 70
     0
 40
0.0
 41
1.0
 50
0.0
 71
     0
 42
2.5
  3
txt.shx
  4

  0
ENDTAB
  0
TABLE
  2
VIEW
  5
FF7
330
0
100
AcDbSymbolTable
 70
     0
  0
ENDTAB
  0
TABLE
  2
UCS
  5
FF8
330
0
100
AcDbSymbolTable
 70
     0
  0
ENDTAB
  0
TABLE
  2
APPID
  5
FFA
330
0
100
AcDbSymbolTable
 70
    87
  0
APPID
  5
1047
330
FFA
100
AcDbSymbolTableRecord
100
AcDbRegAppTableRecord
  2
ACAD
 70
     0
  0
APPID
  5
104E
330
FFA
100
AcDbSymbolTableRecord
100
AcDbRegAppTableRecord
  2
ACADANNOTATIVE
 70
     0
  0
APPID
  5
107C
330
FFA
100
AcDbSymbolTableRecord
100
AcDbRegAppTableRecord
  2
MCAD_NO_VIS
 70
     0
  0
APPID
  5
107D
330
FFA
100
AcDbSymbolTableRecord
100
AcDbRegAppTableRecord
  2
ACAD_TEMP_GRAPHIC
 70
     0
  0
APPID
  5
107E
330
FFA
100
AcDbSymbolTableRecord
100
AcDbRegAppTableRecord
  2
ACATTRIBSERVICES
 70
     0
  0
APPID
  5
107F
330
FFA
100
AcDbSymbolTableRecord
100
AcDbRegAppTableRecord
  2
AD_DRAW
 70
     0
  0
APPID
  5
1080
330
FFA
100
AcDbSymbolTableRecord
100
AcDbRegAppTableRecord
  2
DESIGNERASSEMBLIES
 70
     0
  0
APPID
  5
1081
330
FFA
100
AcDbSymbolTableRecord
100
AcDbRegAppTableRecord
  2
ASURF_PCURVE_APPNAME
 70
     0
  0
APPID
  5
1082
330
FFA
100
AcDbSymbolTableRecord
100
AcDbRegAppTableRecord
  2
ACADM_DIM_EDIT
 70
     0
  0
APPID
  5
1083
330
FFA
100
AcDbSymbolTableRecord
100
AcDbRegAppTableRecord
  2
GENIUS_GENDIM_13
 70
     0
  0
APPID
  5
1084
330
FFA
100
AcDbSymbolTableRecord
100
AcDbRegAppTableRecord
  2
GENIUS_GENDTOL_13
 70
     0
  0
APPID
  5
1085
330
FFA
100
AcDbSymbolTableRecord
100
AcDbRegAppTableRecord
  2
GENIUS_GE3DTOL_13
 70
     0
  0
APPID
  5
1086
330
FFA
100
AcDbSymbolTableRecord
100
AcDbRegAppTableRecord
  2
AMG_3D2D_5_0
 70
     0
  0
APPID
  5
1087
330
FFA
100
AcDbSymbolTableRecord
100
AcDbRegAppTableRecord
  2
AMDT_DM_ADJ
 70
     0
  0
APPID
  5
1088
330
FFA
100
AcDbSymbolTableRecord
100
AcDbRegAppTableRecord
  2
CK_MATE-SERIES
 70
     0
  0
APPID
  5
1089
330
FFA
100
AcDbSymbolTableRecord
100
AcDbRegAppTableRecord
  2
GEVID1042077799
 70
     0
  0
APPID
  5
108A
330
FFA
100
AcDbSymbolTableRecord
100
AcDbRegAppTableRecord
  2
GEVMK
 70
     0
  0
APPID
  5
108B
330
FFA
100
AcDbSymbolTableRecord
100
AcDbRegAppTableRecord
  2
GEVDC
 70
     0
  0
APPID
  5
108C
330
FFA
100
AcDbSymbolTableRecord
100
AcDbRegAppTableRecord
  2
GENIUS_GENBH_13
 70
     0
  0
APPID
  5
108D
330
FFA
100
AcDbSymbolTableRecord
100
AcDbRegAppTableRecord
  2
GENIUS_GENOLIS_13
 70
     0
  0
APPID
  5
108E
330
FFA
100
AcDbSymbolTableRecord
100
AcDbRegAppTableRecord
  2
GENIUS_GENOENT_13
 70
     0
  0
APPID
  5
108F
330
FFA
100
AcDbSymbolTableRecord
100
AcDbRegAppTableRecord
  2
GENIUS_GENODEF_13
 70
     0
  0
APPID
  5
1090
330
FFA
100
AcDbSymbolTableRecord
100
AcDbRegAppTableRecord
  2
GENIUS_GENOBJ-NBEHI-BHF_13
 70
     0
  0
APPID
  5
1091
330
FFA
100
AcDbSymbolTableRecord
100
AcDbRegAppTableRecord
  2
GENIUS_GENOREF_13
 70
     0
  0
APPID
  5
1092
330
FFA
100
AcDbSymbolTableRecord
100
AcDbRegAppTableRecord
  2
GENIUS_GENOBJ-NBEHI-BHB_13
 70
     0
  0
APPID
  5
1093
330
FFA
100
AcDbSymbolTableRecord
100
AcDbRegAppTableRecord
  2
GEVID1042183772
 70
     0
  0
APPID
  5
1094
330
FFA
100
AcDbSymbolTableRecord
100
AcDbRegAppTableRecord
  2
GEVID1042183773
 70
     0
  0
APPID
  5
1095
330
FFA
100
AcDbSymbolTableRecord
100
AcDbRegAppTableRecord
  2
GEVID1042183774
 70
     0
  0
APPID
  5
1096
330
FFA
100
AcDbSymbolTableRecord
100
AcDbRegAppTableRecord
  2
DCO15
 70
     0
  0
APPID
  5
1097
330
FFA
100
AcDbSymbolTableRecord
100
AcDbRegAppTableRecord
  2
ACAD_DSTYLE_DIMARC_LENGTH_
 70
     0
  0
APPID
  5
1098
330
FFA
100
AcDbSymbolTableRecord
100
AcDbRegAppTableRecord
  2
ACAD_DSTYLE_DIMJOGGED_JOGA
 70
     0
  0
APPID
  5
1099
330
FFA
100
AcDbSymbolTableRecord
100
AcDbRegAppTableRecord
  2
ACAD_MLEADERVER
 70
     0
  0
APPID
  5
109A
330
FFA
100
AcDbSymbolTableRecord
100
AcDbRegAppTableRecord
  2
GENIUS_GENOBJ-N-FIL_13
 70
     0
  0
APPID
  5
109B
330
FFA
100
AcDbSymbolTableRecord
100
AcDbRegAppTableRecord
  2
ACADANNOPO
 70
     0
  0
APPID
  5
109C
330
FFA
100
AcDbSymbolTableRecord
100
AcDbRegAppTableRecord
  2
GENIUS_GENOBJ-N-TIT_13
 70
     0
  0
APPID
  5
109D
330
FFA
100
AcDbSymbolTableRecord
100
AcDbRegAppTableRecord
  2
GENIUS_GENTITLE_13
 70
     0
  0
APPID
  5
109E
330
FFA
100
AcDbSymbolTableRecord
100
AcDbRegAppTableRecord
  2
GENIUS_GENSCREG_15
 70
     0
  0
APPID
  5
109F
330
FFA
100
AcDbSymbolTableRecord
100
AcDbRegAppTableRecord
  2
GENIUS_GENOBJ-N-SDF_13
 70
     0
  0
APPID
  5
10A0
330
FFA
100
AcDbSymbolTableRecord
100
AcDbRegAppTableRecord
  2
ACAD_PSEXT
 70
     0
  0
APPID
  5
10A1
330
FFA
100
AcDbSymbolTableRecord
100
AcDbRegAppTableRecord
  2
ACAECLAYERSTANDARD
 70
     0
  0
APPID
  5
10A2
330
FFA
100
AcDbSymbolTableRecord
100
AcDbRegAppTableRecord
  2
ACAD_EXEMPT_FROM_CAD_STANDARDS
 70
     0
  0
APPID
  5
10A3
330
FFA
100
AcDbSymbolTableRecord
100
AcDbRegAppTableRecord
  2
ACAD_DSTYLE_DIMINSPECT
 70
     0
  0
APPID
  5
10A4
330
FFA
100
AcDbSymbolTableRecord
100
AcDbRegAppTableRecord
  2
GENIUS_GENDIMSH_14
 70
     0
  0
APPID
  5
10A5
330
FFA
100
AcDbSymbolTableRecord
100
AcDbRegAppTableRecord
  2
GENIUS_GENOBJ-N-CEN_13
 70
     0
  0
APPID
  5
10A6
330
FFA
100
AcDbSymbolTableRecord
100
AcDbRegAppTableRecord
  2
GENIUS_GENCEN_19
 70
     0
  0
APPID
  5
10A7
330
FFA
100
AcDbSymbolTableRecord
100
AcDbRegAppTableRecord
  2
ACAD_DSTYLE_DIMJAG
 70
     0
  0
APPID
  5
10A8
330
FFA
100
AcDbSymbolTableRecord
100
AcDbRegAppTableRecord
  2
ACAD_DSTYLE_DIMTALN
 70
     0
  0
APPID
  5
10A9
330
FFA
100
AcDbSymbolTableRecord
100
AcDbRegAppTableRecord
  2
GENIUS_GENREC_14
 70
     0
  0
APPID
  5
10AA
330
FFA
100
AcDbSymbolTableRecord
100
AcDbRegAppTableRecord
  2
GENIUS_GENOBJ-N-REC_13
 70
     0
  0
APPID
  5
10AB
330
FFA
100
AcDbSymbolTableRecord
100
AcDbRegAppTableRecord
  2
ACAD_DIMASSOC_CALC_DIMLFAC
 70
     0
  0
APPID
  5
10AC
330
FFA
100
AcDbSymbolTableRecord
100
AcDbRegAppTableRecord
  2
ACAD_DIMASSOC_DIMLFAC
 70
     0
  0
APPID
  5
10AD
330
FFA
100
AcDbSymbolTableRecord
100
AcDbRegAppTableRecord
  2
ACAD_DIMASSOC_OVERRIDDEN_D
 70
     0
  0
APPID
  5
10AE
330
FFA
100
AcDbSymbolTableRecord
100
AcDbRegAppTableRecord
  2
ACAD_DSTYLE_DIMEXT_LENGTH
 70
     0
  0
APPID
  5
10AF
330
FFA
100
AcDbSymbolTableRecord
100
AcDbRegAppTableRecord
  2
ACAD_DSTYLE_DIMEXT_ENABLED
 70
     0
  0
APPID
  5
10B0
330
FFA
100
AcDbSymbolTableRecord
100
AcDbRegAppTableRecord
  2
ACAD_DSTYLE_DIMBREAK
 70
     0
  0
APPID
  5
10B1
330
FFA
100
AcDbSymbolTableRecord
100
AcDbRegAppTableRecord
  2
ACAD_DSTYLE_DIMANGULAR_EXT
 70
     0
  0
APPID
  5
10B2
330
FFA
100
AcDbSymbolTableRecord
100
AcDbRegAppTableRecord
  2
ACCMTRANSPARENCY
 70
     0
  0
APPID
  5
10B3
330
FFA
100
AcDbSymbolTableRecord
100
AcDbRegAppTableRecord
  2
GENIUS_GENBLLY_14
 70
     0
  0
APPID
  5
10B4
330
FFA
100
AcDbSymbolTableRecord
100
AcDbRegAppTableRecord
  2
GENIUS_GENTRA_14
 70
     0
  0
APPID
  5
10B5
330
FFA
100
AcDbSymbolTableRecord
100
AcDbRegAppTableRecord
  2
GENIUS_GENOBJ-N-REV_13
 70
     0
  0
APPID
  5
10B6
330
FFA
100
AcDbSymbolTableRecord
100
AcDbRegAppTableRecord
  2
GENIUS_GENOBJ-N-RSSYM_13
 70
     0
  0
APPID
  5
10B7
330
FFA
100
AcDbSymbolTableRecord
100
AcDbRegAppTableRecord
  2
GENIUS_GENSYMENT_13
 70
     0
  0
APPID
  5
10B8
330
FFA
100
AcDbSymbolTableRecord
100
AcDbRegAppTableRecord
  2
GENIUS_GENSCSYM_13
 70
     0
  0
APPID
  5
10B9
330
FFA
100
AcDbSymbolTableRecord
100
AcDbRegAppTableRecord
  2
ACDBBLOCKREPBTAG
 70
     0
  0
APPID
  5
10BA
330
FFA
100
AcDbSymbolTableRecord
100
AcDbRegAppTableRecord
  2
ACAUTHENVIRON
 70
     0
  0
APPID
  5
10BB
330
FFA
100
AcDbSymbolTableRecord
100
AcDbRegAppTableRecord
  2
ACDBDYNAMICBLOCKTRUENAME
 70
     0
  0
APPID
  5
10BC
330
FFA
100
AcDbSymbolTableRecord
100
AcDbRegAppTableRecord
  2
ACDBDYNAMICBLOCKGUID
 70
     0
  0
APPID
  5
10BD
330
FFA
100
AcDbSymbolTableRecord
100
AcDbRegAppTableRecord
  2
ACDBBLOCKREPETAG
 70
     0
  0
APPID
  5
10BE
330
FFA
100
AcDbSymbolTableRecord
100
AcDbRegAppTableRecord
  2
GENIUS_GENOBJ-N-HTC_13
 70
     0
  0
APPID
  5
10BF
330
FFA
100
AcDbSymbolTableRecord
100
AcDbRegAppTableRecord
  2
GENIUS_GENHATCH_13
 70
     0
  0
APPID
  5
10C0
330
FFA
100
AcDbSymbolTableRecord
100
AcDbRegAppTableRecord
  2
GRADIENTCOLOR1ACI
 70
     0
  0
APPID
  5
10C1
330
FFA
100
AcDbSymbolTableRecord
100
AcDbRegAppTableRecord
  2
GRADIENTCOLOR2ACI
 70
     0
  0
APPID
  5
10C2
330
FFA
100
AcDbSymbolTableRecord
100
AcDbRegAppTableRecord
  2
GENIUS_GENFIL_13
 70
     0
  0
APPID
  5
10C3
330
FFA
100
AcDbSymbolTableRecord
100
AcDbRegAppTableRecord
  2
GENIUS_GENOBJ-N-CHA_13
 70
     0
  0
APPID
  5
10C4
330
FFA
100
AcDbSymbolTableRecord
100
AcDbRegAppTableRecord
  2
ACAD_DSTYLE_DIM_LINETYPE
 70
     0
  0
APPID
  5
10C5
330
FFA
100
AcDbSymbolTableRecord
100
AcDbRegAppTableRecord
  2
ACAD_DSTYLE_DIM_EXT1_LINETYPE
 70
     0
  0
APPID
  5
10C6
330
FFA
100
AcDbSymbolTableRecord
100
AcDbRegAppTableRecord
  2
ACAD_DSTYLE_DIM_EXT2_LINETYPE
 70
     0
  0
APPID
  5
10C7
330
FFA
100
AcDbSymbolTableRecord
100
AcDbRegAppTableRecord
  2
ACDBATTR
 70
     0
  0
APPID
  5
10C8
330
FFA
100
AcDbSymbolTableRecord
100
AcDbRegAppTableRecord
  2
ACAD_DSTYLE_DIMRADIAL_EXTENSION
 70
     0
  0
APPID
  5
10C9
330
FFA
100
AcDbSymbolTableRecord
100
AcDbRegAppTableRecord
  2
ACADANNOAV
 70
     0
  0
APPID
  5
10CA
330
FFA
100
AcDbSymbolTableRecord
100
AcDbRegAppTableRecord
  2
ACAD_DSTYLE_DIMTEXT_FILL
 70
     0
  0
APPID
  5
10CB
330
FFA
100
AcDbSymbolTableRecord
100
AcDbRegAppTableRecord
  2
ACAD_DSTYLE_DIMFLIPARROW_W
 70
     0
  0
APPID
  5
10CC
330
FFA
100
AcDbSymbolTableRecord
100
AcDbRegAppTableRecord
  2
ACADBPTGRAPHNODEID
 70
     0
  0
APPID
  5
10CD
330
FFA
100
AcDbSymbolTableRecord
100
AcDbRegAppTableRecord
  2
PE_URL
 70
     0
  0
APPID
  5
10CE
330
FFA
100
AcDbSymbolTableRecord
100
AcDbRegAppTableRecord
  2
ACAD_NAV_VCDISPLAY
 70
     0
  0
APPID
  5
10CF
330
FFA
100
AcDbSymbolTableRecord
100
AcDbRegAppTableRecord
  2
CONTENTBLOCKICON
 70
     0
  0
APPID
  5
1268
330
FFA
100
AcDbSymbolTableRecord
100
AcDbRegAppTableRecord
  2
ACAD_DSTYLE_DIMARC_LENGTH_SYMBOL
 70
     0
  0
ENDTAB
  0
TABLE
  2
DIMSTYLE
  5
FFB
330
0
100
AcDbSymbolTable
 70
     1
100
AcDbDimStyleTable
 71
     1
340
1048
  0
DIMSTYLE
105
1048
330
FFB
100
AcDbSymbolTableRecord
100
AcDbDimStyleTableRecord
  2
STANDARD
 70
     0
271
     8
272
     8
274
     3
279
     2
284
     8
285
     8
286
     8
340
1046
  0
ENDTAB
  0
TABLE
  2
BLOCK_RECORD
  5
FF2
330
0
100
AcDbSymbolTable
 70
     0
  0
BLOCK_RECORD
  5
105C
102
{ACAD_XDICTIONARY
360
12F8
102
}
330
FF2
100
AcDbSymbolTableRecord
100
AcDbBlockTableRecord
  2
*Model_Space
340
105F
  0
BLOCK_RECORD
  5
1058
330
FF2
100
AcDbSymbolTableRecord
100
AcDbBlockTableRecord
  2
*Paper_Space
340
105B
  0
ENDTAB
  0
ENDSEC
  0
SECTION
  2
BLOCKS
  0
BLOCK
  5
105D
330
105C
100
AcDbEntity
  8
0
100
AcDbBlockBegin
  2
*Model_Space
 70
     0
 10
0.0
 20
0.0
 30
0.0
  3
*Model_Space
  1

  0
ENDBLK
  5
105E
330
105C
100
AcDbEntity
  8
0
100
AcDbBlockEnd
  0
BLOCK
  5
1059
330
1058
100
AcDbEntity
 67
     1
  8
0
100
AcDbBlockBegin
  2
*Paper_Space
 70
     0
 10
0.0
 20
0.0
 30
0.0
  3
*Paper_Space
  1

  0
ENDBLK
  5
105A
330
1058
100
AcDbEntity
 67
     1
  8
0
100
AcDbBlockEnd
  0
ENDSEC
  0
SECTION
  2
ENTITIES
  0
LINE
  5
18C5
330
105C
100
AcDbEntity
  8
0
100
AcDbLine
 10
21.59997940247194
 20
44.37080489595587
 30
0.0
 11
20.5999782816213
 21
43.37080385939898
 31
0.0
  0
LINE
  5
18C6
330
105C
100
AcDbEntity
  8
0
100
AcDbLine
 10
20.59994616572339
 20
49.37082112121633
 30
0.0
 11
21.59992562309481
 21
48.37084157955297
 31
0.0
  0
LINE
  5
18C7
330
105C
100
AcDbEntity
  8
0
100
AcDbLine
 10
21.5999755859375
 20
44.37078857421875
 30
0.0
 11
21.5999755859375
 21
48.37078857421875
 31
0.0
  0
LINE
  5
18C8
330
105C
100
AcDbEntity
  8
0
100
AcDbLine
 10
20.5999755859375
 20
43.37078857421872
 30
0.0
 11
18.5999755859375
 21
43.37078857421872
 31
0.0
  0
LINE
  5
18C9
330
105C
100
AcDbEntity
  8
0
100
AcDbLine
 10
20.5999755859375
 20
49.37078857421875
 30
0.0
 11
18.5999755859375
 21
49.37078857421875
 31
0.0
  0
LINE
  5
18CA
330
105C
100
AcDbEntity
  8
0
100
AcDbLine
 10
18.12451171875
 20
49.257568359375
 30
0.0
 11
15.0
 21
49.257568359375
 31
0.0
  0
LINE
  5
18CB
330
105C
100
AcDbEntity
  8
0
100
AcDbLine
 10
18.12451171875
 20
43.48400878906249
 30
0.0
 11
15.0
 21
43.48400878906249
 31
0.0
  0
LINE
  5
18CC
330
105C
100
AcDbEntity
  8
0
100
AcDbLine
 10
18.095703125
 20
52.144287109375
 30
0.0
 11
15.0
 21
52.144287109375
 31
0.0
  0
LINE
  5
18CD
330
105C
100
AcDbEntity
  8
0
100
AcDbLine
 10
18.5999755859375
 20
42.0406494140625
 30
0.0
 11
18.5999755859375
 21
50.700927734375
 31
0.0
  0
LINE
  5
18CE
330
105C
100
AcDbEntity
  8
0
100
AcDbLine
 10
17.60004131124674
 20
-48.37079278577957
 30
0.0
 11
16.60004019039604
 21
-49.37079382233648
 31
0.0
  0
LINE
  5
18CF
330
105C
100
AcDbEntity
  8
0
100
AcDbLine
 10
16.6000188640919
 20
-43.3707657709264
 30
0.0
 11
17.60004147983432
 21
-44.3707884709644
 31
0.0
  0
LINE
  5
18D0
330
105C
100
AcDbEntity
  8
0
100
AcDbLine
 10
17.5999755859375
 20
-48.37078857421875
 30
0.0
 11
17.5999755859375
 21
-44.37078857421875
 31
0.0
  0
LINE
  5
18D1
330
105C
100
AcDbEntity
  8
0
100
AcDbLine
 10
16.5999755859375
 20
-49.37078857421875
 30
0.0
 11
15.5999755859375
 21
-49.37078857421875
 31
0.0
  0
LINE
  5
18D2
330
105C
100
AcDbEntity
  8
0
100
AcDbLine
 10
15.12451171875
 20
-43.48403930664061
 30
0.0
 11
12.0
 21
-43.48403930664061
 31
0.0
  0
LINE
  5
18D3
330
105C
100
AcDbEntity
  8
0
100
AcDbLine
 10
16.5999755859375
 20
-43.37078857421873
 30
0.0
 11
15.5999755859375
 21
-43.37078857421873
 31
0.0
  0
LINE
  5
18D4
330
105C
100
AcDbEntity
  8
0
100
AcDbLine
 10
15.12451171875
 20
-49.25753784179686
 30
0.0
 11
12.0
 21
-49.25753784179686
 31
0.0
  0
LINE
  5
18D5
330
105C
100
AcDbEntity
  8
0
100
AcDbLine
 10
15.5999755859375
 20
-50.700927734375
 30
0.0
 11
15.5999755859375
 21
-42.0406494140625
 31
0.0
  0
LINE
  5
18D6
330
105C
100
AcDbEntity
  8
0
100
AcDbLine
 10
15.12451171875
 20
-52.144287109375
 30
0.0
 11
12.0
 21
-52.144287109375
 31
0.0
  0
LINE
  5
18D7
330
105C
100
AcDbEntity
  8
0
100
AcDbLine
 10
6.66571044921875
 20
-56.39999389648437
 30
0.0
 11
12.0
 21
-56.39999389648437
 31
0.0
  0
LINE
  5
18D8
330
105C
100
AcDbEntity
  8
0
100
AcDbLine
 10
15.46454901965381
 20
-41.24092801730193
 30
0.0
 11
26.99995821155738
 21
-38.1500244140625
 31
0.0
  0
LINE
  5
18D9
330
105C
100
AcDbEntity
  8
0
100
AcDbLine
 10
50.0
 20
-45.49999999999999
 30
0.0
 11
47.710205078125
 21
-45.49999999999999
 31
0.0
  0
LINE
  5
18DA
330
105C
100
AcDbEntity
  8
0
100
AcDbLine
 10
43.07446289062499
 20
-38.1500244140625
 30
0.0
 11
26.99995821155738
 21
-38.1500244140625
 31
0.0
  0
LINE
  5
18DB
330
105C
100
AcDbEntity
  8
0
100
AcDbLine
 10
46.95842502114811
 20
-44.97358055147866
 30
0.0
 11
44.95379529812993
 21
-39.46590585033951
 31
0.0
  0
LINE
  5
18DC
330
105C
100
AcDbEntity
  8
0
  6
CENTER
100
AcDbLine
 10
-55.5948486328125
 20
0.0
 30
0.0
 11
55.59490966796875
 21
0.0
 31
0.0
  0
LINE
  5
18DD
330
105C
100
AcDbEntity
  8
0
100
AcDbLine
 10
43.07446289062499
 20
38.1500244140625
 30
0.0
 11
26.99994731040397
 21
38.1500244140625
 31
0.0
  0
LINE
  5
18DE
330
105C
100
AcDbEntity
  8
0
100
AcDbLine
 10
46.95839550219335
 20
44.97363739835788
 30
0.0
 11
44.95376577917522
 21
39.46596269721874
 31
0.0
  0
LINE
  5
18DF
330
105C
100
AcDbEntity
  8
0
100
AcDbLine
 10
17.86662773483789
 20
40.5972900390625
 30
0.0
 11
26.99994731040397
 21
38.1500244140625
 31
0.0
  0
LINE
  5
18E0
330
105C
100
AcDbEntity
  8
0
100
AcDbLine
 10
50.0
 20
45.49999999999999
 30
0.0
 11
47.710205078125
 21
45.49999999999999
 31
0.0
  0
LINE
  5
18E1
330
105C
100
AcDbEntity
  8
0
100
AcDbLine
 10
50.0
 20
45.49999999999999
 30
0.0
 11
50.0
 21
-45.49999999999999
 31
0.0
  0
LINE
  5
18E2
330
105C
100
AcDbEntity
  8
0
100
AcDbLine
 10
-177.9999945204686
 20
43.48404218671612
 30
0.0
 11
-180.4999662803319
 21
44.92740158114543
 31
0.0
  0
LINE
  5
18E3
330
105C
100
AcDbEntity
  8
0
100
AcDbLine
 10
-178.0000077088805
 20
49.25755413329865
 30
0.0
 11
-180.5000323267394
 21
47.81416422129081
 31
0.0
  0
LINE
  5
18E4
330
105C
100
AcDbEntity
  8
0
100
AcDbLine
 10
-180.5
 20
44.92742919921875
 30
0.0
 11
-180.5
 21
47.81414794921874
 31
0.0
  0
LINE
  5
18E5
330
105C
100
AcDbEntity
  8
0
100
AcDbLine
 10
-175.5
 20
44.92742919921875
 30
0.0
 11
-175.5
 21
47.81414794921874
 31
0.0
  0
LINE
  5
18E6
330
105C
100
AcDbEntity
  8
0
100
AcDbLine
 10
-177.9999662466789
 20
49.25752858063811
 30
0.0
 11
-175.4999944868156
 21
47.81416918620879
 31
0.0
  0
LINE
  5
18E7
330
105C
100
AcDbEntity
  8
0
100
AcDbLine
 10
-178.0000322930864
 20
43.48403722179813
 30
0.0
 11
-175.5000076752274
 21
44.92742713380599
 31
0.0
  0
LINE
  5
18E8
330
105C
100
AcDbEntity
  8
0
100
AcDbLine
 10
-147.4999376311614
 20
-2.88679558822254
 30
0.0
 11
-150.000015107016
 21
-1.443375158636158
 31
0.0
  0
LINE
  5
18E9
330
105C
100
AcDbEntity
  8
0
100
AcDbLine
 10
-147.5000044366441
 20
2.886786805388567
 30
0.0
 11
-150.0000290545031
 21
1.443396893380707
 31
0.0
  0
LINE
  5
18EA
330
105C
100
AcDbEntity
  8
0
100
AcDbLine
 10
-150.0
 20
-1.443359375
 30
0.0
 11
-150.0
 21
1.443359375
 31
0.0
  0
LINE
  5
18EB
330
105C
100
AcDbEntity
  8
0
100
AcDbLine
 10
-145.0
 20
-1.443359375
 30
0.0
 11
-145.0
 21
1.443359375
 31
0.0
  0
LINE
  5
18EC
330
105C
100
AcDbEntity
  8
0
100
AcDbLine
 10
-147.500015073363
 20
2.886751840856504
 30
0.0
 11
-144.9999375975085
 21
1.443331411270122
 31
0.0
  0
LINE
  5
18ED
330
105C
100
AcDbEntity
  8
0
100
AcDbLine
 10
-147.5000290208501
 20
-2.886730106111969
 30
0.0
 11
-145.0000044029912
 21
-1.443340194104109
 31
0.0
  0
LINE
  5
18EE
330
105C
100
AcDbEntity
  8
0
100
AcDbLine
 10
-177.9999409033977
 20
-49.25756291613264
 30
0.0
 11
-180.4999126632611
 21
-47.81420352170335
 31
0.0
  0
LINE
  5
18EF
330
105C
100
AcDbEntity
  8
0
100
AcDbLine
 10
-177.9999932091664
 20
-43.4840468809694
 30
0.0
 11
-180.5000178270254
 21
-44.92743679297722
 31
0.0
  0
LINE
  5
18F0
330
105C
100
AcDbEntity
  8
0
100
AcDbLine
 10
-180.5
 20
-47.81414794921874
 30
0.0
 11
-180.5
 21
-44.92742919921875
 31
0.0
  0
LINE
  5
18F1
330
105C
100
AcDbEntity
  8
0
100
AcDbLine
 10
-175.5
 20
-47.81414794921874
 30
0.0
 11
-175.5
 21
-44.92742919921875
 31
0.0
  0
LINE
  5
18F2
330
105C
100
AcDbEntity
  8
0
100
AcDbLine
 10
-177.9999126296082
 20
-43.48407652221067
 30
0.0
 11
-175.4999408697448
 21
-44.92743591663996
 31
0.0
  0
LINE
  5
18F3
330
105C
100
AcDbEntity
  8
0
100
AcDbLine
 10
-177.9999872757939
 20
-49.25761665046548
 30
0.0
 11
-175.4999626579349
 21
-47.81422673845765
 31
0.0
  0
LINE
  5
18F4
330
105C
100
AcDbEntity
  8
0
  6
CENTER
100
AcDbLine
 10
-259.5
 20
0.0
 30
0.0
 11
-136.5
 21
0.0
 31
0.0
  0
LINE
  5
18F5
330
105C
100
AcDbEntity
  8
0
  6
CENTER
100
AcDbLine
 10
0.0
 20
214.598388671875
 30
0.0
 11
0.0
 21
-68.71088950232252
 31
0.0
  0
LINE
  5
18F6
330
105C
100
AcDbEntity
  8
0
  6
CENTER
100
AcDbLine
 10
-198.0
 20
214.6000213623047
 30
0.0
 11
-198.0
 21
-61.5
 31
0.0
  0
LINE
  5
18F7
330
105C
100
AcDbEntity
  8
0
100
AcDbLine
 10
15.5
 20
96.09832763671875
 30
0.0
 11
15.5
 21
99.09832763671875
 31
0.0
  0
LINE
  5
18F8
330
105C
100
AcDbEntity
  8
0
100
AcDbLine
 10
12.0
 20
56.4000244140625
 30
0.0
 11
12.0
 21
-56.39999389648437
 31
0.0
  0
LINE
  5
18F9
330
105C
100
AcDbEntity
  8
0
100
AcDbLine
 10
15.50005238947403
 20
54.46438485751102
 30
0.0
 11
36.00000846623783
 21
66.30004022923518
 31
0.0
  0
LINE
  5
18FA
330
105C
100
AcDbEntity
  8
0
100
AcDbLine
 10
14.00005236928229
 20
57.0624610572066
 30
0.0
 11
34.50000844604608
 21
68.89811642893076
 31
0.0
  0
LINE
  5
18FB
330
105C
100
AcDbEntity
  8
0
100
AcDbLine
 10
38.0
 20
69.76416015625
 30
0.0
 11
38.0
 21
95.09832763671875
 31
0.0
  0
LINE
  5
18FC
330
105C
100
AcDbEntity
  8
0
100
AcDbLine
 10
15.5
 20
96.09832763671875
 30
0.0
 11
34.0
 21
96.09832763671875
 31
0.0
  0
LINE
  5
18FD
330
105C
100
AcDbEntity
  8
0
100
AcDbLine
 10
35.0
 20
69.76416015625
 30
0.0
 11
35.0
 21
95.09832763671875
 31
0.0
  0
LINE
  5
18FE
330
105C
100
AcDbEntity
  8
0
100
AcDbLine
 10
15.0
 20
53.59832763671875
 30
0.0
 11
15.0
 21
39.79162597656248
 31
0.0
  0
LINE
  5
18FF
330
105C
100
AcDbEntity
  8
0
100
AcDbLine
 10
15.0
 20
74.79837368293812
 30
0.0
 11
11.5
 21
71.29837368293812
 31
0.0
  0
LINE
  5
1900
330
105C
100
AcDbEntity
  8
0
100
AcDbLine
 10
11.5
 20
61.29833984375
 30
0.0
 11
11.5
 21
71.29837368293812
 31
0.0
  0
LINE
  5
1901
330
105C
100
AcDbEntity
  8
0
100
AcDbLine
 10
15.0
 20
74.79837368293812
 30
0.0
 11
15.0
 21
96.29833984375
 31
0.0
  0
LINE
  5
1902
330
105C
100
AcDbEntity
  8
0
100
AcDbLine
 10
11.50003051757812
 20
96.29833984375
 30
0.0
 11
11.50003051757812
 21
97.59832763671875
 31
0.0
  0
LINE
  5
1903
330
105C
100
AcDbEntity
  8
0
100
AcDbLine
 10
13.79995727539062
 20
97.59832763671875
 30
0.0
 11
13.79995727539062
 21
99.09832763671875
 31
0.0
  0
LINE
  5
1904
330
105C
100
AcDbEntity
  8
0
100
AcDbLine
 10
9.233154296875
 20
61.29833984375
 30
0.0
 11
9.233154296875
 21
60.29833984375
 31
0.0
  0
LINE
  5
1905
330
105C
100
AcDbEntity
  8
0
100
AcDbLine
 10
16.0
 20
72.59832763671875
 30
0.0
 11
18.0
 21
72.59832763671875
 31
0.0
  0
LINE
  5
1906
330
105C
100
AcDbEntity
  8
0
100
AcDbLine
 10
11.00002252182003
 20
60.29833984375
 30
0.0
 11
16.0
 21
63.1850782385311
 31
0.0
  0
LINE
  5
1907
330
105C
100
AcDbEntity
  8
0
100
AcDbLine
 10
18.0
 20
72.59832763671875
 30
0.0
 11
18.0
 21
62.03037771051427
 31
0.0
  0
LINE
  5
1908
330
105C
100
AcDbEntity
  8
0
100
AcDbLine
 10
11.53592091501213
 20
58.29833984375
 30
0.0
 11
18.0
 21
62.03037771051427
 31
0.0
  0
LINE
  5
1909
330
105C
100
AcDbEntity
  8
0
100
AcDbLine
 10
16.0
 20
72.59832763671875
 30
0.0
 11
16.0
 21
63.1850782385311
 31
0.0
  0
LINE
  5
190A
330
105C
100
AcDbEntity
  8
0
100
AcDbLine
 10
-171.6698717799993
 20
40.96321932220179
 30
0.0
 11
-168.1698572149428
 21
44.46323388725829
 31
0.0
  0
LINE
  5
190B
330
105C
100
AcDbEntity
  8
0
100
AcDbLine
 10
-166.9982604980468
 20
99.09997558593751
 30
0.0
 11
-166.9982604980468
 21
47.2916259765625
 31
0.0
  0
LINE
  5
190C
330
105C
100
AcDbEntity
  8
0
100
AcDbLine
 10
-166.9982604980468
 20
99.09997558593751
 30
0.0
 11
-228.9982604980469
 21
99.09997558593751
 31
0.0
  0
LINE
  5
190D
330
105C
100
AcDbEntity
  8
0
100
AcDbLine
 10
-229.0017395019531
 20
54.1773681640625
 30
0.0
 11
-166.9982604980468
 21
54.1773681640625
 31
0.0
  0
LINE
  5
190E
330
105C
100
AcDbEntity
  8
0
100
AcDbLine
 10
17.30007934570312
 20
87.59837341308594
 30
0.0
 11
17.30007934570312
 21
96.09835815429688
 31
0.0
  0
LINE
  5
190F
330
105C
100
AcDbEntity
  8
0
100
AcDbLine
 10
18.16608777943389
 20
87.09838790271891
 30
0.0
 11
17.30011523753097
 21
87.59835739187099
 31
0.0
  0
LINE
  5
1910
330
105C
100
AcDbEntity
  8
0
100
AcDbLine
 10
18.16610717773437
 20
87.098388671875
 30
0.0
 11
29.43405151367187
 21
87.098388671875
 31
0.0
  0
LINE
  5
1911
330
105C
100
AcDbEntity
  8
0
100
AcDbLine
 10
29.43405223964288
 20
87.09840619176009
 30
0.0
 11
30.30007763954143
 21
87.5984061984907
 31
0.0
  0
LINE
  5
1912
330
105C
100
AcDbEntity
  8
0
100
AcDbLine
 10
30.30014038085937
 20
87.59837341308594
 30
0.0
 11
30.30014038085937
 21
96.09835815429688
 31
0.0
  0
ARC
  5
1913
330
105C
100
AcDbEntity
  8
0
100
AcDbCircle
 10
16.17169189453125
 20
42.0406494140625
 30
0.0
 40
2.428322076797484
100
AcDbArc
 50
323.5306864550546
 51
36.46931354494542
  0
ARC
  5
1914
330
105C
100
AcDbEntity
  8
0
100
AcDbCircle
 10
16.17169189453125
 20
50.700927734375
 30
0.0
 40
2.428322076797484
100
AcDbArc
 50
323.530683039958
 51
36.46931354494542
  0
ARC
  5
1915
330
105C
100
AcDbEntity
  8
0
100
AcDbCircle
 10
9.5999755859375
 20
46.37078857421875
 30
0.0
 40
9.0
100
AcDbArc
 50
341.2917037595304
 51
18.70829965556086
  0
ARC
  5
1916
330
105C
100
AcDbEntity
  8
0
100
AcDbCircle
 10
13.17169189453125
 20
-50.700927734375
 30
0.0
 40
2.428322076797484
100
AcDbArc
 50
323.530683039958
 51
36.46931354494542
  0
ARC
  5
1917
330
105C
100
AcDbEntity
  8
0
100
AcDbCircle
 10
6.5999755859375
 20
-46.37078857421875
 30
0.0
 40
9.0
100
AcDbArc
 50
341.2917037595304
 51
18.70829965556086
  0
ARC
  5
1918
330
105C
100
AcDbEntity
  8
0
100
AcDbCircle
 10
13.17169189453125
 20
-42.0406494140625
 30
0.0
 40
2.428322076797484
100
AcDbArc
 50
323.530683039958
 51
36.46883651019965
  0
ARC
  5
1919
330
105C
100
AcDbEntity
  8
0
100
AcDbCircle
 10
47.710205078125
 20
44.70001220703125
 30
0.0
 40
0.8000000119209291
100
AcDbArc
 50
89.99999567428931
 51
159.9999953454879
  0
ARC
  5
191A
330
105C
100
AcDbEntity
  8
0
100
AcDbCircle
 10
43.07446289062499
 20
40.1500244140625
 30
0.0
 40
2.0
100
AcDbArc
 50
270.0000043257107
 51
339.9999954591718
  0
ARC
  5
191B
330
105C
100
AcDbEntity
  8
0
100
AcDbCircle
 10
43.07446289062499
 20
-40.1500244140625
 30
0.0
 40
2.0
100
AcDbArc
 50
20.00000454082821
 51
89.99999567428931
  0
ARC
  5
191C
330
105C
100
AcDbEntity
  8
0
100
AcDbCircle
 10
47.710205078125
 20
-44.70001220703125
 30
0.0
 40
0.8000000119209291
100
AcDbArc
 50
200.0000046545121
 51
270.0000043257107
  0
ARC
  5
191D
330
105C
100
AcDbEntity
  8
0
100
AcDbCircle
 10
6.27838134765625
 20
-56.10000610351562
 30
0.0
 40
0.4000000059604645
100
AcDbArc
 50
269.9999974955215
 51
298.955027198661
  0
ARC
  5
191E
330
105C
100
AcDbEntity
  8
0
100
AcDbCircle
 10
6.66571044921875
 20
-56.80001831054688
 30
0.0
 40
0.4000000059604645
100
AcDbArc
 50
90.00000250447845
 51
118.9550253774278
  0
CIRCLE
  5
191F
330
105C
100
AcDbEntity
  8
0
100
AcDbCircle
 10
-178.0
 20
46.37078857421875
 30
0.0
 40
5.0
  0
CIRCLE
  5
1920
330
105C
100
AcDbEntity
  8
0
100
AcDbCircle
 10
-147.5
 20
0.0
 30
0.0
 40
5.0
  0
CIRCLE
  5
1921
330
105C
100
AcDbEntity
  8
0
100
AcDbCircle
 10
-178.0
 20
-46.37078857421875
 30
0.0
 40
5.0
  0
CIRCLE
  5
1922
330
105C
100
AcDbEntity
  8
0
100
AcDbCircle
 10
-178.0
 20
-46.37078857421875
 30
0.0
 40
4.5
  0
CIRCLE
  5
1923
330
105C
100
AcDbEntity
  8
0
100
AcDbCircle
 10
-178.0
 20
-46.37078857421875
 30
0.0
 40
2.5
  0
CIRCLE
  5
1924
330
105C
100
AcDbEntity
  8
0
100
AcDbCircle
 10
-147.5
 20
0.0
 30
0.0
 40
4.5
  0
CIRCLE
  5
1925
330
105C
100
AcDbEntity
  8
0
100
AcDbCircle
 10
-147.5
 20
0.0
 30
0.0
 40
2.5
  0
CIRCLE
  5
1926
330
105C
100
AcDbEntity
  8
0
100
AcDbCircle
 10
-198.0
 20
0.0
 30
0.0
 40
36.15000152587891
  0
ARC
  5
1927
330
105C
100
AcDbEntity
  8
0
100
AcDbCircle
 10
34.0
 20
95.09832763671875
 30
0.0
 40
4.0
100
AcDbArc
 50
0.0
 51
90.00000250447845
  0
ARC
  5
1928
330
105C
100
AcDbEntity
  8
0
100
AcDbCircle
 10
34.0
 20
69.76416015625
 30
0.0
 40
1.0
100
AcDbArc
 50
299.9999983303486
 51
0.0
  0
ARC
  5
1929
330
105C
100
AcDbEntity
  8
0
100
AcDbCircle
 10
34.0
 20
69.76416015625
 30
0.0
 40
4.0
100
AcDbArc
 50
299.9999983303486
 51
0.0
  0
ARC
  5
192A
330
105C
100
AcDbEntity
  8
0
100
AcDbCircle
 10
16.0
 20
53.59832763671875
 30
0.0
 40
1.0
100
AcDbArc
 50
120.0000033393032
 51
180.0000050089561
  0
ARC
  5
192B
330
105C
100
AcDbEntity
  8
0
100
AcDbCircle
 10
16.0
 20
53.59832763671875
 30
0.0
 40
4.0
100
AcDbArc
 50
120.0000033393032
 51
180.0000050089561
  0
ARC
  5
192C
330
105C
100
AcDbEntity
  8
0
100
AcDbCircle
 10
34.0
 20
95.09832763671875
 30
0.0
 40
1.0
100
AcDbArc
 50
0.0
 51
90.00000250447845
  0
ARC
  5
192D
330
105C
100
AcDbEntity
  8
0
100
AcDbCircle
 10
-197.9982604980468
 20
-12.5
 30
0.0
 40
57.0
100
AcDbArc
 50
67.34099336693493
 51
69.53578937185375
  0
ARC
  5
192E
330
105C
100
AcDbEntity
  8
0
100
AcDbCircle
 10
-174.4982604980469
 20
43.79162597656249
 30
0.0
 40
4.0
100
AcDbArc
 50
247.3409951881671
 51
314.9999987477614
  0
ARC
  5
192F
330
105C
100
AcDbEntity
  8
0
100
AcDbCircle
 10
-170.9982604980468
 20
47.2916259765625
 30
0.0
 40
4.0
100
AcDbArc
 50
314.9999987477614
 51
0.0
  0
LINE
  5
1930
330
105C
100
AcDbEntity
  8
0
100
AcDbLine
 10
13.23282053628026
 20
39.79162597656248
 30
0.0
 11
13.23279475345333
 21
5.77349853515625
 31
0.0
  0
LINE
  5
1931
330
105C
100
AcDbEntity
  8
0
100
AcDbLine
 10
13.23278600181857
 20
-5.77349853515625
 30
0.0
 11
13.23275960836724
 21
-40.5972900390625
 31
0.0
  0
LINE
  5
1932
330
105C
100
AcDbEntity
  8
0
100
AcDbLine
 10
26.99994731040397
 20
38.1500244140625
 30
0.0
 11
26.99995821155738
 21
-38.1500244140625
 31
0.0
  0
LINE
  5
1933
330
105C
100
AcDbEntity
  8
0
100
AcDbLine
 10
44.2216157602516
 20
38.51172032333102
 30
0.0
 11
44.2216157602516
 21
-38.51172032333103
 31
0.0
  0
LINE
  5
1934
330
105C
100
AcDbEntity
  8
0
100
AcDbLine
 10
47.25134397356237
 20
-45.35533388818716
 30
0.0
 11
47.25134397356237
 21
45.35533388818717
 31
0.0
  0
LINE
  5
1935
330
105C
100
AcDbEntity
  8
0
100
AcDbLine
 10
6.27838134765625
 20
-56.5
 30
0.0
 11
-6.27838134765625
 21
-56.5
 31
0.0
  0
LINE
  5
1936
330
105C
100
AcDbEntity
  8
0
100
AcDbLine
 10
-6.66571044921875
 20
-56.39999389648437
 30
0.0
 11
-12.0
 21
-56.39999389648437
 31
0.0
  0
LINE
  5
1937
330
105C
100
AcDbEntity
  8
0
100
AcDbLine
 10
-14.97990282740312
 20
-41.37078857421874
 30
0.0
 11
-26.99995821155738
 21
-38.1500244140625
 31
0.0
  0
LINE
  5
1938
330
105C
100
AcDbEntity
  8
0
100
AcDbLine
 10
-50.0
 20
-45.49999999999999
 30
0.0
 11
-47.710205078125
 21
-45.49999999999999
 31
0.0
  0
LINE
  5
1939
330
105C
100
AcDbEntity
  8
0
100
AcDbLine
 10
-43.07446289062499
 20
-38.1500244140625
 30
0.0
 11
-26.99995821155738
 21
-38.1500244140625
 31
0.0
  0
LINE
  5
193A
330
105C
100
AcDbEntity
  8
0
100
AcDbLine
 10
-46.95842502114811
 20
-44.97358055147866
 30
0.0
 11
-44.95379529812999
 21
-39.46590585033951
 31
0.0
  0
LINE
  5
193B
330
105C
100
AcDbEntity
  8
0
100
AcDbLine
 10
-43.07446289062499
 20
38.1500244140625
 30
0.0
 11
-26.99994731040397
 21
38.1500244140625
 31
0.0
  0
LINE
  5
193C
330
105C
100
AcDbEntity
  8
0
100
AcDbLine
 10
-46.95839550219335
 20
44.97363739835788
 30
0.0
 11
-44.95376577917522
 21
39.46596269721874
 31
0.0
  0
LINE
  5
193D
330
105C
100
AcDbEntity
  8
0
100
AcDbLine
 10
-15.0
 20
41.36540063205089
 30
0.0
 11
-26.99994731040397
 21
38.1500244140625
 31
0.0
  0
LINE
  5
193E
330
105C
100
AcDbEntity
  8
0
100
AcDbLine
 10
12.0
 20
56.4000244140625
 30
0.0
 11
-12.0
 21
56.4000244140625
 31
0.0
  0
LINE
  5
193F
330
105C
100
AcDbEntity
  8
0
100
AcDbLine
 10
-50.0
 20
45.49999999999999
 30
0.0
 11
-47.710205078125
 21
45.49999999999999
 31
0.0
  0
LINE
  5
1940
330
105C
100
AcDbEntity
  8
0
100
AcDbLine
 10
-50.0
 20
45.49999999999999
 30
0.0
 11
-50.0
 21
-45.49999999999999
 31
0.0
  0
LINE
  5
1941
330
105C
100
AcDbEntity
  8
0
100
AcDbLine
 10
-15.5
 20
96.09832763671875
 30
0.0
 11
-15.5
 21
99.09832763671875
 31
0.0
  0
LINE
  5
1942
330
105C
100
AcDbEntity
  8
0
100
AcDbLine
 10
-12.0
 20
56.4000244140625
 30
0.0
 11
-12.0
 21
-56.39999389648437
 31
0.0
  0
LINE
  5
1943
330
105C
100
AcDbEntity
  8
0
100
AcDbLine
 10
-15.50005238947403
 20
54.46438485751102
 30
0.0
 11
-36.00000846623783
 21
66.30004022923518
 31
0.0
  0
LINE
  5
1944
330
105C
100
AcDbEntity
  8
0
100
AcDbLine
 10
-14.00005236928229
 20
57.0624610572066
 30
0.0
 11
-34.50000844604608
 21
68.89811642893076
 31
0.0
  0
LINE
  5
1945
330
105C
100
AcDbEntity
  8
0
100
AcDbLine
 10
-38.0
 20
69.76416015625
 30
0.0
 11
-38.0
 21
95.09832763671875
 31
0.0
  0
LINE
  5
1946
330
105C
100
AcDbEntity
  8
0
100
AcDbLine
 10
-15.5
 20
96.09832763671875
 30
0.0
 11
-34.0
 21
96.09832763671875
 31
0.0
  0
LINE
  5
1947
330
105C
100
AcDbEntity
  8
0
100
AcDbLine
 10
-35.0
 20
69.76416015625
 30
0.0
 11
-35.0
 21
95.09832763671875
 31
0.0
  0
LINE
  5
1948
330
105C
100
AcDbEntity
  8
0
100
AcDbLine
 10
-10.41351318359375
 20
71.29833984375
 30
0.0
 11
10.41351318359375
 21
71.29833984375
 31
0.0
  0
LINE
  5
1949
330
105C
100
AcDbEntity
  8
0
100
AcDbLine
 10
-13.90390014648437
 20
74.79833984375
 30
0.0
 11
13.90390014648437
 21
74.79833984375
 31
0.0
  0
LINE
  5
194A
330
105C
100
AcDbEntity
  8
0
100
AcDbLine
 10
11.5
 20
61.29833984375
 30
0.0
 11
-11.5
 21
61.29833984375
 31
0.0
  0
LINE
  5
194B
330
105C
100
AcDbEntity
  8
0
100
AcDbLine
 10
-15.0
 20
74.79837368293812
 30
0.0
 11
-11.5
 21
71.29837368293812
 31
0.0
  0
LINE
  5
194C
330
105C
100
AcDbEntity
  8
0
100
AcDbLine
 10
-15.0
 20
96.29833984375
 30
0.0
 11
15.0
 21
96.29833984375
 31
0.0
  0
LINE
  5
194D
330
105C
100
AcDbEntity
  8
0
100
AcDbLine
 10
-11.5
 20
61.29833984375
 30
0.0
 11
-11.5
 21
71.29837368293812
 31
0.0
  0
LINE
  5
194E
330
105C
100
AcDbEntity
  8
0
100
AcDbLine
 10
-15.0
 20
74.79837368293812
 30
0.0
 11
-15.0
 21
96.29833984375
 31
0.0
  0
LINE
  5
194F
330
105C
100
AcDbEntity
  8
0
100
AcDbLine
 10
-11.50003051757812
 20
96.29833984375
 30
0.0
 11
-11.50003051757812
 21
97.59832763671875
 31
0.0
  0
LINE
  5
1950
330
105C
100
AcDbEntity
  8
0
100
AcDbLine
 10
-13.79995727539062
 20
97.59832763671875
 30
0.0
 11
13.79995727539062
 21
97.59832763671875
 31
0.0
  0
LINE
  5
1951
330
105C
100
AcDbEntity
  8
0
100
AcDbLine
 10
-13.79995727539062
 20
97.59832763671875
 30
0.0
 11
-13.79995727539062
 21
99.09832763671875
 31
0.0
  0
LINE
  5
1952
330
105C
100
AcDbEntity
  8
0
100
AcDbLine
 10
-9.233154296875
 20
61.29833984375
 30
0.0
 11
-9.233154296875
 21
60.29833984375
 31
0.0
  0
LINE
  5
1953
330
105C
100
AcDbEntity
  8
0
100
AcDbLine
 10
-16.0
 20
72.59832763671875
 30
0.0
 11
-18.0
 21
72.59832763671875
 31
0.0
  0
LINE
  5
1954
330
105C
100
AcDbEntity
  8
0
100
AcDbLine
 10
-11.00002252182003
 20
60.29833984375
 30
0.0
 11
-16.0
 21
63.1850782385311
 31
0.0
  0
LINE
  5
1955
330
105C
100
AcDbEntity
  8
0
100
AcDbLine
 10
-18.0
 20
72.59832763671875
 30
0.0
 11
-18.0
 21
62.03037771051427
 31
0.0
  0
LINE
  5
1956
330
105C
100
AcDbEntity
  8
0
100
AcDbLine
 10
-11.53592091501213
 20
58.29833984375
 30
0.0
 11
11.53592091501213
 21
58.29833984375
 31
0.0
  0
LINE
  5
1957
330
105C
100
AcDbEntity
  8
0
100
AcDbLine
 10
-11.53592091501213
 20
58.29833984375
 30
0.0
 11
-18.0
 21
62.03037771051427
 31
0.0
  0
LINE
  5
1958
330
105C
100
AcDbEntity
  8
0
100
AcDbLine
 10
-11.00002252182003
 20
60.29833984375
 30
0.0
 11
11.00002252182003
 21
60.29833984375
 31
0.0
  0
LINE
  5
1959
330
105C
100
AcDbEntity
  8
0
100
AcDbLine
 10
-16.0
 20
72.59832763671875
 30
0.0
 11
-16.0
 21
63.1850782385311
 31
0.0
  0
LINE
  5
195A
330
105C
100
AcDbEntity
  8
0
100
AcDbLine
 10
-17.30007934570312
 20
87.59837341308594
 30
0.0
 11
-17.30007934570312
 21
96.09835815429688
 31
0.0
  0
LINE
  5
195B
330
105C
100
AcDbEntity
  8
0
100
AcDbLine
 10
-18.16608777943389
 20
87.09838790271891
 30
0.0
 11
-17.30011523753097
 21
87.59835739187099
 31
0.0
  0
LINE
  5
195C
330
105C
100
AcDbEntity
  8
0
100
AcDbLine
 10
-18.16610717773437
 20
87.098388671875
 30
0.0
 11
-29.43405151367187
 21
87.098388671875
 31
0.0
  0
LINE
  5
195D
330
105C
100
AcDbEntity
  8
0
100
AcDbLine
 10
-29.43405223964288
 20
87.09840619176009
 30
0.0
 11
-30.30007763954143
 21
87.5984061984907
 31
0.0
  0
LINE
  5
195E
330
105C
100
AcDbEntity
  8
0
100
AcDbLine
 10
-30.30014038085937
 20
87.59837341308594
 30
0.0
 11
-30.30014038085937
 21
96.09835815429688
 31
0.0
  0
ARC
  5
195F
330
105C
100
AcDbEntity
  8
0
100
AcDbCircle
 10
-47.710205078125
 20
44.70001220703125
 30
0.0
 40
0.8000000119209291
100
AcDbArc
 50
20.00000465451203
 51
90.00000432571395
  0
ARC
  5
1960
330
105C
100
AcDbEntity
  8
0
100
AcDbCircle
 10
-43.07446289062499
 20
40.1500244140625
 30
0.0
 40
2.0
100
AcDbArc
 50
200.0000045408282
 51
269.999995674286
  0
ARC
  5
1961
330
105C
100
AcDbEntity
  8
0
100
AcDbCircle
 10
-43.07446289062499
 20
-40.1500244140625
 30
0.0
 40
2.0
100
AcDbArc
 50
90.00000432571395
 51
159.9999954591718
  0
ARC
  5
1962
330
105C
100
AcDbEntity
  8
0
100
AcDbCircle
 10
-47.710205078125
 20
-44.70001220703125
 30
0.0
 40
0.8000000119209291
100
AcDbArc
 50
269.999995674286
 51
339.999995345488
  0
ARC
  5
1963
330
105C
100
AcDbEntity
  8
0
100
AcDbCircle
 10
-6.27838134765625
 20
-56.10000610351562
 30
0.0
 40
0.4000000059604645
100
AcDbArc
 50
241.0449728013391
 51
270.0000025044752
  0
ARC
  5
1964
330
105C
100
AcDbEntity
  8
0
100
AcDbCircle
 10
-6.66571044921875
 20
-56.80001831054688
 30
0.0
 40
0.4000000059604645
100
AcDbArc
 50
61.0449746225758
 51
89.99999749552477
  0
ARC
  5
1965
330
105C
100
AcDbEntity
  8
0
100
AcDbCircle
 10
-34.0
 20
95.09832763671875
 30
0.0
 40
4.0
100
AcDbArc
 50
89.99999749552477
 51
180.0
  0
ARC
  5
1966
330
105C
100
AcDbEntity
  8
0
100
AcDbCircle
 10
-34.0
 20
69.76416015625
 30
0.0
 40
1.0
100
AcDbArc
 50
180.0
 51
240.0000016696514
  0
ARC
  5
1967
330
105C
100
AcDbEntity
  8
0
100
AcDbCircle
 10
-34.0
 20
69.76416015625
 30
0.0
 40
4.0
100
AcDbArc
 50
180.0
 51
240.0000016696514
  0
ARC
  5
1968
330
105C
100
AcDbEntity
  8
0
100
AcDbCircle
 10
-16.0
 20
53.59832763671875
 30
0.0
 40
1.0
100
AcDbArc
 50
359.9999949910439
 51
59.99999666069682
  0
ARC
  5
1969
330
105C
100
AcDbEntity
  8
0
100
AcDbCircle
 10
-16.0
 20
53.59832763671875
 30
0.0
 40
4.0
100
AcDbArc
 50
359.9999949910439
 51
59.99999666069682
  0
ARC
  5
196A
330
105C
100
AcDbEntity
  8
0
100
AcDbCircle
 10
-34.0
 20
95.09832763671875
 30
0.0
 40
1.0
100
AcDbArc
 50
89.99999749552477
 51
180.0
  0
LINE
  5
196B
330
105C
100
AcDbEntity
  8
0
100
AcDbLine
 10
-13.23278658806418
 20
-5.000000000000014
 30
0.0
 11
-13.23275902212162
 21
-41.37078857421873
 31
0.0
  0
LINE
  5
196C
330
105C
100
AcDbEntity
  8
0
100
AcDbLine
 10
-26.99994731040397
 20
38.1500244140625
 30
0.0
 11
-26.99995821155738
 21
-38.1500244140625
 31
0.0
  0
LINE
  5
196D
330
105C
100
AcDbEntity
  8
0
100
AcDbLine
 10
-44.22161576025155
 20
38.51172032333102
 30
0.0
 11
-44.22161576025155
 21
-38.51172032333103
 31
0.0
  0
LINE
  5
196E
330
105C
100
AcDbEntity
  8
0
100
AcDbLine
 10
-47.25134397356237
 20
-45.35533388818716
 30
0.0
 11
-47.25134397356237
 21
45.35533388818717
 31
0.0
  0
CIRCLE
  5
196F
330
105C
100
AcDbEntity
  8
0
100
AcDbCircle
 10
-198.0
 20
0.0
 30
0.0
 40
45.49999999999999
  0
CIRCLE
  5
1970
330
105C
100
AcDbEntity
  8
0
100
AcDbCircle
 10
-178.0
 20
46.37078857421875
 30
0.0
 40
4.5
  0
ARC
  5
1971
330
105C
100
AcDbEntity
  8
0
100
AcDbCircle
 10
-197.9982604980468
 20
-12.5
 30
0.0
 40
57.0
100
AcDbArc
 50
110.4801572073036
 51
112.6624950385005
  0
LINE
  5
1972
330
105C
100
AcDbEntity
  8
0
100
AcDbLine
 10
-218.0000054795314
 20
43.48404218671612
 30
0.0
 11
-215.5000337196681
 21
44.92740158114543
 31
0.0
  0
LINE
  5
1973
330
105C
100
AcDbEntity
  8
0
100
AcDbLine
 10
-217.9999922911195
 20
49.25755413329865
 30
0.0
 11
-215.4999676732606
 21
47.81416422129081
 31
0.0
  0
LINE
  5
1974
330
105C
100
AcDbEntity
  8
0
100
AcDbLine
 10
-215.5
 20
44.92742919921875
 30
0.0
 11
-215.5
 21
47.81414794921874
 31
0.0
  0
LINE
  5
1975
330
105C
100
AcDbEntity
  8
0
100
AcDbLine
 10
-220.5
 20
44.92742919921875
 30
0.0
 11
-220.5
 21
47.81414794921874
 31
0.0
  0
LINE
  5
1976
330
105C
100
AcDbEntity
  8
0
100
AcDbLine
 10
-218.0000337533209
 20
49.25752858063811
 30
0.0
 11
-220.5000055131844
 21
47.81416918620879
 31
0.0
  0
LINE
  5
1977
330
105C
100
AcDbEntity
  8
0
100
AcDbLine
 10
-217.9999677069135
 20
43.48403722179813
 30
0.0
 11
-220.4999923247724
 21
44.92742713380599
 31
0.0
  0
LINE
  5
1978
330
105C
100
AcDbEntity
  8
0
100
AcDbLine
 10
-248.5000623688386
 20
-2.88679558822254
 30
0.0
 11
-245.999984892984
 21
-1.443375158636158
 31
0.0
  0
LINE
  5
1979
330
105C
100
AcDbEntity
  8
0
100
AcDbLine
 10
-248.4999955633559
 20
2.886786805388567
 30
0.0
 11
-245.9999709454969
 21
1.443396893380707
 31
0.0
  0
LINE
  5
197A
330
105C
100
AcDbEntity
  8
0
100
AcDbLine
 10
-246.0
 20
-1.443359375
 30
0.0
 11
-246.0
 21
1.443359375
 31
0.0
  0
LINE
  5
197B
330
105C
100
AcDbEntity
  8
0
100
AcDbLine
 10
-251.0
 20
-1.443359375
 30
0.0
 11
-251.0
 21
1.443359375
 31
0.0
  0
LINE
  5
197C
330
105C
100
AcDbEntity
  8
0
100
AcDbLine
 10
-248.4999849266369
 20
2.886751840856504
 30
0.0
 11
-251.0000624024915
 21
1.443331411270122
 31
0.0
  0
LINE
  5
197D
330
105C
100
AcDbEntity
  8
0
100
AcDbLine
 10
-248.4999709791497
 20
-2.886730106111969
 30
0.0
 11
-250.9999955970088
 21
-1.443340194104109
 31
0.0
  0
LINE
  5
197E
330
105C
100
AcDbEntity
  8
0
100
AcDbLine
 10
-218.0000590966022
 20
-49.25756291613264
 30
0.0
 11
-215.5000873367389
 21
-47.81420352170335
 31
0.0
  0
LINE
  5
197F
330
105C
100
AcDbEntity
  8
0
100
AcDbLine
 10
-218.0000067908336
 20
-43.4840468809694
 30
0.0
 11
-215.4999821729746
 21
-44.92743679297722
 31
0.0
  0
LINE
  5
1980
330
105C
100
AcDbEntity
  8
0
100
AcDbLine
 10
-215.5
 20
-47.81414794921874
 30
0.0
 11
-215.5
 21
-44.92742919921875
 31
0.0
  0
LINE
  5
1981
330
105C
100
AcDbEntity
  8
0
100
AcDbLine
 10
-220.5
 20
-47.81414794921874
 30
0.0
 11
-220.5
 21
-44.92742919921875
 31
0.0
  0
LINE
  5
1982
330
105C
100
AcDbEntity
  8
0
100
AcDbLine
 10
-218.0000873703918
 20
-43.48407652221067
 30
0.0
 11
-220.5000591302551
 21
-44.92743591663996
 31
0.0
  0
LINE
  5
1983
330
105C
100
AcDbEntity
  8
0
100
AcDbLine
 10
-218.0000127242061
 20
-49.25761665046548
 30
0.0
 11
-220.5000373420651
 21
-47.81422673845765
 31
0.0
  0
LINE
  5
1984
330
105C
100
AcDbEntity
  8
0
100
AcDbLine
 10
-224.3301282200007
 20
40.96321932220179
 30
0.0
 11
-227.8301427850572
 21
44.46323388725829
 31
0.0
  0
LINE
  5
1985
330
105C
100
AcDbEntity
  8
0
100
AcDbLine
 10
-229.0017395019531
 20
99.09997558593751
 30
0.0
 11
-229.0017395019531
 21
47.2916259765625
 31
0.0
  0
LINE
  5
1986
330
105C
100
AcDbEntity
  8
0
100
AcDbLine
 10
-166.9982604980468
 20
67.4564208984375
 30
0.0
 11
-229.0017395019531
 21
67.4564208984375
 31
0.0
  0
CIRCLE
  5
1987
330
105C
100
AcDbEntity
  8
0
100
AcDbCircle
 10
-248.5
 20
0.0
 30
0.0
 40
5.0
  0
CIRCLE
  5
1988
330
105C
100
AcDbEntity
  8
0
100
AcDbCircle
 10
-218.0
 20
-46.37078857421875
 30
0.0
 40
5.0
  0
CIRCLE
  5
1989
330
105C
100
AcDbEntity
  8
0
100
AcDbCircle
 10
-218.0
 20
-46.37078857421875
 30
0.0
 40
4.5
  0
CIRCLE
  5
198A
330
105C
100
AcDbEntity
  8
0
100
AcDbCircle
 10
-218.0
 20
-46.37078857421875
 30
0.0
 40
2.5
  0
ARC
  5
198B
330
105C
100
AcDbEntity
  8
0
100
AcDbCircle
 10
-198.0
 20
0.0
 30
0.0
 40
56.5
100
AcDbArc
 50
123.2776148677432
 51
56.72240304740253
  0
CIRCLE
  5
198C
330
105C
100
AcDbEntity
  8
0
100
AcDbCircle
 10
-248.5
 20
0.0
 30
0.0
 40
4.5
  0
CIRCLE
  5
198D
330
105C
100
AcDbEntity
  8
0
100
AcDbCircle
 10
-248.5
 20
0.0
 30
0.0
 40
2.5
  0
ARC
  5
198E
330
105C
100
AcDbEntity
  8
0
100
AcDbCircle
 10
-198.0017395019531
 20
-12.5
 30
0.0
 40
57.0
100
AcDbArc
 50
110.4642106281499
 51
112.659006633065
  0
ARC
  5
198F
330
105C
100
AcDbEntity
  8
0
100
AcDbCircle
 10
-221.5017395019531
 20
43.79162597656249
 30
0.0
 40
4.0
100
AcDbArc
 50
225.0000012522427
 51
292.6590048118328
  0
ARC
  5
1990
330
105C
100
AcDbEntity
  8
0
100
AcDbCircle
 10
-225.0017395019531
 20
47.2916259765625
 30
0.0
 40
4.0
100
AcDbArc
 50
180.0
 51
225.0000012522427
  0
CIRCLE
  5
1991
330
105C
100
AcDbEntity
  8
0
100
AcDbCircle
 10
-218.0
 20
46.37078857421875
 30
0.0
 40
5.0
  0
CIRCLE
  5
1992
330
105C
100
AcDbEntity
  8
0
100
AcDbCircle
 10
-218.0
 20
46.37078857421875
 30
0.0
 40
4.5
  0
LINE
  5
1993
330
105C
100
AcDbEntity
  8
0
100
AcDbLine
 10
-56.99996948242187
 20
177.0983276367186
 30
0.0
 11
-56.99996948242187
 21
99.09832763671875
 31
0.0
  0
LINE
  5
1994
330
105C
100
AcDbEntity
  8
0
100
AcDbLine
 10
-68.49996948242187
 20
130.5928039550781
 30
0.0
 11
-68.49996948242187
 21
145.6039123535156
 31
0.0
  0
LINE
  5
1995
330
105C
100
AcDbEntity
  8
0
100
AcDbLine
 10
-73.27505493164062
 20
141.8511352539062
 30
0.0
 11
-68.49996948242187
 21
141.8511352539062
 31
0.0
  0
LINE
  5
1996
330
105C
100
AcDbEntity
  8
0
100
AcDbLine
 10
-73.27505493164062
 20
134.3455810546875
 30
0.0
 11
-68.49996948242187
 21
134.3455810546875
 31
0.0
  0
LINE
  5
1997
330
105C
100
AcDbEntity
  8
0
100
AcDbLine
 10
-73.27505493164062
 20
145.6039123535156
 30
0.0
 11
-68.49996948242187
 21
145.6039123535156
 31
0.0
  0
LINE
  5
1998
330
105C
100
AcDbEntity
  8
0
100
AcDbLine
 10
-58.59994506835938
 20
146.5983581542968
 30
0.0
 11
-58.59994506835938
 21
129.5983581542968
 31
0.0
  0
LINE
  5
1999
330
105C
100
AcDbEntity
  8
0
100
AcDbLine
 10
-58.59994506835938
 20
146.5983581542968
 30
0.0
 11
-56.99996948242187
 21
146.5983581542968
 31
0.0
  0
LINE
  5
199A
330
105C
100
AcDbEntity
  8
0
100
AcDbLine
 10
-73.27505493164062
 20
130.5928039550781
 30
0.0
 11
-68.49996948242187
 21
130.5928039550781
 31
0.0
  0
LINE
  5
199B
330
105C
100
AcDbEntity
  8
0
100
AcDbLine
 10
-58.59994506835938
 20
129.5983581542968
 30
0.0
 11
-56.99996948242187
 21
129.5983581542968
 31
0.0
  0
LINE
  5
199C
330
105C
100
AcDbEntity
  8
0
100
AcDbLine
 10
-63.59994506835938
 20
132.4691772460937
 30
0.0
 11
-63.59994506835938
 21
143.7275085449218
 31
0.0
  0
LINE
  5
199D
330
105C
100
AcDbEntity
  8
0
100
AcDbLine
 10
-62.87509155273437
 20
130.5928039550781
 30
0.0
 11
-59.32485961914062
 21
130.5928039550781
 31
0.0
  0
LINE
  5
199E
330
105C
100
AcDbEntity
  8
0
100
AcDbLine
 10
-62.87509155273437
 20
145.6039123535156
 30
0.0
 11
-59.32485961914062
 21
145.6039123535156
 31
0.0
  0
LINE
  5
199F
330
105C
100
AcDbEntity
  8
0
100
AcDbLine
 10
-62.87509155273437
 20
134.3455810546875
 30
0.0
 11
-59.32485961914062
 21
134.3455810546875
 31
0.0
  0
LINE
  5
19A0
330
105C
100
AcDbEntity
  8
0
100
AcDbLine
 10
-62.87509155273437
 20
141.8511352539062
 30
0.0
 11
-59.32485961914062
 21
141.8511352539062
 31
0.0
  0
LINE
  5
19A1
330
105C
100
AcDbEntity
  8
0
100
AcDbLine
 10
-68.49996948242187
 20
142.0983581542968
 30
0.0
 11
-63.59994506835938
 21
142.0983581542968
 31
0.0
  0
LINE
  5
19A2
330
105C
100
AcDbEntity
  8
0
100
AcDbLine
 10
-68.49996948242187
 20
134.0983581542968
 30
0.0
 11
-63.59994506835938
 21
134.0983581542968
 31
0.0
  0
LINE
  5
19A3
330
105C
100
AcDbEntity
  8
0
100
AcDbLine
 10
-63.59994506835938
 20
141.29833984375
 30
0.0
 11
-68.49996948242187
 21
141.29833984375
 31
0.0
  0
LINE
  5
19A4
330
105C
100
AcDbEntity
  8
0
100
AcDbLine
 10
-63.59994506835938
 20
134.8983459472656
 30
0.0
 11
-68.49996948242187
 21
134.8983459472656
 31
0.0
  0
LINE
  5
19A5
330
105C
100
AcDbEntity
  8
0
100
AcDbLine
 10
-73.99996948242187
 20
132.4691772460937
 30
0.0
 11
-73.99996948242187
 21
143.7275085449218
 31
0.0
  0
LINE
  5
19A6
330
105C
100
AcDbEntity
  8
0
100
AcDbLine
 10
86.50007629394531
 20
145.6039123535156
 30
0.0
 11
86.50007629394531
 21
130.5928039550781
 31
0.0
  0
LINE
  5
19A7
330
105C
100
AcDbEntity
  8
0
100
AcDbLine
 10
91.27519226074213
 20
134.3455810546875
 30
0.0
 11
86.50007629394531
 21
134.3455810546875
 31
0.0
  0
LINE
  5
19A8
330
105C
100
AcDbEntity
  8
0
100
AcDbLine
 10
91.27519226074213
 20
141.8511352539062
 30
0.0
 11
86.50007629394531
 21
141.8511352539062
 31
0.0
  0
LINE
  5
19A9
330
105C
100
AcDbEntity
  8
0
100
AcDbLine
 10
91.27519226074213
 20
130.5928039550781
 30
0.0
 11
86.50007629394531
 21
130.5928039550781
 31
0.0
  0
LINE
  5
19AA
330
105C
100
AcDbEntity
  8
0
100
AcDbLine
 10
76.60008239746094
 20
129.5983581542968
 30
0.0
 11
76.60008239746094
 21
146.5983581542968
 31
0.0
  0
LINE
  5
19AB
330
105C
100
AcDbEntity
  8
0
100
AcDbLine
 10
76.60008239746094
 20
129.5983581542968
 30
0.0
 11
75.00007629394531
 21
129.5983581542968
 31
0.0
  0
LINE
  5
19AC
330
105C
100
AcDbEntity
  8
0
100
AcDbLine
 10
76.60008239746094
 20
146.5983581542968
 30
0.0
 11
75.00007629394531
 21
146.5983581542968
 31
0.0
  0
LINE
  5
19AD
330
105C
100
AcDbEntity
  8
0
100
AcDbLine
 10
81.60008239746094
 20
143.7275085449218
 30
0.0
 11
81.60008239746094
 21
132.4691772460937
 31
0.0
  0
LINE
  5
19AE
330
105C
100
AcDbEntity
  8
0
100
AcDbLine
 10
91.27519226074213
 20
145.6039123535156
 30
0.0
 11
86.50007629394531
 21
145.6039123535156
 31
0.0
  0
LINE
  5
19AF
330
105C
100
AcDbEntity
  8
0
100
AcDbLine
 10
80.87519836425782
 20
145.6039123535156
 30
0.0
 11
77.32496643066406
 21
145.6039123535156
 31
0.0
  0
LINE
  5
19B0
330
105C
100
AcDbEntity
  8
0
100
AcDbLine
 10
80.87519836425782
 20
130.5928039550781
 30
0.0
 11
77.32496643066406
 21
130.5928039550781
 31
0.0
  0
LINE
  5
19B1
330
105C
100
AcDbEntity
  8
0
100
AcDbLine
 10
80.87519836425782
 20
141.8511352539062
 30
0.0
 11
77.32496643066406
 21
141.8511352539062
 31
0.0
  0
LINE
  5
19B2
330
105C
100
AcDbEntity
  8
0
100
AcDbLine
 10
80.87519836425782
 20
134.3455810546875
 30
0.0
 11
77.32496643066406
 21
134.3455810546875
 31
0.0
  0
LINE
  5
19B3
330
105C
100
AcDbEntity
  8
0
100
AcDbLine
 10
86.50007629394531
 20
134.0983581542968
 30
0.0
 11
81.60008239746094
 21
134.0983581542968
 31
0.0
  0
LINE
  5
19B4
330
105C
100
AcDbEntity
  8
0
100
AcDbLine
 10
86.50007629394531
 20
142.0983581542968
 30
0.0
 11
81.60008239746094
 21
142.0983581542968
 31
0.0
  0
LINE
  5
19B5
330
105C
100
AcDbEntity
  8
0
100
AcDbLine
 10
81.60008239746094
 20
134.8983459472656
 30
0.0
 11
86.50007629394531
 21
134.8983459472656
 31
0.0
  0
LINE
  5
19B6
330
105C
100
AcDbEntity
  8
0
100
AcDbLine
 10
81.60008239746094
 20
141.29833984375
 30
0.0
 11
86.50007629394531
 21
141.29833984375
 31
0.0
  0
LINE
  5
19B7
330
105C
100
AcDbEntity
  8
0
100
AcDbLine
 10
92.00007629394532
 20
143.7275085449218
 30
0.0
 11
92.00007629394532
 21
132.4691772460937
 31
0.0
  0
LINE
  5
19B8
330
105C
100
AcDbEntity
  8
0
100
AcDbLine
 10
81.59574890136719
 20
172.485107421875
 30
0.0
 11
78.10008239746093
 21
172.485107421875
 31
0.0
  0
LINE
  5
19B9
330
105C
100
AcDbEntity
  8
0
100
AcDbLine
 10
81.59574890136719
 20
166.7116088867187
 30
0.0
 11
78.10008239746093
 21
166.7116088867187
 31
0.0
  0
LINE
  5
19BA
330
105C
100
AcDbEntity
  8
0
100
AcDbLine
 10
81.59574890136719
 20
163.8248291015625
 30
0.0
 11
78.10008239746093
 21
163.8248291015625
 31
0.0
  0
LINE
  5
19BB
330
105C
100
AcDbEntity
  8
0
100
AcDbLine
 10
82.10008239746093
 20
165.2682189941406
 30
0.0
 11
82.10008239746093
 21
173.928466796875
 31
0.0
  0
LINE
  5
19BC
330
105C
100
AcDbEntity
  8
0
100
AcDbLine
 10
81.59574890136719
 20
175.3718566894531
 30
0.0
 11
78.10008239746093
 21
175.3718566894531
 31
0.0
  0
LINE
  5
19BD
330
105C
100
AcDbEntity
  8
0
100
AcDbLine
 10
81.59574890136719
 20
109.485107421875
 30
0.0
 11
78.10008239746093
 21
109.485107421875
 31
0.0
  0
LINE
  5
19BE
330
105C
100
AcDbEntity
  8
0
100
AcDbLine
 10
81.59574890136719
 20
103.7116088867187
 30
0.0
 11
78.10008239746093
 21
103.7116088867187
 31
0.0
  0
LINE
  5
19BF
330
105C
100
AcDbEntity
  8
0
100
AcDbLine
 10
81.59574890136719
 20
100.8248291015625
 30
0.0
 11
78.10008239746093
 21
100.8248291015625
 31
0.0
  0
LINE
  5
19C0
330
105C
100
AcDbEntity
  8
0
100
AcDbLine
 10
82.10008239746093
 20
102.2682189941406
 30
0.0
 11
82.10008239746093
 21
110.928466796875
 31
0.0
  0
LINE
  5
19C1
330
105C
100
AcDbEntity
  8
0
100
AcDbLine
 10
81.59574890136719
 20
112.371856689453
 30
0.0
 11
78.10008239746093
 21
112.371856689453
 31
0.0
  0
LINE
  5
19C2
330
105C
100
AcDbEntity
  8
0
100
AcDbLine
 10
-63.59567260742188
 20
103.7116088867187
 30
0.0
 11
-60.09994506835937
 21
103.7116088867187
 31
0.0
  0
LINE
  5
19C3
330
105C
100
AcDbEntity
  8
0
100
AcDbLine
 10
-63.59567260742188
 20
109.485107421875
 30
0.0
 11
-60.09994506835937
 21
109.485107421875
 31
0.0
  0
LINE
  5
19C4
330
105C
100
AcDbEntity
  8
0
100
AcDbLine
 10
-63.59567260742188
 20
112.371856689453
 30
0.0
 11
-60.09994506835937
 21
112.371856689453
 31
0.0
  0
LINE
  5
19C5
330
105C
100
AcDbEntity
  8
0
100
AcDbLine
 10
-64.09994506835937
 20
110.928466796875
 30
0.0
 11
-64.09994506835937
 21
102.2682189941406
 31
0.0
  0
LINE
  5
19C6
330
105C
100
AcDbEntity
  8
0
100
AcDbLine
 10
-63.59567260742188
 20
100.8248291015625
 30
0.0
 11
-60.09994506835937
 21
100.8248291015625
 31
0.0
  0
LINE
  5
19C7
330
105C
100
AcDbEntity
  8
0
100
AcDbLine
 10
-63.59567260742188
 20
166.7116088867187
 30
0.0
 11
-60.09994506835937
 21
166.7116088867187
 31
0.0
  0
LINE
  5
19C8
330
105C
100
AcDbEntity
  8
0
100
AcDbLine
 10
-63.59567260742188
 20
172.485107421875
 30
0.0
 11
-60.09994506835937
 21
172.485107421875
 31
0.0
  0
LINE
  5
19C9
330
105C
100
AcDbEntity
  8
0
100
AcDbLine
 10
-63.59567260742188
 20
175.3718566894531
 30
0.0
 11
-60.09994506835937
 21
175.3718566894531
 31
0.0
  0
LINE
  5
19CA
330
105C
100
AcDbEntity
  8
0
100
AcDbLine
 10
-64.09994506835937
 20
173.928466796875
 30
0.0
 11
-64.09994506835937
 21
165.2682189941406
 31
0.0
  0
LINE
  5
19CB
330
105C
100
AcDbEntity
  8
0
100
AcDbLine
 10
-63.59567260742188
 20
163.8248291015625
 30
0.0
 11
-60.09994506835937
 21
163.8248291015625
 31
0.0
  0
LINE
  5
19CC
330
105C
100
AcDbEntity
  8
0
100
AcDbLine
 10
78.10008239746093
 20
175.6983337402344
 30
0.0
 11
76.60008239746094
 21
175.6983337402344
 31
0.0
  0
LINE
  5
19CD
330
105C
100
AcDbEntity
  8
0
100
AcDbLine
 10
78.10008239746093
 20
163.4983520507812
 30
0.0
 11
76.60008239746094
 21
163.4983520507812
 31
0.0
  0
LINE
  5
19CE
330
105C
100
AcDbEntity
  8
0
100
AcDbLine
 10
78.10008239746093
 20
175.6983337402344
 30
0.0
 11
78.10008239746093
 21
163.4983520507812
 31
0.0
  0
LINE
  5
19CF
330
105C
100
AcDbEntity
  8
0
100
AcDbLine
 10
76.60008239746094
 20
163.3483581542968
 30
0.0
 11
75.00007629394531
 21
163.3483581542968
 31
0.0
  0
LINE
  5
19D0
330
105C
100
AcDbEntity
  8
0
100
AcDbLine
 10
76.60008239746094
 20
175.8483581542968
 30
0.0
 11
76.60008239746094
 21
163.3483581542968
 31
0.0
  0
LINE
  5
19D1
330
105C
100
AcDbEntity
  8
0
100
AcDbLine
 10
76.60008239746094
 20
175.8483581542968
 30
0.0
 11
75.00007629394531
 21
175.8483581542968
 31
0.0
  0
LINE
  5
19D2
330
105C
100
AcDbEntity
  8
0
100
AcDbLine
 10
78.10008239746093
 20
112.6983337402343
 30
0.0
 11
76.60008239746094
 21
112.6983337402343
 31
0.0
  0
LINE
  5
19D3
330
105C
100
AcDbEntity
  8
0
100
AcDbLine
 10
78.10008239746093
 20
100.4983520507812
 30
0.0
 11
76.60008239746094
 21
100.4983520507812
 31
0.0
  0
LINE
  5
19D4
330
105C
100
AcDbEntity
  8
0
100
AcDbLine
 10
78.10008239746093
 20
112.6983337402343
 30
0.0
 11
78.10008239746093
 21
100.4983520507812
 31
0.0
  0
LINE
  5
19D5
330
105C
100
AcDbEntity
  8
0
100
AcDbLine
 10
76.60008239746094
 20
100.3483581542969
 30
0.0
 11
75.00007629394531
 21
100.3483581542969
 31
0.0
  0
LINE
  5
19D6
330
105C
100
AcDbEntity
  8
0
100
AcDbLine
 10
76.60008239746094
 20
112.8483581542969
 30
0.0
 11
76.60008239746094
 21
100.3483581542969
 31
0.0
  0
LINE
  5
19D7
330
105C
100
AcDbEntity
  8
0
100
AcDbLine
 10
76.60008239746094
 20
112.8483581542969
 30
0.0
 11
75.00007629394531
 21
112.8483581542969
 31
0.0
  0
LINE
  5
19D8
330
105C
100
AcDbEntity
  8
0
100
AcDbLine
 10
-60.09994506835937
 20
100.4983520507812
 30
0.0
 11
-58.59994506835938
 21
100.4983520507812
 31
0.0
  0
LINE
  5
19D9
330
105C
100
AcDbEntity
  8
0
100
AcDbLine
 10
-60.09994506835937
 20
112.6983337402343
 30
0.0
 11
-58.59994506835938
 21
112.6983337402343
 31
0.0
  0
LINE
  5
19DA
330
105C
100
AcDbEntity
  8
0
100
AcDbLine
 10
-60.09994506835937
 20
100.4983520507812
 30
0.0
 11
-60.09994506835937
 21
112.6983337402343
 31
0.0
  0
LINE
  5
19DB
330
105C
100
AcDbEntity
  8
0
100
AcDbLine
 10
-58.59994506835938
 20
112.8483581542969
 30
0.0
 11
-56.99996948242187
 21
112.8483581542969
 31
0.0
  0
LINE
  5
19DC
330
105C
100
AcDbEntity
  8
0
100
AcDbLine
 10
-58.59994506835938
 20
100.3483581542969
 30
0.0
 11
-58.59994506835938
 21
112.8483581542969
 31
0.0
  0
LINE
  5
19DD
330
105C
100
AcDbEntity
  8
0
100
AcDbLine
 10
-58.59994506835938
 20
100.3483581542969
 30
0.0
 11
-56.99996948242187
 21
100.3483581542969
 31
0.0
  0
LINE
  5
19DE
330
105C
100
AcDbEntity
  8
0
100
AcDbLine
 10
-60.09994506835937
 20
163.4983520507812
 30
0.0
 11
-58.59994506835938
 21
163.4983520507812
 31
0.0
  0
LINE
  5
19DF
330
105C
100
AcDbEntity
  8
0
100
AcDbLine
 10
-60.09994506835937
 20
175.6983337402344
 30
0.0
 11
-58.59994506835938
 21
175.6983337402344
 31
0.0
  0
LINE
  5
19E0
330
105C
100
AcDbEntity
  8
0
100
AcDbLine
 10
-60.09994506835937
 20
163.4983520507812
 30
0.0
 11
-60.09994506835937
 21
175.6983337402344
 31
0.0
  0
LINE
  5
19E1
330
105C
100
AcDbEntity
  8
0
100
AcDbLine
 10
-58.59994506835938
 20
175.8483581542968
 30
0.0
 11
-56.99996948242187
 21
175.8483581542968
 31
0.0
  0
LINE
  5
19E2
330
105C
100
AcDbEntity
  8
0
100
AcDbLine
 10
-58.59994506835938
 20
163.3483581542968
 30
0.0
 11
-58.59994506835938
 21
175.8483581542968
 31
0.0
  0
LINE
  5
19E3
330
105C
100
AcDbEntity
  8
0
100
AcDbLine
 10
-58.59994506835938
 20
163.3483581542968
 30
0.0
 11
-56.99996948242187
 21
163.3483581542968
 31
0.0
  0
LINE
  5
19E4
330
105C
100
AcDbEntity
  8
0
100
AcDbLine
 10
-56.99996948242187
 20
99.09832763671875
 30
0.0
 11
75.00007629394531
 21
99.09832763671875
 31
0.0
  0
LINE
  5
19E5
330
105C
100
AcDbEntity
  8
0
100
AcDbLine
 10
-56.99996948242187
 20
177.0983276367186
 30
0.0
 11
75.00007629394531
 21
177.0983276367186
 31
0.0
  0
LINE
  5
19E6
330
105C
100
AcDbEntity
  8
0
100
AcDbLine
 10
-52.49996948242188
 20
177.0983276367186
 30
0.0
 11
-52.49996948242188
 21
99.09832763671875
 31
0.0
  0
LINE
  5
19E7
330
105C
100
AcDbEntity
  8
0
100
AcDbLine
 10
70.50007629394531
 20
177.0983276367186
 30
0.0
 11
70.50007629394531
 21
99.09832763671875
 31
0.0
  0
LINE
  5
19E8
330
105C
100
AcDbEntity
  8
0
100
AcDbLine
 10
-56.99996948242187
 20
121.4742736816405
 30
0.0
 11
75.00007629394531
 21
121.4742736816405
 31
0.0
  0
LINE
  5
19E9
330
105C
100
AcDbEntity
  8
0
100
AcDbLine
 10
-56.99996948242187
 20
154.7224426269531
 30
0.0
 11
75.00007629394531
 21
154.7224426269531
 31
0.0
  0
LINE
  5
19EA
330
105C
100
AcDbEntity
  8
0
100
AcDbLine
 10
-13.80001831054687
 20
178.5983276367186
 30
0.0
 11
-13.80001831054687
 21
177.0983276367186
 31
0.0
  0
LINE
  5
19EB
330
105C
100
AcDbEntity
  8
0
100
AcDbLine
 10
13.79995727539062
 20
178.5983276367186
 30
0.0
 11
-13.80001831054687
 21
178.5983276367186
 31
0.0
  0
LINE
  5
19EC
330
105C
100
AcDbEntity
  8
0
100
AcDbLine
 10
13.79995727539062
 20
178.5983276367186
 30
0.0
 11
13.79995727539062
 21
177.0983276367186
 31
0.0
  0
LINE
  5
19ED
330
105C
100
AcDbEntity
  8
0
100
AcDbLine
 10
-11.49996948242187
 20
178.5983276367186
 30
0.0
 11
-11.49996948242187
 21
179.3000610351563
 31
0.0
  0
LINE
  5
19EE
330
105C
100
AcDbEntity
  8
0
100
AcDbLine
 10
11.50003051757812
 20
178.5983276367186
 30
0.0
 11
11.50003051757812
 21
179.3000610351563
 31
0.0
  0
LINE
  5
19EF
330
105C
100
AcDbEntity
  8
0
100
AcDbLine
 10
75.00007629394531
 20
177.0983276367186
 30
0.0
 11
75.00007629394531
 21
99.09832763671875
 31
0.0
  0
LINE
  5
19F0
330
105C
100
AcDbEntity
  8
0
100
AcDbLine
 10
-211.7981872558594
 20
178.6000213623047
 30
0.0
 11
-211.7981872558594
 21
177.1000213623047
 31
0.0
  0
LINE
  5
19F1
330
105C
100
AcDbEntity
  8
0
100
AcDbLine
 10
-209.4982604980469
 20
179.3000610351562
 30
0.0
 11
-209.4982604980469
 21
178.6000213623047
 31
0.0
  0
LINE
  5
19F2
330
105C
100
AcDbEntity
  8
0
100
AcDbLine
 10
-211.7981872558594
 20
178.6000213623047
 30
0.0
 11
-184.1982116699217
 21
178.6000213623047
 31
0.0
  0
LINE
  5
19F3
330
105C
100
AcDbEntity
  8
0
100
AcDbLine
 10
-184.1982116699217
 20
178.6000213623047
 30
0.0
 11
-184.1982116699217
 21
177.1000213623047
 31
0.0
  0
LINE
  5
19F4
330
105C
100
AcDbEntity
  8
0
100
AcDbLine
 10
-186.4982604980468
 20
179.3000610351562
 30
0.0
 11
-186.4982604980468
 21
178.6000213623047
 31
0.0
  0
LINE
  5
19F5
330
105C
100
AcDbEntity
  8
0
100
AcDbLine
 10
-179.998215702328
 20
145.6055418325556
 30
0.0
 11
-173.4982151254894
 21
141.8527646824294
 31
0.0
  0
LINE
  5
19F6
330
105C
100
AcDbEntity
  8
0
100
AcDbLine
 10
-173.4982604980469
 20
141.8528137207031
 30
0.0
 11
-173.4982604980469
 21
134.3471984863281
 31
0.0
  0
LINE
  5
19F7
330
105C
100
AcDbEntity
  8
0
100
AcDbLine
 10
-179.9981880406465
 20
130.5944470146237
 30
0.0
 11
-173.498187463808
 21
134.3472241647498
 31
0.0
  0
LINE
  5
19F8
330
105C
100
AcDbEntity
  8
0
100
AcDbLine
 10
-186.4982157898256
 20
134.3472116338747
 30
0.0
 11
-179.9982152129871
 21
130.5944344837485
 31
0.0
  0
LINE
  5
19F9
330
105C
100
AcDbEntity
  8
0
100
AcDbLine
 10
-186.4982604980468
 20
141.8528137207031
 30
0.0
 11
-186.4982604980468
 21
134.3471984863281
 31
0.0
  0
LINE
  5
19FA
330
105C
100
AcDbEntity
  8
0
100
AcDbLine
 10
-179.9981875513056
 20
145.6055543634309
 30
0.0
 11
-186.4981881281441
 21
141.8527772133046
 31
0.0
  0
LINE
  5
19FB
330
105C
100
AcDbEntity
  8
0
100
AcDbLine
 10
-180.1983018187788
 20
99.09997455233327
 30
0.0
 11
-182.1983039761865
 21
101.0999767097408
 31
0.0
  0
LINE
  5
19FC
330
105C
100
AcDbEntity
  8
0
100
AcDbLine
 10
-213.798303536528
 20
101.1000198681137
 30
0.0
 11
-215.7983056939356
 21
99.1000177107062
 31
0.0
  0
LINE
  5
19FD
330
105C
100
AcDbEntity
  8
0
100
AcDbLine
 10
-182.1982727050781
 20
101.0999755859375
 30
0.0
 11
-213.7982482910156
 21
101.0999755859375
 31
0.0
  0
LINE
  5
19FE
330
105C
100
AcDbEntity
  8
0
100
AcDbLine
 10
-212.7982482910156
 20
177.1000213623047
 30
0.0
 11
-212.7982482910156
 21
175.1000213623047
 31
0.0
  0
LINE
  5
19FF
330
105C
100
AcDbEntity
  8
0
100
AcDbLine
 10
-212.7982482910156
 20
99.09997558593751
 30
0.0
 11
-212.7982482910156
 21
101.0999755859375
 31
0.0
  0
LINE
  5
1A00
330
105C
100
AcDbEntity
  8
0
100
AcDbLine
 10
-213.7982711677484
 20
175.0999594274823
 30
0.0
 11
-215.7982733251559
 21
177.0999615848899
 31
0.0
  0
LINE
  5
1A01
330
105C
100
AcDbEntity
  8
0
100
AcDbLine
 10
-215.7982482910156
 20
177.1000213623047
 30
0.0
 11
-228.7982482910156
 21
177.1000213623047
 31
0.0
  0
LINE
  5
1A02
330
105C
100
AcDbEntity
  8
0
100
AcDbLine
 10
-183.1982727050781
 20
99.09997558593751
 30
0.0
 11
-183.1982727050781
 21
101.0999755859375
 31
0.0
  0
LINE
  5
1A03
330
105C
100
AcDbEntity
  8
0
100
AcDbLine
 10
-180.1982694499993
 20
177.1000479016356
 30
0.0
 11
-182.1982716074069
 21
175.1000457442279
 31
0.0
  0
LINE
  5
1A04
330
105C
100
AcDbEntity
  8
0
100
AcDbLine
 10
-183.1982727050781
 20
177.1000213623047
 30
0.0
 11
-212.7982482910156
 21
177.1000213623047
 31
0.0
  0
LINE
  5
1A05
330
105C
100
AcDbEntity
  8
0
100
AcDbLine
 10
-182.1982727050781
 20
175.1000213623047
 30
0.0
 11
-213.7982482910156
 21
175.1000213623047
 31
0.0
  0
LINE
  5
1A06
330
105C
100
AcDbEntity
  8
0
100
AcDbLine
 10
-183.1982727050781
 20
177.1000213623047
 30
0.0
 11
-183.1982727050781
 21
175.1000213623047
 31
0.0
  0
LINE
  5
1A07
330
105C
100
AcDbEntity
  8
0
100
AcDbLine
 10
-228.7982482910156
 20
177.1000213623047
 30
0.0
 11
-228.7982482910156
 21
154.7240905761718
 31
0.0
  0
LINE
  5
1A08
330
105C
100
AcDbEntity
  8
0
100
AcDbLine
 10
-167.1982727050781
 20
177.1000213623047
 30
0.0
 11
-167.1982727050781
 21
154.7240905761718
 31
0.0
  0
LINE
  5
1A09
330
105C
100
AcDbEntity
  8
0
100
AcDbLine
 10
-228.7982482910156
 20
99.09997558593751
 30
0.0
 11
-228.7982482910156
 21
121.4759216308594
 31
0.0
  0
LINE
  5
1A0A
330
105C
100
AcDbEntity
  8
0
100
AcDbLine
 10
-167.1982727050781
 20
99.09997558593751
 30
0.0
 11
-167.1982727050781
 21
121.4759216308594
 31
0.0
  0
LINE
  5
1A0B
330
105C
100
AcDbEntity
  8
0
100
AcDbLine
 10
-167.1982727050781
 20
177.1000213623047
 30
0.0
 11
-180.1982727050781
 21
177.1000213623047
 31
0.0
  0
LINE
  5
1A0C
330
105C
100
AcDbEntity
  8
0
100
AcDbLine
 10
6.25
 20
205.9000061035155
 30
0.0
 11
6.25
 21
204.3
 31
0.0
  0
LINE
  5
1A0D
330
105C
100
AcDbEntity
  8
0
100
AcDbLine
 10
-6.250030517578125
 20
205.9000061035155
 30
0.0
 11
-6.250030517578125
 21
204.3
 31
0.0
  0
LINE
  5
1A0E
330
105C
100
AcDbEntity
  8
0
100
AcDbLine
 10
-6.250030517578125
 20
205.9000061035155
 30
0.0
 11
6.25
 21
205.9000061035155
 31
0.0
  0
LINE
  5
1A0F
330
105C
100
AcDbEntity
  8
0
100
AcDbLine
 10
5.25
 20
207.4270751953125
 30
0.0
 11
5.25
 21
205.9000061035155
 31
0.0
  0
LINE
  5
1A10
330
105C
100
AcDbEntity
  8
0
100
AcDbLine
 10
-180.0
 20
204.3
 30
0.0
 11
-180.0
 21
179.3000610351562
 31
0.0
  0
LINE
  5
1A11
330
105C
100
AcDbEntity
  8
0
100
AcDbLine
 10
-5.25
 20
207.4270751953125
 30
0.0
 11
-5.25
 21
205.9000061035155
 31
0.0
  0
LINE
  5
1A12
330
105C
100
AcDbEntity
  8
0
100
AcDbLine
 10
0.0
 20
204.3
 30
0.0
 11
0.0
 21
179.3000610351563
 31
0.0
  0
LINE
  5
1A13
330
105C
100
AcDbEntity
  8
0
100
AcDbLine
 10
-40.00003051757812
 20
204.3
 30
0.0
 11
39.99998474121094
 21
204.3
 31
0.0
  0
LINE
  5
1A14
330
105C
100
AcDbEntity
  8
0
100
AcDbLine
 10
-40.00003051757812
 20
204.3
 30
0.0
 11
-40.00003051757812
 21
179.3000610351563
 31
0.0
  0
LINE
  5
1A15
330
105C
100
AcDbEntity
  8
0
100
AcDbLine
 10
39.99998474121094
 20
204.3
 30
0.0
 11
39.99998474121094
 21
179.3000610351563
 31
0.0
  0
LINE
  5
1A16
330
105C
100
AcDbEntity
  8
0
100
AcDbLine
 10
-40.00003051757812
 20
179.3000610351563
 30
0.0
 11
39.99998474121094
 21
179.3000610351563
 31
0.0
  0
LINE
  5
1A17
330
105C
100
AcDbEntity
  8
0
100
AcDbLine
 10
-200.5
 20
204.3
 30
0.0
 11
-200.5
 21
179.3000610351562
 31
0.0
  0
LINE
  5
1A18
330
105C
100
AcDbEntity
  8
0
100
AcDbLine
 10
-195.5
 20
204.3
 30
0.0
 11
-195.5
 21
179.3000610351562
 31
0.0
  0
LINE
  5
1A19
330
105C
100
AcDbEntity
  8
0
100
AcDbLine
 10
-216.0000305175781
 20
179.3000610351562
 30
0.0
 11
-180.0
 21
179.3000610351562
 31
0.0
  0
LINE
  5
1A1A
330
105C
100
AcDbEntity
  8
0
100
AcDbLine
 10
-216.0000305175781
 20
204.3
 30
0.0
 11
-216.0000305175781
 21
179.3000610351562
 31
0.0
  0
LINE
  5
1A1B
330
105C
100
AcDbEntity
  8
0
100
AcDbLine
 10
-216.0000305175781
 20
204.3
 30
0.0
 11
-180.0
 21
204.3
 31
0.0
  0
LINE
  5
1A1C
330
105C
100
AcDbEntity
  8
0
100
AcDbLine
 10
-192.7500305175781
 20
207.4270751953124
 30
0.0
 11
-192.7500305175781
 21
205.9000061035156
 31
0.0
  0
LINE
  5
1A1D
330
105C
100
AcDbEntity
  8
0
100
AcDbLine
 10
-204.25
 20
205.9000061035156
 30
0.0
 11
-191.75
 21
205.9000061035156
 31
0.0
  0
LINE
  5
1A1E
330
105C
100
AcDbEntity
  8
0
100
AcDbLine
 10
-204.25
 20
205.9000061035156
 30
0.0
 11
-204.25
 21
204.3
 31
0.0
  0
LINE
  5
1A1F
330
105C
100
AcDbEntity
  8
0
100
AcDbLine
 10
-191.75
 20
205.9000061035156
 30
0.0
 11
-191.75
 21
204.3
 31
0.0
  0
LINE
  5
1A20
330
105C
100
AcDbEntity
  8
0
100
AcDbLine
 10
-203.2500305175781
 20
207.4270751953124
 30
0.0
 11
-203.2500305175781
 21
205.9000061035156
 31
0.0
  0
LINE
  5
1A21
330
105C
100
AcDbEntity
  8
0
100
AcDbLine
 10
75.0
 20
341.6983337402344
 30
0.0
 11
75.0
 21
271.2983093261719
 31
0.0
  0
LINE
  5
1A22
330
105C
100
AcDbEntity
  8
0
100
AcDbLine
 10
-57.0
 20
324.2983703613281
 30
0.0
 11
-0.5162887573242188
 21
324.2983703613281
 31
0.0
  0
LINE
  5
1A23
330
105C
100
AcDbEntity
  8
0
  6
CENTER
100
AcDbLine
 10
-60.0
 20
306.4983215332031
 30
0.0
 11
79.99999809265137
 21
306.4983215332031
 31
0.0
  0
LINE
  5
1A24
330
105C
100
AcDbEntity
  8
0
100
AcDbLine
 10
-57.0
 20
290.6983337402344
 30
0.0
 11
-5.677047729492187
 21
290.6983337402344
 31
0.0
  0
LINE
  5
1A25
330
105C
100
AcDbEntity
  8
0
100
AcDbLine
 10
-57.0
 20
288.6983642578125
 30
0.0
 11
-0.5157508850097657
 21
288.6983642578125
 31
0.0
  0
LINE
  5
1A26
330
105C
100
AcDbEntity
  8
0
100
AcDbLine
 10
-57.0
 20
322.2983093261719
 30
0.0
 11
-5.67758560180664
 21
322.2983093261719
 31
0.0
  0
LINE
  5
1A27
330
105C
100
AcDbEntity
  8
0
100
AcDbLine
 10
-57.0
 20
337.2984008789063
 30
0.0
 11
75.0
 21
337.2984008789063
 31
0.0
  0
LINE
  5
1A28
330
105C
100
AcDbEntity
  8
0
100
AcDbLine
 10
-57.0
 20
275.6983337402344
 30
0.0
 11
75.0
 21
275.6983337402344
 31
0.0
  0
LINE
  5
1A29
330
105C
100
AcDbEntity
  8
0
100
AcDbLine
 10
70.50012016296387
 20
341.6983337402344
 30
0.0
 11
70.50012016296387
 21
271.2983093261719
 31
0.0
  0
LINE
  5
1A2A
330
105C
100
AcDbEntity
  8
0
100
AcDbLine
 10
-57.0
 20
341.6983337402344
 30
0.0
 11
-57.0
 21
271.2983093261719
 31
0.0
  0
LINE
  5
1A2B
330
105C
100
AcDbEntity
  8
0
100
AcDbLine
 10
-52.5
 20
341.6983337402344
 30
0.0
 11
-52.5
 21
271.2983093261719
 31
0.0
  0
LINE
  5
1A2C
330
105C
100
AcDbEntity
  8
0
  6
CENTER
100
AcDbLine
 10
0.0
 20
380.6212945977584
 30
0.0
 11
0.0
 21
232.3753484686479
 31
0.0
  0
LINE
  5
1A2D
330
105C
100
AcDbEntity
  8
0
100
AcDbLine
 10
-58.5999755859375
 20
324.5483093261719
 30
0.0
 11
-57.0
 21
324.5483093261719
 31
0.0
  0
LINE
  5
1A2E
330
105C
100
AcDbEntity
  8
0
100
AcDbLine
 10
-58.5999755859375
 20
324.5483093261719
 30
0.0
 11
-58.5999755859375
 21
337.0483703613281
 31
0.0
  0
LINE
  5
1A2F
330
105C
100
AcDbEntity
  8
0
100
AcDbLine
 10
-58.5999755859375
 20
337.0483703613281
 30
0.0
 11
-57.0
 21
337.0483703613281
 31
0.0
  0
LINE
  5
1A30
330
105C
100
AcDbEntity
  8
0
100
AcDbLine
 10
-60.0999755859375
 20
324.6983642578125
 30
0.0
 11
-60.0999755859375
 21
336.8983154296875
 31
0.0
  0
LINE
  5
1A31
330
105C
100
AcDbEntity
  8
0
100
AcDbLine
 10
-60.0999755859375
 20
336.8983154296875
 30
0.0
 11
-58.5999755859375
 21
336.8983154296875
 31
0.0
  0
LINE
  5
1A32
330
105C
100
AcDbEntity
  8
0
100
AcDbLine
 10
-60.0999755859375
 20
324.6983642578125
 30
0.0
 11
-58.5999755859375
 21
324.6983642578125
 31
0.0
  0
LINE
  5
1A33
330
105C
100
AcDbEntity
  8
0
100
AcDbLine
 10
-58.5999755859375
 20
275.9482727050781
 30
0.0
 11
-57.0
 21
275.9482727050781
 31
0.0
  0
LINE
  5
1A34
330
105C
100
AcDbEntity
  8
0
100
AcDbLine
 10
-58.5999755859375
 20
275.9482727050781
 30
0.0
 11
-58.5999755859375
 21
296.9983520507812
 31
0.0
  0
LINE
  5
1A35
330
105C
100
AcDbEntity
  8
0
100
AcDbLine
 10
-58.5999755859375
 20
288.4483337402344
 30
0.0
 11
-57.0
 21
288.4483337402344
 31
0.0
  0
LINE
  5
1A36
330
105C
100
AcDbEntity
  8
0
100
AcDbLine
 10
-60.0999755859375
 20
276.0983276367188
 30
0.0
 11
-60.0999755859375
 21
288.2982788085937
 31
0.0
  0
LINE
  5
1A37
330
105C
100
AcDbEntity
  8
0
100
AcDbLine
 10
-60.0999755859375
 20
288.2982788085937
 30
0.0
 11
-58.5999755859375
 21
288.2982788085937
 31
0.0
  0
LINE
  5
1A38
330
105C
100
AcDbEntity
  8
0
100
AcDbLine
 10
-60.0999755859375
 20
276.0983276367188
 30
0.0
 11
-58.5999755859375
 21
276.0983276367188
 31
0.0
  0
LINE
  5
1A39
330
105C
100
AcDbEntity
  8
0
100
AcDbLine
 10
76.60000419616699
 20
288.4483337402344
 30
0.0
 11
75.0
 21
288.4483337402344
 31
0.0
  0
LINE
  5
1A3A
330
105C
100
AcDbEntity
  8
0
100
AcDbLine
 10
76.60000419616699
 20
296.9983520507812
 30
0.0
 11
76.60000419616699
 21
275.9482727050781
 31
0.0
  0
LINE
  5
1A3B
330
105C
100
AcDbEntity
  8
0
100
AcDbLine
 10
76.60000419616699
 20
275.9482727050781
 30
0.0
 11
75.0
 21
275.9482727050781
 31
0.0
  0
LINE
  5
1A3C
330
105C
100
AcDbEntity
  8
0
100
AcDbLine
 10
78.10000419616699
 20
288.2982788085937
 30
0.0
 11
78.10000419616699
 21
276.0983276367188
 31
0.0
  0
LINE
  5
1A3D
330
105C
100
AcDbEntity
  8
0
100
AcDbLine
 10
78.10000419616699
 20
276.0983276367188
 30
0.0
 11
76.60000419616699
 21
276.0983276367188
 31
0.0
  0
LINE
  5
1A3E
330
105C
100
AcDbEntity
  8
0
100
AcDbLine
 10
78.10000419616699
 20
288.2982788085937
 30
0.0
 11
76.60000419616699
 21
288.2982788085937
 31
0.0
  0
LINE
  5
1A3F
330
105C
100
AcDbEntity
  8
0
100
AcDbLine
 10
76.60000419616699
 20
337.0483703613281
 30
0.0
 11
75.0
 21
337.0483703613281
 31
0.0
  0
LINE
  5
1A40
330
105C
100
AcDbEntity
  8
0
100
AcDbLine
 10
76.60000419616699
 20
337.0483703613281
 30
0.0
 11
76.60000419616699
 21
324.5483093261719
 31
0.0
  0
LINE
  5
1A41
330
105C
100
AcDbEntity
  8
0
100
AcDbLine
 10
76.60000419616699
 20
324.5483093261719
 30
0.0
 11
75.0
 21
324.5483093261719
 31
0.0
  0
LINE
  5
1A42
330
105C
100
AcDbEntity
  8
0
100
AcDbLine
 10
78.10000419616699
 20
336.8983154296875
 30
0.0
 11
78.10000419616699
 21
324.6983642578125
 31
0.0
  0
LINE
  5
1A43
330
105C
100
AcDbEntity
  8
0
100
AcDbLine
 10
78.10000419616699
 20
324.6983642578125
 30
0.0
 11
76.60000419616699
 21
324.6983642578125
 31
0.0
  0
LINE
  5
1A44
330
105C
100
AcDbEntity
  8
0
100
AcDbLine
 10
78.10000419616699
 20
336.8983154296875
 30
0.0
 11
76.60000419616699
 21
336.8983154296875
 31
0.0
  0
LINE
  5
1A45
330
105C
100
AcDbEntity
  8
0
100
AcDbLine
 10
-64.09998321533203
 20
328.2983093261719
 30
0.0
 11
-64.09998321533203
 21
333.2983703613281
 31
0.0
  0
LINE
  5
1A46
330
105C
100
AcDbEntity
  8
0
100
AcDbLine
 10
-63.59571075439453
 20
325.7983703613281
 30
0.0
 11
-60.0999755859375
 21
325.7983703613281
 31
0.0
  0
LINE
  5
1A47
330
105C
100
AcDbEntity
  8
0
100
AcDbLine
 10
-63.59571075439453
 20
330.79833984375
 30
0.0
 11
-60.0999755859375
 21
330.79833984375
 31
0.0
  0
LINE
  5
1A48
330
105C
100
AcDbEntity
  8
0
100
AcDbLine
 10
-63.59571075439453
 20
335.7984008789062
 30
0.0
 11
-60.0999755859375
 21
335.7984008789062
 31
0.0
  0
LINE
  5
1A49
330
105C
100
AcDbEntity
  8
0
100
AcDbLine
 10
-64.09998321533203
 20
279.6982727050781
 30
0.0
 11
-64.09998321533203
 21
284.6983337402344
 31
0.0
  0
LINE
  5
1A4A
330
105C
100
AcDbEntity
  8
0
100
AcDbLine
 10
-63.59571075439453
 20
277.1983337402344
 30
0.0
 11
-60.0999755859375
 21
277.1983337402344
 31
0.0
  0
LINE
  5
1A4B
330
105C
100
AcDbEntity
  8
0
100
AcDbLine
 10
-63.59571075439453
 20
282.1983032226563
 30
0.0
 11
-60.0999755859375
 21
282.1983032226563
 31
0.0
  0
LINE
  5
1A4C
330
105C
100
AcDbEntity
  8
0
100
AcDbLine
 10
-63.59571075439453
 20
287.1982727050781
 30
0.0
 11
-60.0999755859375
 21
287.1982727050781
 31
0.0
  0
LINE
  5
1A4D
330
105C
100
AcDbEntity
  8
0
100
AcDbLine
 10
82.10000610351562
 20
333.2983703613281
 30
0.0
 11
82.10000610351562
 21
328.2983093261719
 31
0.0
  0
LINE
  5
1A4E
330
105C
100
AcDbEntity
  8
0
100
AcDbLine
 10
81.59567070007325
 20
335.7984008789062
 30
0.0
 11
78.10000419616699
 21
335.7984008789062
 31
0.0
  0
LINE
  5
1A4F
330
105C
100
AcDbEntity
  8
0
100
AcDbLine
 10
81.59567070007325
 20
330.79833984375
 30
0.0
 11
78.10000419616699
 21
330.79833984375
 31
0.0
  0
LINE
  5
1A50
330
105C
100
AcDbEntity
  8
0
100
AcDbLine
 10
81.59567070007325
 20
325.7983703613281
 30
0.0
 11
78.10000419616699
 21
325.7983703613281
 31
0.0
  0
LINE
  5
1A51
330
105C
100
AcDbEntity
  8
0
100
AcDbLine
 10
82.10000610351562
 20
284.6983337402344
 30
0.0
 11
82.10000610351562
 21
279.6982727050781
 31
0.0
  0
LINE
  5
1A52
330
105C
100
AcDbEntity
  8
0
100
AcDbLine
 10
81.59567070007325
 20
287.1982727050781
 30
0.0
 11
78.10000419616699
 21
287.1982727050781
 31
0.0
  0
LINE
  5
1A53
330
105C
100
AcDbEntity
  8
0
100
AcDbLine
 10
81.59567070007325
 20
282.1983032226563
 30
0.0
 11
78.10000419616699
 21
282.1983032226563
 31
0.0
  0
LINE
  5
1A54
330
105C
100
AcDbEntity
  8
0
100
AcDbLine
 10
81.59567070007325
 20
277.1983337402344
 30
0.0
 11
78.10000419616699
 21
277.1983337402344
 31
0.0
  0
LINE
  5
1A55
330
105C
100
AcDbEntity
  8
0
100
AcDbLine
 10
-68.50000762939453
 20
281.9983520507813
 30
0.0
 11
-68.50000762939453
 21
294.9983825683594
 31
0.0
  0
LINE
  5
1A56
330
105C
100
AcDbEntity
  8
0
100
AcDbLine
 10
-73.27508926391601
 20
294.9983825683594
 30
0.0
 11
-68.50000762939453
 21
294.9983825683594
 31
0.0
  0
LINE
  5
1A57
330
105C
100
AcDbEntity
  8
0
100
AcDbLine
 10
-58.5999755859375
 20
296.9983520507812
 30
0.0
 11
-57.0
 21
296.9983520507812
 31
0.0
  0
LINE
  5
1A58
330
105C
100
AcDbEntity
  8
0
100
AcDbLine
 10
-73.27508926391601
 20
281.9983520507813
 30
0.0
 11
-68.50000762939453
 21
281.9983520507813
 31
0.0
  0
LINE
  5
1A59
330
105C
100
AcDbEntity
  8
0
100
AcDbLine
 10
-74.00000381469727
 20
285.2483825683594
 30
0.0
 11
-74.00000381469727
 21
291.7483520507813
 31
0.0
  0
LINE
  5
1A5A
330
105C
100
AcDbEntity
  8
0
100
AcDbLine
 10
-73.27508926391601
 20
288.4983215332031
 30
0.0
 11
-68.50000762939453
 21
288.4983215332031
 31
0.0
  0
LINE
  5
1A5B
330
105C
100
AcDbEntity
  8
0
100
AcDbLine
 10
-62.8751220703125
 20
288.4983215332031
 30
0.0
 11
-59.32489013671875
 21
288.4983215332031
 31
0.0
  0
LINE
  5
1A5C
330
105C
100
AcDbEntity
  8
0
100
AcDbLine
 10
-63.59997940063476
 20
287.1880187988281
 30
0.0
 11
-63.59997940063476
 21
291.7483520507813
 31
0.0
  0
LINE
  5
1A5D
330
105C
100
AcDbEntity
  8
0
100
AcDbLine
 10
-62.8751220703125
 20
294.9983825683594
 30
0.0
 11
-59.32489013671875
 21
294.9983825683594
 31
0.0
  0
LINE
  5
1A5E
330
105C
100
AcDbEntity
  8
0
100
AcDbLine
 10
-64.07202529907227
 20
285.2983703613281
 30
0.0
 11
-68.50000762939453
 21
285.2983703613281
 31
0.0
  0
LINE
  5
1A5F
330
105C
100
AcDbEntity
  8
0
100
AcDbLine
 10
-63.599853515625
 20
291.6983642578125
 30
0.0
 11
-68.50000762939453
 21
291.6983642578125
 31
0.0
  0
LINE
  5
1A60
330
105C
100
AcDbEntity
  8
0
100
AcDbLine
 10
91.27511501312255
 20
294.9983825683594
 30
0.0
 11
86.49999904632569
 21
294.9983825683594
 31
0.0
  0
LINE
  5
1A61
330
105C
100
AcDbEntity
  8
0
100
AcDbLine
 10
-64.09692764282226
 20
284.4983825683594
 30
0.0
 11
-68.50000762939453
 21
284.4983825683594
 31
0.0
  0
LINE
  5
1A62
330
105C
100
AcDbEntity
  8
0
100
AcDbLine
 10
-63.56311798095703
 20
292.4983520507812
 30
0.0
 11
-68.50000762939453
 21
292.4983520507812
 31
0.0
  0
LINE
  5
1A63
330
105C
100
AcDbEntity
  8
0
100
AcDbLine
 10
76.60000419616699
 20
296.9983520507812
 30
0.0
 11
75.0
 21
296.9983520507812
 31
0.0
  0
LINE
  5
1A64
330
105C
100
AcDbEntity
  8
0
100
AcDbLine
 10
91.27511501312255
 20
281.9983520507813
 30
0.0
 11
86.49999904632569
 21
281.9983520507813
 31
0.0
  0
LINE
  5
1A65
330
105C
100
AcDbEntity
  8
0
100
AcDbLine
 10
86.49999904632569
 20
281.9983520507813
 30
0.0
 11
86.49999904632569
 21
294.9983825683594
 31
0.0
  0
LINE
  5
1A66
330
105C
100
AcDbEntity
  8
0
100
AcDbLine
 10
91.27511501312255
 20
288.4983215332031
 30
0.0
 11
86.49999904632569
 21
288.4983215332031
 31
0.0
  0
LINE
  5
1A67
330
105C
100
AcDbEntity
  8
0
100
AcDbLine
 10
80.87512207031251
 20
288.4983215332031
 30
0.0
 11
77.32489013671875
 21
288.4983215332031
 31
0.0
  0
LINE
  5
1A68
330
105C
100
AcDbEntity
  8
0
100
AcDbLine
 10
81.60000514984131
 20
287.1880187988281
 30
0.0
 11
81.60000514984131
 21
291.7483520507813
 31
0.0
  0
LINE
  5
1A69
330
105C
100
AcDbEntity
  8
0
100
AcDbLine
 10
91.99999809265136
 20
285.2483825683594
 30
0.0
 11
91.99999809265136
 21
291.7483520507813
 31
0.0
  0
LINE
  5
1A6A
330
105C
100
AcDbEntity
  8
0
100
AcDbLine
 10
80.87512207031251
 20
294.9983825683594
 30
0.0
 11
77.32489013671875
 21
294.9983825683594
 31
0.0
  0
LINE
  5
1A6B
330
105C
100
AcDbEntity
  8
0
100
AcDbLine
 10
82.07201957702636
 20
285.2983703613281
 30
0.0
 11
86.49999904632569
 21
285.2983703613281
 31
0.0
  0
LINE
  5
1A6C
330
105C
100
AcDbEntity
  8
0
100
AcDbLine
 10
81.599853515625
 20
291.6983642578125
 30
0.0
 11
86.49999904632569
 21
291.6983642578125
 31
0.0
  0
LINE
  5
1A6D
330
105C
100
AcDbEntity
  8
0
100
AcDbLine
 10
82.09689331054688
 20
284.4983825683594
 30
0.0
 11
86.49999904632569
 21
284.4983825683594
 31
0.0
  0
LINE
  5
1A6E
330
105C
100
AcDbEntity
  8
0
100
AcDbLine
 10
81.56314086914063
 20
292.4983520507812
 30
0.0
 11
86.49999904632569
 21
292.4983520507812
 31
0.0
  0
LINE
  5
1A6F
330
105C
100
AcDbEntity
  8
0
100
AcDbLine
 10
-57.0
 20
271.2983093261719
 30
0.0
 11
75.0
 21
271.2983093261719
 31
0.0
  0
LINE
  5
1A70
330
105C
100
AcDbEntity
  8
0
100
AcDbLine
 10
-57.0
 20
341.6983337402344
 30
0.0
 11
75.0
 21
341.6983337402344
 31
0.0
  0
LINE
  5
1A71
330
105C
100
AcDbEntity
  8
0
100
AcDbLine
 10
0.5159797668457032
 20
288.6983642578125
 30
0.0
 11
75.0
 21
288.6983642578125
 31
0.0
  0
LINE
  5
1A72
330
105C
100
AcDbEntity
  8
0
100
AcDbLine
 10
5.677265167236328
 20
290.6983337402344
 30
0.0
 11
75.0
 21
290.6983337402344
 31
0.0
  0
LINE
  5
1A73
330
105C
100
AcDbEntity
  8
0
100
AcDbLine
 10
5.677803039550781
 20
322.2983093261719
 30
0.0
 11
75.0
 21
322.2983093261719
 31
0.0
  0
LINE
  5
1A74
330
105C
100
AcDbEntity
  8
0
100
AcDbLine
 10
0.5165061950683594
 20
324.2983703613281
 30
0.0
 11
75.0
 21
324.2983703613281
 31
0.0
  0
ARC
  5
1A75
330
105C
100
AcDbEntity
  8
0
100
AcDbCircle
 10
-71.20901489257812
 20
143.7275085449218
 30
0.0
 40
2.790960788726806
100
AcDbArc
 50
137.7544653697283
 51
222.2455309878046
  0
ARC
  5
1A76
330
105C
100
AcDbEntity
  8
0
100
AcDbCircle
 10
-63.92349243164062
 20
138.0983581542968
 30
0.0
 40
10.07649993896484
100
AcDbArc
 50
158.134520418996
 51
201.8654759385395
  0
ARC
  5
1A77
330
105C
100
AcDbEntity
  8
0
100
AcDbCircle
 10
-71.20901489257812
 20
132.4691772460937
 30
0.0
 40
2.790960788726806
100
AcDbArc
 50
137.7544653697283
 51
222.2455309878046
  0
ARC
  5
1A78
330
105C
100
AcDbEntity
  8
0
100
AcDbCircle
 10
-60.80899047851563
 20
143.7275085449218
 30
0.0
 40
2.790962934494018
100
AcDbArc
 50
137.7545063508581
 51
222.2454900066672
  0
ARC
  5
1A79
330
105C
100
AcDbEntity
  8
0
100
AcDbCircle
 10
-60.80899047851563
 20
132.4691772460937
 30
0.0
 40
2.790962934494018
100
AcDbArc
 50
137.7545063508581
 51
222.2454900066672
  0
ARC
  5
1A7A
330
105C
100
AcDbEntity
  8
0
100
AcDbCircle
 10
-61.39096069335938
 20
132.4691772460937
 30
0.0
 40
2.790962934494018
100
AcDbArc
 50
317.7545047570033
 51
42.24549524299674
  0
ARC
  5
1A7B
330
105C
100
AcDbEntity
  8
0
100
AcDbCircle
 10
-61.39096069335938
 20
143.7275085449218
 30
0.0
 40
2.790962934494018
100
AcDbArc
 50
317.7545047570033
 51
42.24549524299674
  0
ARC
  5
1A7C
330
105C
100
AcDbEntity
  8
0
100
AcDbCircle
 10
-68.67648315429687
 20
138.0983581542968
 30
0.0
 40
10.07651138305664
100
AcDbArc
 50
338.1345512685311
 51
21.86544531637316
  0
ARC
  5
1A7D
330
105C
100
AcDbEntity
  8
0
100
AcDbCircle
 10
-53.52346801757812
 20
138.0983581542968
 30
0.0
 40
10.07651138305664
100
AcDbArc
 50
158.1345477397488
 51
201.8654486177837
  0
ARC
  5
1A7E
330
105C
100
AcDbEntity
  8
0
100
AcDbCircle
 10
89.20912170410156
 20
132.4691772460937
 30
0.0
 40
2.790960788726806
100
AcDbArc
 50
317.7544637758661
 51
42.24553622413391
  0
ARC
  5
1A7F
330
105C
100
AcDbEntity
  8
0
100
AcDbCircle
 10
81.92356872558594
 20
138.0983581542968
 30
0.0
 40
10.07649993896484
100
AcDbArc
 50
338.1345273628672
 51
21.86547605222479
  0
ARC
  5
1A80
330
105C
100
AcDbEntity
  8
0
100
AcDbCircle
 10
89.20912170410156
 20
143.7275085449218
 30
0.0
 40
2.790960788726806
100
AcDbArc
 50
317.7544637758661
 51
42.24553622413391
  0
ARC
  5
1A81
330
105C
100
AcDbEntity
  8
0
100
AcDbCircle
 10
78.80912780761718
 20
132.4691772460937
 30
0.0
 40
2.790962934494018
100
AcDbArc
 50
317.7545047570033
 51
42.24549524299674
  0
ARC
  5
1A82
330
105C
100
AcDbEntity
  8
0
100
AcDbCircle
 10
78.80912780761718
 20
143.7275085449218
 30
0.0
 40
2.790962934494018
100
AcDbArc
 50
317.7545047570033
 51
42.24549524299674
  0
ARC
  5
1A83
330
105C
100
AcDbEntity
  8
0
100
AcDbCircle
 10
79.39103698730469
 20
143.7275085449218
 30
0.0
 40
2.790962934494018
100
AcDbArc
 50
137.7545063508581
 51
222.2454900066672
  0
ARC
  5
1A84
330
105C
100
AcDbEntity
  8
0
100
AcDbCircle
 10
79.39103698730469
 20
132.4691772460937
 30
0.0
 40
2.790962934494018
100
AcDbArc
 50
137.7545063508581
 51
222.2454900066672
  0
ARC
  5
1A85
330
105C
100
AcDbEntity
  8
0
100
AcDbCircle
 10
86.67658996582032
 20
138.0983581542968
 30
0.0
 40
10.07651138305664
100
AcDbArc
 50
158.1345477397488
 51
201.8654486177837
  0
ARC
  5
1A86
330
105C
100
AcDbEntity
  8
0
100
AcDbCircle
 10
71.52357482910156
 20
138.0983581542968
 30
0.0
 40
10.07651138305664
100
AcDbArc
 50
338.1345546836268
 51
21.86544873146893
  0
ARC
  5
1A87
330
105C
100
AcDbEntity
  8
0
100
AcDbCircle
 10
79.78242492675781
 20
165.2682189941406
 30
0.0
 40
2.317657947540283
100
AcDbArc
 50
321.4810525530649
 51
38.51894403184092
  0
ARC
  5
1A88
330
105C
100
AcDbEntity
  8
0
100
AcDbCircle
 10
73.58592224121093
 20
169.5983581542968
 30
0.0
 40
8.514156341552734
100
AcDbArc
 50
340.1808008117857
 51
19.8191957731195
  0
ARC
  5
1A89
330
105C
100
AcDbEntity
  8
0
100
AcDbCircle
 10
79.78242492675781
 20
173.928466796875
 30
0.0
 40
2.317657947540283
100
AcDbArc
 50
321.4810525530649
 51
38.51894403184092
  0
ARC
  5
1A8A
330
105C
100
AcDbEntity
  8
0
100
AcDbCircle
 10
79.78242492675781
 20
102.2682189941406
 30
0.0
 40
2.317657947540283
100
AcDbArc
 50
321.4810525530649
 51
38.51894403184092
  0
ARC
  5
1A8B
330
105C
100
AcDbEntity
  8
0
100
AcDbCircle
 10
73.58592224121093
 20
106.5983581542969
 30
0.0
 40
8.514156341552734
100
AcDbArc
 50
340.1808008117857
 51
19.8191957731195
  0
ARC
  5
1A8C
330
105C
100
AcDbEntity
  8
0
100
AcDbCircle
 10
79.78242492675781
 20
110.928466796875
 30
0.0
 40
2.317657947540283
100
AcDbArc
 50
321.4810525530649
 51
38.51894403184092
  0
ARC
  5
1A8D
330
105C
100
AcDbEntity
  8
0
100
AcDbCircle
 10
-61.78231811523438
 20
110.928466796875
 30
0.0
 40
2.317657947540283
100
AcDbArc
 50
141.481057562021
 51
218.5189387955158
  0
ARC
  5
1A8E
330
105C
100
AcDbEntity
  8
0
100
AcDbCircle
 10
-55.58578491210937
 20
106.5983581542969
 30
0.0
 40
8.514156341552734
100
AcDbArc
 50
160.1808041131938
 51
199.819192244341
  0
ARC
  5
1A8F
330
105C
100
AcDbEntity
  8
0
100
AcDbCircle
 10
-61.78231811523438
 20
102.2682189941406
 30
0.0
 40
2.317657947540283
100
AcDbArc
 50
141.481057562021
 51
218.5189387955158
  0
ARC
  5
1A90
330
105C
100
AcDbEntity
  8
0
100
AcDbCircle
 10
-61.78231811523438
 20
173.928466796875
 30
0.0
 40
2.317657947540283
100
AcDbArc
 50
141.481057562021
 51
218.5189387955158
  0
ARC
  5
1A91
330
105C
100
AcDbEntity
  8
0
100
AcDbCircle
 10
-55.58578491210937
 20
169.5983581542968
 30
0.0
 40
8.514156341552734
100
AcDbArc
 50
160.1808041131938
 51
199.819192244341
  0
ARC
  5
1A92
330
105C
100
AcDbEntity
  8
0
100
AcDbCircle
 10
-61.78231811523438
 20
165.2682189941406
 30
0.0
 40
2.317657947540283
100
AcDbArc
 50
141.481057562021
 51
218.5189387955158
  0
CIRCLE
  5
1A93
330
105C
100
AcDbEntity
  8
0
100
AcDbCircle
 10
-215.9982604980469
 20
138.1000061035156
 30
0.0
 40
4.863999843597412
  0
CIRCLE
  5
1A94
330
105C
100
AcDbEntity
  8
0
100
AcDbCircle
 10
-215.9982604980469
 20
138.1000061035156
 30
0.0
 40
4.282999992370604
  0
CIRCLE
  5
1A95
330
105C
100
AcDbEntity
  8
0
100
AcDbCircle
 10
-179.9982604980469
 20
138.1000061035156
 30
0.0
 40
6.5
  0
ARC
  5
1A96
330
105C
100
AcDbEntity
  8
0
100
AcDbCircle
 10
-179.9982604980469
 20
138.1000061035156
 30
0.0
 40
7.5
100
AcDbArc
 50
330.073563717632
 51
29.92643628236727
  0
ARC
  5
1A97
330
105C
100
AcDbEntity
  8
0
100
AcDbCircle
 10
-179.9982604980469
 20
138.1000061035156
 30
0.0
 40
7.5
100
AcDbArc
 50
90.07332458521984
 51
149.9266684330119
  0
ARC
  5
1A98
330
105C
100
AcDbEntity
  8
0
100
AcDbCircle
 10
-179.9982604980469
 20
138.1000061035156
 30
0.0
 40
7.5
100
AcDbArc
 50
210.073331566988
 51
269.9266685845919
  0
ARC
  5
1A99
330
105C
100
AcDbEntity
  8
0
100
AcDbCircle
 10
-179.9982604980469
 20
138.1000061035156
 30
0.0
 40
7.5
100
AcDbArc
 50
270.074282632936
 51
329.9257208579498
  0
ARC
  5
1A9A
330
105C
100
AcDbEntity
  8
0
100
AcDbCircle
 10
-179.9982604980469
 20
138.1000061035156
 30
0.0
 40
7.5
100
AcDbArc
 50
30.07332633066161
 51
89.92667359354646
  0
ARC
  5
1A9B
330
105C
100
AcDbEntity
  8
0
100
AcDbCircle
 10
-197.9982604980468
 20
138.1000061035156
 30
0.0
 40
35.0
100
AcDbArc
 50
151.6423709713849
 51
208.3576390465292
  0
ARC
  5
1A9C
330
105C
100
AcDbEntity
  8
0
100
AcDbCircle
 10
-197.9982604980468
 20
138.1000061035156
 30
0.0
 40
35.0
100
AcDbArc
 50
331.6423608397873
 51
28.35764257530692
  0
ARC
  5
1A9D
330
105C
100
AcDbEntity
  8
0
100
AcDbCircle
 10
-179.9982604980469
 20
138.1000061035156
 30
0.0
 40
7.5
100
AcDbArc
 50
150.0733262548694
 51
209.9266701026648
  0
ARC
  5
1A9E
330
105C
100
AcDbEntity
  8
0
100
AcDbCircle
 10
-3.350006103515625
 20
207.4270751953125
 30
0.0
 40
1.899999976158142
100
AcDbArc
 50
106.0728583008607
 51
180.0000050089569
  0
ARC
  5
1A9F
330
105C
100
AcDbEntity
  8
0
100
AcDbCircle
 10
3.350006103515625
 20
207.4270751953125
 30
0.0
 40
1.899999976158142
100
AcDbArc
 50
0.0
 51
73.92713987790489
  0
ARC
  5
1AA0
330
105C
100
AcDbEntity
  8
0
100
AcDbCircle
 10
0.0
 20
195.8000610351561
 30
0.0
 40
14.0
100
AcDbArc
 50
73.92713987790489
 51
106.0728583008607
  0
ARC
  5
1AA1
330
105C
100
AcDbEntity
  8
0
100
AcDbCircle
 10
-201.3500366210938
 20
207.4270751953124
 30
0.0
 40
1.899999976158142
100
AcDbArc
 50
106.0728583008607
 51
180.0000050089569
  0
ARC
  5
1AA2
330
105C
100
AcDbEntity
  8
0
100
AcDbCircle
 10
-194.6500244140625
 20
207.4270751953124
 30
0.0
 40
1.899999976158142
100
AcDbArc
 50
0.0
 51
73.92713987790489
  0
ARC
  5
1AA3
330
105C
100
AcDbEntity
  8
0
100
AcDbCircle
 10
-198.0000305175781
 20
195.8000610351562
 30
0.0
 40
14.0
100
AcDbArc
 50
73.92713987790489
 51
106.0728583008607
  0
CIRCLE
  5
1AA4
330
105C
100
AcDbEntity
  8
0
100
AcDbCircle
 10
-23.78821563720703
 20
282.6983642578125
 30
0.0
 40
3.49999988079071
  0
CIRCLE
  5
1AA5
330
105C
100
AcDbEntity
  8
0
100
AcDbCircle
 10
-23.78821563720703
 20
330.2983703613281
 30
0.0
 40
4.000000119209288
  0
CIRCLE
  5
1AA6
330
105C
100
AcDbEntity
  8
0
100
AcDbCircle
 10
23.788330078125
 20
282.6983642578125
 30
0.0
 40
4.000000119209288
  0
CIRCLE
  5
1AA7
330
105C
100
AcDbEntity
  8
0
100
AcDbCircle
 10
-23.78821563720703
 20
282.6983642578125
 30
0.0
 40
4.000000119209288
  0
CIRCLE
  5
1AA8
330
105C
100
AcDbEntity
  8
0
100
AcDbCircle
 10
23.788330078125
 20
330.2983703613281
 30
0.0
 40
4.000000119209288
  0
CIRCLE
  5
1AA9
330
105C
100
AcDbEntity
  8
0
100
AcDbCircle
 10
23.788330078125
 20
330.2983703613281
 30
0.0
 40
3.49999988079071
  0
CIRCLE
  5
1AAA
330
105C
100
AcDbEntity
  8
0
100
AcDbCircle
 10
-23.78821563720703
 20
330.2983703613281
 30
0.0
 40
3.49999988079071
  0
CIRCLE
  5
1AAB
330
105C
100
AcDbEntity
  8
0
100
AcDbCircle
 10
23.788330078125
 20
282.6983642578125
 30
0.0
 40
3.49999988079071
  0
ARC
  5
1AAC
330
105C
100
AcDbEntity
  8
0
100
AcDbCircle
 10
-57.65137481689453
 20
328.2983093261719
 30
0.0
 40
6.448659181594847
100
AcDbArc
 50
157.1899325775362
 51
202.8100637799928
  0
ARC
  5
1AAD
330
105C
100
AcDbEntity
  8
0
100
AcDbCircle
 10
-57.65137481689453
 20
333.2983703613281
 30
0.0
 40
6.448659181594847
100
AcDbArc
 50
157.1899325775362
 51
202.8100637799928
  0
ARC
  5
1AAE
330
105C
100
AcDbEntity
  8
0
100
AcDbCircle
 10
-57.65137481689453
 20
279.6982727050781
 30
0.0
 40
6.448659181594847
100
AcDbArc
 50
157.1899325775362
 51
202.8100637799928
  0
ARC
  5
1AAF
330
105C
100
AcDbEntity
  8
0
100
AcDbCircle
 10
-57.65137481689453
 20
284.6983337402344
 30
0.0
 40
6.448659181594847
100
AcDbArc
 50
157.1899325775362
 51
202.8100637799928
  0
ARC
  5
1AB0
330
105C
100
AcDbEntity
  8
0
100
AcDbCircle
 10
75.65133476257324
 20
333.2983703613281
 30
0.0
 40
6.448659181594847
100
AcDbArc
 50
337.1899361063181
 51
22.81006047858325
  0
ARC
  5
1AB1
330
105C
100
AcDbEntity
  8
0
100
AcDbCircle
 10
75.65133476257324
 20
328.2983093261719
 30
0.0
 40
6.448659181594847
100
AcDbArc
 50
337.1899361063181
 51
22.81006047858325
  0
ARC
  5
1AB2
330
105C
100
AcDbEntity
  8
0
100
AcDbCircle
 10
75.65133476257324
 20
284.6983337402344
 30
0.0
 40
6.448659181594847
100
AcDbArc
 50
337.1899361063181
 51
22.81006047858325
  0
ARC
  5
1AB3
330
105C
100
AcDbEntity
  8
0
100
AcDbCircle
 10
75.65133476257324
 20
279.6982727050781
 30
0.0
 40
6.448659181594847
100
AcDbArc
 50
337.1899361063181
 51
22.81006047858325
  0
ARC
  5
1AB4
330
105C
100
AcDbEntity
  8
0
100
AcDbCircle
 10
-66.35199737548828
 20
285.2483825683594
 30
0.0
 40
7.647994279861449
100
AcDbArc
 50
154.8526281831827
 51
205.1473681743507
  0
ARC
  5
1AB5
330
105C
100
AcDbEntity
  8
0
100
AcDbCircle
 10
-66.24799346923828
 20
291.7483520507813
 30
0.0
 40
7.647994995117185
100
AcDbArc
 50
334.8526282968681
 51
25.14736828803381
  0
ARC
  5
1AB6
330
105C
100
AcDbEntity
  8
0
100
AcDbCircle
 10
-66.24799346923828
 20
285.2483825683594
 30
0.0
 40
7.647994995117185
100
AcDbArc
 50
23.50261604721538
 51
25.14737511822657
  0
ARC
  5
1AB7
330
105C
100
AcDbEntity
  8
0
100
AcDbCircle
 10
-66.35199737548828
 20
291.7483520507813
 30
0.0
 40
7.647994279861449
100
AcDbArc
 50
154.8526281831827
 51
205.1473681743507
  0
ARC
  5
1AB8
330
105C
100
AcDbEntity
  8
0
100
AcDbCircle
 10
-55.95203018188477
 20
285.2483825683594
 30
0.0
 40
7.647994995117185
100
AcDbArc
 50
154.8526281831827
 51
165.2286417589161
  0
ARC
  5
1AB9
330
105C
100
AcDbEntity
  8
0
100
AcDbCircle
 10
-55.95203018188477
 20
291.7483520507813
 30
0.0
 40
7.647994995117185
100
AcDbArc
 50
154.8526281831827
 51
205.1473681743507
  0
ARC
  5
1ABA
330
105C
100
AcDbEntity
  8
0
100
AcDbCircle
 10
84.35202026367187
 20
285.2483825683594
 30
0.0
 40
7.647994279861449
100
AcDbArc
 50
334.8526282968681
 51
25.14737511822657
  0
ARC
  5
1ABB
330
105C
100
AcDbEntity
  8
0
100
AcDbCircle
 10
84.24798488616943
 20
291.7483520507813
 30
0.0
 40
7.647994995117185
100
AcDbArc
 50
154.8526281831827
 51
205.1473681743507
  0
ARC
  5
1ABC
330
105C
100
AcDbEntity
  8
0
100
AcDbCircle
 10
84.35202026367187
 20
291.7483520507813
 30
0.0
 40
7.647994279861449
100
AcDbArc
 50
334.8526282968681
 51
25.14737511822657
  0
ARC
  5
1ABD
330
105C
100
AcDbEntity
  8
0
100
AcDbCircle
 10
73.95199584960938
 20
285.2483825683594
 30
0.0
 40
7.647994995117185
100
AcDbArc
 50
14.77135812740079
 51
25.14737511822657
  0
ARC
  5
1ABE
330
105C
100
AcDbEntity
  8
0
100
AcDbCircle
 10
73.95199584960938
 20
291.7483520507813
 30
0.0
 40
7.647994995117185
100
AcDbArc
 50
334.8526282968681
 51
25.14736828803381
  0
POINT
  5
1ABF
330
105C
100
AcDbEntity
  8
0
100
AcDbPoint
 10
0.0
 20
306.4984130859375
 30
0.0
  0
LINE
  5
1AC0
330
105C
100
AcDbEntity
  8
0
100
AcDbLine
 10
-39.99992570846939
 20
308.9984755903889
 30
0.0
 11
0.000113128698672
 21
324.4984902562521
 31
0.0
  0
LINE
  5
1AC1
330
105C
100
AcDbEntity
  8
0
100
AcDbLine
 10
-39.99993896484375
 20
308.9984893798828
 30
0.0
 11
-39.99993896484375
 21
303.9984741210937
 31
0.0
  0
LINE
  5
1AC2
330
105C
100
AcDbEntity
  8
0
100
AcDbLine
 10
-39.99994436039452
 20
303.9985030426228
 30
0.0
 11
0.0000540161041727
 21
288.4985040552688
 31
0.0
  0
LINE
  5
1AC3
330
105C
100
AcDbEntity
  8
0
100
AcDbLine
 10
40.00011271679426
 20
303.9984803223995
 30
0.0
 11
0.0000925537813146
 21
288.4984728927713
 31
0.0
  0
LINE
  5
1AC4
330
105C
100
AcDbEntity
  8
0
100
AcDbLine
 10
40.00007629394531
 20
308.9984893798828
 30
0.0
 11
40.00007629394531
 21
303.9984741210937
 31
0.0
  0
LINE
  5
1AC5
330
105C
100
AcDbEntity
  8
0
100
AcDbLine
 10
40.00011540676064
 20
308.9984900406296
 30
0.0
 11
0.0000761249698371
 21
324.4985048787839
 31
0.0
  0
CIRCLE
  5
1AC6
330
105C
100
AcDbEntity
  8
0
100
AcDbCircle
 10
0.000091552734375
 20
306.4985046386719
 30
0.0
 40
6.25
  0
CIRCLE
  5
1AC7
330
105C
100
AcDbEntity
  8
0
100
AcDbCircle
 10
0.000091552734375
 20
306.4985046386719
 30
0.0
 40
5.25
  0
LINE
  5
1AC8
330
105C
100
AcDbEntity
  8
0
100
AcDbLine
 10
-178.6982515862463
 20
172.4867595517912
 30
0.0
 11
-178.6982515862463
 21
166.7132595517913
 31
0.0
  0
LINE
  5
1AC9
330
105C
100
AcDbEntity
  8
0
100
AcDbLine
 10
-168.6982562487474
 20
166.7132595517913
 30
0.0
 11
-168.6982562487474
 21
172.4867595517912
 31
0.0
  0
CIRCLE
  5
1ACA
330
105C
100
AcDbEntity
  8
0
100
AcDbCircle
 10
-173.6982539174968
 20
169.6000095517913
 30
0.0
 40
4.899999999999997
  0
LINE
  5
1ACB
330
105C
100
AcDbEntity
  8
0
100
AcDbLine
 10
-178.6982515862463
 20
166.7132595517913
 30
0.0
 11
-173.6982539174968
 21
163.8265095517913
 31
0.0
  0
LINE
  5
1ACC
330
105C
100
AcDbEntity
  8
0
100
AcDbLine
 10
-173.6982539174968
 20
163.8265095517913
 30
0.0
 11
-168.6982562487474
 21
166.7132595517913
 31
0.0
  0
LINE
  5
1ACD
330
105C
100
AcDbEntity
  8
0
100
AcDbLine
 10
-173.6982539174968
 20
175.3735095517913
 30
0.0
 11
-178.6982515862463
 21
172.4867595517912
 31
0.0
  0
LINE
  5
1ACE
330
105C
100
AcDbEntity
  8
0
100
AcDbLine
 10
-168.6982562487474
 20
172.4867595517912
 30
0.0
 11
-173.6982539174968
 21
175.3735095517913
 31
0.0
  0
CIRCLE
  5
1ACF
330
105C
100
AcDbEntity
  8
0
100
AcDbCircle
 10
-173.6982539174968
 20
169.6000095517913
 30
0.0
 40
6.25
  0
LINE
  5
1AD0
330
105C
100
AcDbEntity
  8
0
100
AcDbLine
 10
-178.6982703738276
 20
109.4867255859375
 30
0.0
 11
-178.6982703738276
 21
103.7132255859375
 31
0.0
  0
LINE
  5
1AD1
330
105C
100
AcDbEntity
  8
0
100
AcDbLine
 10
-168.6982750363287
 20
103.7132255859375
 30
0.0
 11
-168.6982750363287
 21
109.4867255859374
 31
0.0
  0
CIRCLE
  5
1AD2
330
105C
100
AcDbEntity
  8
0
100
AcDbCircle
 10
-173.6982727050781
 20
106.5999755859375
 30
0.0
 40
4.899999999999997
  0
LINE
  5
1AD3
330
105C
100
AcDbEntity
  8
0
100
AcDbLine
 10
-178.6982703738276
 20
103.7132255859375
 30
0.0
 11
-173.6982727050781
 21
100.8264755859375
 31
0.0
  0
LINE
  5
1AD4
330
105C
100
AcDbEntity
  8
0
100
AcDbLine
 10
-173.6982727050781
 20
100.8264755859375
 30
0.0
 11
-168.6982750363287
 21
103.7132255859375
 31
0.0
  0
LINE
  5
1AD5
330
105C
100
AcDbEntity
  8
0
100
AcDbLine
 10
-173.6982727050781
 20
112.3734755859375
 30
0.0
 11
-178.6982703738276
 21
109.4867255859375
 31
0.0
  0
LINE
  5
1AD6
330
105C
100
AcDbEntity
  8
0
100
AcDbLine
 10
-168.6982750363287
 20
109.4867255859374
 30
0.0
 11
-173.6982727050781
 21
112.3734755859375
 31
0.0
  0
CIRCLE
  5
1AD7
330
105C
100
AcDbEntity
  8
0
100
AcDbCircle
 10
-173.6982727050781
 20
106.5999755859375
 30
0.0
 40
6.25
  0
LINE
  5
1AD8
330
105C
100
AcDbEntity
  8
0
100
AcDbLine
 10
-227.2982459597652
 20
109.4867255859375
 30
0.0
 11
-227.2982459597652
 21
103.7132255859375
 31
0.0
  0
LINE
  5
1AD9
330
105C
100
AcDbEntity
  8
0
100
AcDbLine
 10
-217.2982506222662
 20
103.7132255859375
 30
0.0
 11
-217.2982506222662
 21
109.4867255859374
 31
0.0
  0
CIRCLE
  5
1ADA
330
105C
100
AcDbEntity
  8
0
100
AcDbCircle
 10
-222.2982482910156
 20
106.5999755859375
 30
0.0
 40
4.899999999999997
  0
LINE
  5
1ADB
330
105C
100
AcDbEntity
  8
0
100
AcDbLine
 10
-227.2982459597652
 20
103.7132255859375
 30
0.0
 11
-222.2982482910156
 21
100.8264755859375
 31
0.0
  0
LINE
  5
1ADC
330
105C
100
AcDbEntity
  8
0
100
AcDbLine
 10
-222.2982482910156
 20
100.8264755859375
 30
0.0
 11
-217.2982506222662
 21
103.7132255859375
 31
0.0
  0
LINE
  5
1ADD
330
105C
100
AcDbEntity
  8
0
100
AcDbLine
 10
-222.2982482910156
 20
112.3734755859375
 30
0.0
 11
-227.2982459597652
 21
109.4867255859375
 31
0.0
  0
LINE
  5
1ADE
330
105C
100
AcDbEntity
  8
0
100
AcDbLine
 10
-217.2982506222662
 20
109.4867255859374
 30
0.0
 11
-222.2982482910156
 21
112.3734755859375
 31
0.0
  0
CIRCLE
  5
1ADF
330
105C
100
AcDbEntity
  8
0
100
AcDbCircle
 10
-222.2982482910156
 20
106.5999755859375
 30
0.0
 40
6.25
  0
LINE
  5
1AE0
330
105C
100
AcDbEntity
  8
0
100
AcDbLine
 10
-227.2982459597652
 20
172.4867561035155
 30
0.0
 11
-227.2982459597652
 21
166.7132561035156
 31
0.0
  0
LINE
  5
1AE1
330
105C
100
AcDbEntity
  8
0
100
AcDbLine
 10
-217.2982506222662
 20
166.7132561035156
 30
0.0
 11
-217.2982506222662
 21
172.4867561035155
 31
0.0
  0
CIRCLE
  5
1AE2
330
105C
100
AcDbEntity
  8
0
100
AcDbCircle
 10
-222.2982482910156
 20
169.6000061035156
 30
0.0
 40
4.899999999999997
  0
LINE
  5
1AE3
330
105C
100
AcDbEntity
  8
0
100
AcDbLine
 10
-227.2982459597652
 20
166.7132561035156
 30
0.0
 11
-222.2982482910156
 21
163.8265061035156
 31
0.0
  0
LINE
  5
1AE4
330
105C
100
AcDbEntity
  8
0
100
AcDbLine
 10
-222.2982482910156
 20
163.8265061035156
 30
0.0
 11
-217.2982506222662
 21
166.7132561035156
 31
0.0
  0
LINE
  5
1AE5
330
105C
100
AcDbEntity
  8
0
100
AcDbLine
 10
-222.2982482910156
 20
175.3735061035156
 30
0.0
 11
-227.2982459597652
 21
172.4867561035155
 31
0.0
  0
LINE
  5
1AE6
330
105C
100
AcDbEntity
  8
0
100
AcDbLine
 10
-217.2982506222662
 20
172.4867561035155
 30
0.0
 11
-222.2982482910156
 21
175.3735061035156
 31
0.0
  0
CIRCLE
  5
1AE7
330
105C
100
AcDbEntity
  8
0
100
AcDbCircle
 10
-222.2982482910156
 20
169.6000061035156
 30
0.0
 40
6.25
  0
LINE
  5
1AE8
330
105C
100
AcDbEntity
  8
0
100
AcDbLine
 10
6.66571044921875
 20
250.0983276367186
 30
0.0
 11
12.0
 21
250.0983276367186
 31
0.0
  0
LINE
  5
1AE9
330
105C
100
AcDbEntity
  8
0
100
AcDbLine
 10
12.0
 20
271.2983093261719
 30
0.0
 11
12.0
 21
250.0983276367186
 31
0.0
  0
ARC
  5
1AEA
330
105C
100
AcDbEntity
  8
0
100
AcDbCircle
 10
6.27838134765625
 20
250.3983154296875
 30
0.0
 40
0.4000000059604645
100
AcDbArc
 50
269.9999974955215
 51
298.955027198661
  0
ARC
  5
1AEB
330
105C
100
AcDbEntity
  8
0
100
AcDbCircle
 10
6.66571044921875
 20
249.6983032226562
 30
0.0
 40
0.4000000059604645
100
AcDbArc
 50
90.00000250447845
 51
118.9550253774278
  0
LINE
  5
1AEC
330
105C
100
AcDbEntity
  8
0
100
AcDbLine
 10
6.27838134765625
 20
249.9983215332031
 30
0.0
 11
-6.27838134765625
 21
249.9983215332031
 31
0.0
  0
LINE
  5
1AED
330
105C
100
AcDbEntity
  8
0
100
AcDbLine
 10
-6.66571044921875
 20
250.0983276367186
 30
0.0
 11
-12.0
 21
250.0983276367186
 31
0.0
  0
LINE
  5
1AEE
330
105C
100
AcDbEntity
  8
0
100
AcDbLine
 10
-12.0
 20
271.2983093261719
 30
0.0
 11
-12.0
 21
250.0983276367186
 31
0.0
  0
ARC
  5
1AEF
330
105C
100
AcDbEntity
  8
0
100
AcDbCircle
 10
-6.27838134765625
 20
250.3983154296875
 30
0.0
 40
0.4000000059604645
100
AcDbArc
 50
241.0449728013391
 51
270.0000025044752
  0
ARC
  5
1AF0
330
105C
100
AcDbEntity
  8
0
100
AcDbCircle
 10
-6.66571044921875
 20
249.6983032226562
 30
0.0
 40
0.4000000059604645
100
AcDbArc
 50
61.0449746225758
 51
89.99999749552477
  0
LINE
  5
1AF1
330
105C
100
AcDbEntity
  8
0
100
AcDbLine
 10
50.00009155273438
 20
260.9985046386719
 30
0.0
 11
47.71029663085937
 21
260.9985046386719
 31
0.0
  0
LINE
  5
1AF2
330
105C
100
AcDbEntity
  8
0
100
AcDbLine
 10
43.07455444335937
 20
268.3484802246094
 30
0.0
 11
27.00004976429176
 21
268.3484802246094
 31
0.0
  0
LINE
  5
1AF3
330
105C
100
AcDbEntity
  8
0
100
AcDbLine
 10
46.95851657388248
 20
261.5249240871932
 30
0.0
 11
44.95388685086431
 21
267.0325987883324
 31
0.0
  0
LINE
  5
1AF4
330
105C
100
AcDbEntity
  8
0
100
AcDbLine
 10
50.00009155273438
 20
271.2983093261719
 30
0.0
 11
50.00009155273438
 21
260.9985046386719
 31
0.0
  0
ARC
  5
1AF5
330
105C
100
AcDbEntity
  8
0
100
AcDbCircle
 10
43.07455444335937
 20
266.3484802246094
 30
0.0
 40
2.0
100
AcDbArc
 50
20.00000454082821
 51
89.99999567428931
  0
ARC
  5
1AF6
330
105C
100
AcDbEntity
  8
0
100
AcDbCircle
 10
47.71029663085937
 20
261.7984924316406
 30
0.0
 40
0.8000000119209291
100
AcDbArc
 50
200.0000046545121
 51
270.0000043257107
  0
LINE
  5
1AF7
330
105C
100
AcDbEntity
  8
0
100
AcDbLine
 10
44.22170731298598
 20
271.2983093261719
 30
0.0
 11
44.22170731298592
 21
267.9867843153409
 31
0.0
  0
LINE
  5
1AF8
330
105C
100
AcDbEntity
  8
0
100
AcDbLine
 10
47.25143552629669
 20
261.1431707504847
 30
0.0
 11
47.25143552629669
 21
271.2983093261719
 31
0.0
  0
LINE
  5
1AF9
330
105C
100
AcDbEntity
  8
0
100
AcDbLine
 10
-49.99990844726562
 20
260.9985046386719
 30
0.0
 11
-47.71011352539062
 21
260.9985046386719
 31
0.0
  0
LINE
  5
1AFA
330
105C
100
AcDbEntity
  8
0
100
AcDbLine
 10
-43.07437133789062
 20
268.3484802246094
 30
0.0
 11
-26.99986665882301
 21
268.3484802246094
 31
0.0
  0
LINE
  5
1AFB
330
105C
100
AcDbEntity
  8
0
100
AcDbLine
 10
-46.95833346841374
 20
261.5249240871932
 30
0.0
 11
-44.95370374539561
 21
267.0325987883324
 31
0.0
  0
LINE
  5
1AFC
330
105C
100
AcDbEntity
  8
0
100
AcDbLine
 10
-49.99990844726562
 20
271.2983093261719
 30
0.0
 11
-49.99990844726562
 21
260.9985046386719
 31
0.0
  0
ARC
  5
1AFD
330
105C
100
AcDbEntity
  8
0
100
AcDbCircle
 10
-43.07437133789062
 20
266.3484802246094
 30
0.0
 40
2.0
100
AcDbArc
 50
90.00000432571395
 51
159.9999954591718
  0
ARC
  5
1AFE
330
105C
100
AcDbEntity
  8
0
100
AcDbCircle
 10
-47.71011352539062
 20
261.7984924316406
 30
0.0
 40
0.8000000119209291
100
AcDbArc
 50
269.999995674286
 51
339.999995345488
  0
LINE
  5
1AFF
330
105C
100
AcDbEntity
  8
0
100
AcDbLine
 10
-44.22152420751717
 20
271.2983093261719
 30
0.0
 11
-44.22152420751717
 21
267.9867843153409
 31
0.0
  0
LINE
  5
1B00
330
105C
100
AcDbEntity
  8
0
100
AcDbLine
 10
-47.25125242082799
 20
261.1431707504847
 30
0.0
 11
-47.25125242082799
 21
271.2983093261719
 31
0.0
  0
LINE
  5
1B01
330
105C
100
AcDbEntity
  8
0
100
AcDbLine
 10
13.23275866730716
 20
264.6593870883021
 30
0.0
 11
26.99995821155738
 21
268.3482971191406
 31
0.0
  0
LINE
  5
1B02
330
105C
100
AcDbEntity
  8
0
100
AcDbLine
 10
13.23275866730716
 20
264.6593870883021
 30
0.0
 11
12.91245693574592
 21
260.9983215332031
 31
0.0
  0
LINE
  5
1B03
330
105C
100
AcDbEntity
  8
0
100
AcDbLine
 10
-13.23275866730716
 20
264.6593870883021
 30
0.0
 11
-26.99995821155738
 21
268.3482971191406
 31
0.0
  0
LINE
  5
1B04
330
105C
100
AcDbEntity
  8
0
100
AcDbLine
 10
-13.23275866730716
 20
264.6593870883021
 30
0.0
 11
-12.91245693574592
 21
260.9983215332031
 31
0.0
  0
LINE
  5
1B05
330
105C
100
AcDbEntity
  8
0
100
AcDbLine
 10
-13.23276369904158
 20
271.2983093261719
 30
0.0
 11
-13.23275866730716
 21
264.6593870883021
 31
0.0
  0
LINE
  5
1B06
330
105C
100
AcDbEntity
  8
0
100
AcDbLine
 10
13.23275866730716
 20
264.6593870883021
 30
0.0
 11
13.23275866730716
 21
271.2983093261719
 31
0.0
  0
LINE
  5
1B07
330
105C
100
AcDbEntity
  8
0
100
AcDbLine
 10
27.00004976429176
 20
268.3484802246094
 30
0.0
 11
27.00004976429176
 21
271.2983093261719
 31
0.0
  0
LINE
  5
1B08
330
105C
100
AcDbEntity
  8
0
100
AcDbLine
 10
-26.99986665882301
 20
268.3484802246094
 30
0.0
 11
-26.99986665882301
 21
271.2983093261719
 31
0.0
  0
LINE
  5
1B09
330
105C
100
AcDbEntity
  8
0
100
AcDbLine
 10
6.66571044921875
 20
362.8983154296875
 30
0.0
 11
12.0
 21
362.8983154296875
 31
0.0
  0
LINE
  5
1B0A
330
105C
100
AcDbEntity
  8
0
100
AcDbLine
 10
12.0
 20
341.6983337402344
 30
0.0
 11
12.0
 21
362.8983154296875
 31
0.0
  0
ARC
  5
1B0B
330
105C
100
AcDbEntity
  8
0
100
AcDbCircle
 10
6.27838134765625
 20
362.5983276367186
 30
0.0
 40
0.4000000059604645
100
AcDbArc
 50
61.04497280133904
 51
90.00000250447845
  0
ARC
  5
1B0C
330
105C
100
AcDbEntity
  8
0
100
AcDbCircle
 10
6.66571044921875
 20
363.29833984375
 30
0.0
 40
0.4000000059604645
100
AcDbArc
 50
241.0449746225721
 51
269.9999974955215
  0
LINE
  5
1B0D
330
105C
100
AcDbEntity
  8
0
100
AcDbLine
 10
6.27838134765625
 20
362.9983215332031
 30
0.0
 11
-6.27838134765625
 21
362.9983215332031
 31
0.0
  0
LINE
  5
1B0E
330
105C
100
AcDbEntity
  8
0
100
AcDbLine
 10
-6.66571044921875
 20
362.8983154296875
 30
0.0
 11
-12.0
 21
362.8983154296875
 31
0.0
  0
LINE
  5
1B0F
330
105C
100
AcDbEntity
  8
0
100
AcDbLine
 10
-12.0
 20
341.6983337402344
 30
0.0
 11
-12.0
 21
362.8983154296875
 31
0.0
  0
ARC
  5
1B10
330
105C
100
AcDbEntity
  8
0
100
AcDbCircle
 10
-6.27838134765625
 20
362.5983276367186
 30
0.0
 40
0.4000000059604645
100
AcDbArc
 50
89.99999749552477
 51
118.9550271986609
  0
ARC
  5
1B11
330
105C
100
AcDbEntity
  8
0
100
AcDbCircle
 10
-6.66571044921875
 20
363.29833984375
 30
0.0
 40
0.4000000059604645
100
AcDbArc
 50
270.0000025044752
 51
298.9550253774278
  0
LINE
  5
1B12
330
105C
100
AcDbEntity
  8
0
100
AcDbLine
 10
50.00009155273438
 20
351.9981384277344
 30
0.0
 11
47.71029663085937
 21
351.9981384277344
 31
0.0
  0
LINE
  5
1B13
330
105C
100
AcDbEntity
  8
0
100
AcDbLine
 10
43.07455444335937
 20
344.6481628417969
 30
0.0
 11
27.00004976429176
 21
344.6481628417969
 31
0.0
  0
LINE
  5
1B14
330
105C
100
AcDbEntity
  8
0
100
AcDbLine
 10
46.95851657388248
 20
351.471718979213
 30
0.0
 11
44.95388685086431
 21
345.964044278074
 31
0.0
  0
LINE
  5
1B15
330
105C
100
AcDbEntity
  8
0
100
AcDbLine
 10
50.00009155273438
 20
341.6983337402344
 30
0.0
 11
50.00009155273438
 21
351.9981384277344
 31
0.0
  0
ARC
  5
1B16
330
105C
100
AcDbEntity
  8
0
100
AcDbCircle
 10
43.07455444335937
 20
346.6481628417969
 30
0.0
 40
2.0
100
AcDbArc
 50
270.0000043257107
 51
339.9999954591718
  0
ARC
  5
1B17
330
105C
100
AcDbEntity
  8
0
100
AcDbCircle
 10
47.71029663085937
 20
351.1981506347656
 30
0.0
 40
0.8000000119209291
100
AcDbArc
 50
89.99999567428931
 51
159.9999953454902
  0
LINE
  5
1B18
330
105C
100
AcDbEntity
  8
0
100
AcDbLine
 10
44.22170731298598
 20
341.6983337402344
 30
0.0
 11
44.22170731298592
 21
345.0098587510654
 31
0.0
  0
LINE
  5
1B19
330
105C
100
AcDbEntity
  8
0
100
AcDbLine
 10
47.25143552629669
 20
351.8534723159215
 30
0.0
 11
47.25143552629669
 21
341.6983337402344
 31
0.0
  0
LINE
  5
1B1A
330
105C
100
AcDbEntity
  8
0
100
AcDbLine
 10
-49.99990844726562
 20
351.9981384277344
 30
0.0
 11
-47.71011352539062
 21
351.9981384277344
 31
0.0
  0
LINE
  5
1B1B
330
105C
100
AcDbEntity
  8
0
100
AcDbLine
 10
-43.07437133789062
 20
344.6481628417969
 30
0.0
 11
-26.99986665882301
 21
344.6481628417969
 31
0.0
  0
LINE
  5
1B1C
330
105C
100
AcDbEntity
  8
0
100
AcDbLine
 10
-46.95833346841374
 20
351.471718979213
 30
0.0
 11
-44.95370374539561
 21
345.964044278074
 31
0.0
  0
LINE
  5
1B1D
330
105C
100
AcDbEntity
  8
0
100
AcDbLine
 10
-49.99990844726562
 20
341.6983337402344
 30
0.0
 11
-49.99990844726562
 21
351.9981384277344
 31
0.0
  0
ARC
  5
1B1E
330
105C
100
AcDbEntity
  8
0
100
AcDbCircle
 10
-43.07437133789062
 20
346.6481628417969
 30
0.0
 40
2.0
100
AcDbArc
 50
200.0000045408282
 51
269.999995674286
  0
ARC
  5
1B1F
330
105C
100
AcDbEntity
  8
0
100
AcDbCircle
 10
-47.71011352539062
 20
351.1981506347656
 30
0.0
 40
0.8000000119209291
100
AcDbArc
 50
20.00000465450974
 51
90.00000432571395
  0
LINE
  5
1B20
330
105C
100
AcDbEntity
  8
0
100
AcDbLine
 10
-44.22152420751717
 20
341.6983337402344
 30
0.0
 11
-44.22152420751717
 21
345.0098587510654
 31
0.0
  0
LINE
  5
1B21
330
105C
100
AcDbEntity
  8
0
100
AcDbLine
 10
-47.25125242082799
 20
351.8534723159215
 30
0.0
 11
-47.25125242082799
 21
341.6983337402344
 31
0.0
  0
LINE
  5
1B22
330
105C
100
AcDbEntity
  8
0
100
AcDbLine
 10
13.23275866730716
 20
348.3372559781041
 30
0.0
 11
26.99995821155738
 21
344.6483459472656
 31
0.0
  0
LINE
  5
1B23
330
105C
100
AcDbEntity
  8
0
100
AcDbLine
 10
13.23275866730716
 20
348.3372559781041
 30
0.0
 11
13.10669592924824
 21
349.778159671754
 31
0.0
  0
LINE
  5
1B24
330
105C
100
AcDbEntity
  8
0
100
AcDbLine
 10
-13.23275866730716
 20
348.3372559781041
 30
0.0
 11
-26.99995821155738
 21
344.6483459472656
 31
0.0
  0
LINE
  5
1B25
330
105C
100
AcDbEntity
  8
0
100
AcDbLine
 10
-13.23275866730716
 20
348.3372559781041
 30
0.0
 11
-13.03902357636576
 21
350.5516582069102
 31
0.0
  0
LINE
  5
1B26
330
105C
100
AcDbEntity
  8
0
100
AcDbLine
 10
-13.23276369904158
 20
341.6983337402344
 30
0.0
 11
-13.23275866730716
 21
348.3372559781041
 31
0.0
  0
LINE
  5
1B27
330
105C
100
AcDbEntity
  8
0
100
AcDbLine
 10
13.23275866730716
 20
348.3372559781041
 30
0.0
 11
13.23275866730716
 21
341.6983337402344
 31
0.0
  0
LINE
  5
1B28
330
105C
100
AcDbEntity
  8
0
100
AcDbLine
 10
27.00004976429176
 20
344.6481628417969
 30
0.0
 11
27.00004976429176
 21
341.6983337402344
 31
0.0
  0
LINE
  5
1B29
330
105C
100
AcDbEntity
  8
0
100
AcDbLine
 10
-26.99986665882301
 20
344.6481628417969
 30
0.0
 11
-26.99986665882301
 21
341.6983337402344
 31
0.0
  0
TEXT
  5
1B2A
330
105C
100
AcDbEntity
  8
0
100
AcDbText
 10
-333.3333333333333
 20
409.1666666666666
 30
0.0
 40
50.0
  1
LVB__T20000 3S
 72
     4
 11
0.0
 21
430.0
 31
0.0
100
AcDbText
  0
LINE
  5
1B2B
330
105C
100
AcDbEntity
  8
0
100
AcDbLine
 10
-20.60000000000002
 20
51.37078857421873
 30
0.0
 11
-15.0
 21
51.37078857421876
 31
0.0
  0
LINE
  5
1B2C
330
105C
100
AcDbEntity
  8
0
100
AcDbLine
 10
-20.59999999999996
 20
41.37078857421873
 30
0.0
 11
-15.0
 21
41.37078857421873
 31
0.0
  0
LINE
  5
1B2D
330
105C
100
AcDbEntity
  8
0
100
AcDbLine
 10
-15.0
 20
53.59832763671875
 30
0.0
 11
-15.0
 21
39.7916259765625
 31
0.0
  0
LINE
  5
1B2E
330
105C
100
AcDbEntity
  8
0
100
AcDbLine
 10
-21.0
 20
50.67796825119119
 30
0.0
 11
-21.0
 21
42.0636088972463
 31
0.0
  0
LINE
  5
1B2F
330
105C
100
AcDbEntity
  8
0
100
AcDbLine
 10
-20.60000000000002
 20
43.91228857421874
 30
0.0
 11
-20.60000000000002
 21
41.37078857421873
 31
0.0
  0
LINE
  5
1B30
330
105C
100
AcDbEntity
  8
0
100
AcDbLine
 10
-20.60000000000002
 20
41.37078857421873
 30
0.0
 11
-21.0
 21
42.0636088972463
 31
0.0
  0
LINE
  5
1B31
330
105C
100
AcDbEntity
  8
0
100
AcDbLine
 10
-20.60000000000002
 20
51.37078857421873
 30
0.0
 11
-20.60000000000002
 21
48.82928857421872
 31
0.0
  0
LINE
  5
1B32
330
105C
100
AcDbEntity
  8
0
100
AcDbLine
 10
-20.60000000000002
 20
51.37078857421873
 30
0.0
 11
-21.0
 21
50.67796825119119
 31
0.0
  0
LINE
  5
1B33
330
105C
100
AcDbEntity
  8
0
100
AcDbLine
 10
-17.60000000000002
 20
4.999999999999985
 30
0.0
 11
-12.0
 21
5.000000000000014
 31
0.0
  0
LINE
  5
1B34
330
105C
100
AcDbEntity
  8
0
100
AcDbLine
 10
-17.59999999999996
 20
-5.000000000000014
 30
0.0
 11
-12.0
 21
-5.000000000000014
 31
0.0
  0
LINE
  5
1B35
330
105C
100
AcDbEntity
  8
0
100
AcDbLine
 10
-18.0
 20
4.307179676972438
 30
0.0
 11
-18.0
 21
-4.307179676972438
 31
0.0
  0
LINE
  5
1B36
330
105C
100
AcDbEntity
  8
0
100
AcDbLine
 10
-17.60000000000002
 20
-2.4585
 30
0.0
 11
-17.60000000000002
 21
-5.000000000000014
 31
0.0
  0
LINE
  5
1B37
330
105C
100
AcDbEntity
  8
0
100
AcDbLine
 10
-17.60000000000002
 20
-5.000000000000014
 30
0.0
 11
-18.0
 21
-4.307179676972438
 31
0.0
  0
LINE
  5
1B38
330
105C
100
AcDbEntity
  8
0
100
AcDbLine
 10
-17.60000000000002
 20
4.999999999999985
 30
0.0
 11
-17.60000000000002
 21
2.458499999999972
 31
0.0
  0
LINE
  5
1B39
330
105C
100
AcDbEntity
  8
0
100
AcDbLine
 10
-17.60000000000002
 20
4.999999999999985
 30
0.0
 11
-18.0
 21
4.307179676972438
 31
0.0
  0
LINE
  5
1B3A
330
105C
100
AcDbEntity
  8
0
100
AcDbLine
 10
-17.60000000000002
 20
-41.37078857421876
 30
0.0
 11
-12.0
 21
-41.37078857421873
 31
0.0
  0
LINE
  5
1B3B
330
105C
100
AcDbEntity
  8
0
100
AcDbLine
 10
-17.59999999999996
 20
-51.37078857421876
 30
0.0
 11
-12.0
 21
-51.37078857421876
 31
0.0
  0
LINE
  5
1B3C
330
105C
100
AcDbEntity
  8
0
100
AcDbLine
 10
-18.0
 20
-42.0636088972463
 30
0.0
 11
-18.0
 21
-50.67796825119119
 31
0.0
  0
LINE
  5
1B3D
330
105C
100
AcDbEntity
  8
0
100
AcDbLine
 10
-17.60000000000002
 20
-48.82928857421875
 30
0.0
 11
-17.60000000000002
 21
-51.37078857421876
 31
0.0
  0
LINE
  5
1B3E
330
105C
100
AcDbEntity
  8
0
100
AcDbLine
 10
-17.60000000000002
 20
-51.37078857421876
 30
0.0
 11
-18.0
 21
-50.67796825119119
 31
0.0
  0
LINE
  5
1B3F
330
105C
100
AcDbEntity
  8
0
100
AcDbLine
 10
-17.60000000000002
 20
-41.37078857421876
 30
0.0
 11
-17.60000000000002
 21
-43.91228857421878
 31
0.0
  0
LINE
  5
1B40
330
105C
100
AcDbEntity
  8
0
100
AcDbLine
 10
-17.60000000000002
 20
-41.37078857421876
 30
0.0
 11
-18.0
 21
-42.0636088972463
 31
0.0
  0
LINE
  5
1B41
330
105C
100
AcDbEntity
  8
0
100
AcDbLine
 10
-15.0
 20
39.7916259765625
 30
0.0
 11
-12.0
 21
39.7916259765625
 31
0.0
  0
LINE
  5
1B42
330
105C
100
AcDbEntity
  8
0
100
AcDbLine
 10
15.0
 20
39.79162597656248
 30
0.0
 11
12.0
 21
39.79162597656248
 31
0.0
  0
LINE
  5
1B43
330
105C
100
AcDbEntity
  8
0
100
AcDbLine
 10
18.095703125
 20
40.5972900390625
 30
0.0
 11
15.0
 21
40.5972900390625
 31
0.0
  0
LINE
  5
1B44
330
105C
100
AcDbEntity
  8
0
100
AcDbLine
 10
15.1245005956747
 20
-40.5972900390625
 30
0.0
 11
12.0
 21
-40.5972900390625
 31
0.0
  0
LINE
  5
1B45
330
105C
100
AcDbEntity
  8
0
100
AcDbLine
 10
17.60004131124674
 20
-2.00000421156082
 30
0.0
 11
16.60004019039604
 21
-3.00000524811773
 31
0.0
  0
LINE
  5
1B46
330
105C
100
AcDbEntity
  8
0
100
AcDbLine
 10
16.6000188640919
 20
3.000022803292353
 30
0.0
 11
17.60004147983432
 21
2.000000103254336
 31
0.0
  0
LINE
  5
1B47
330
105C
100
AcDbEntity
  8
0
100
AcDbLine
 10
17.5999755859375
 20
-2.0
 30
0.0
 11
17.5999755859375
 21
2.0
 31
0.0
  0
LINE
  5
1B48
330
105C
100
AcDbEntity
  8
0
100
AcDbLine
 10
16.5999755859375
 20
-3.0
 30
0.0
 11
15.5999755859375
 21
-3.0
 31
0.0
  0
LINE
  5
1B49
330
105C
100
AcDbEntity
  8
0
100
AcDbLine
 10
15.12451171875
 20
2.886749267578125
 30
0.0
 11
12.0
 21
2.886749267578125
 31
0.0
  0
LINE
  5
1B4A
330
105C
100
AcDbEntity
  8
0
100
AcDbLine
 10
16.5999755859375
 20
3.000000000000028
 30
0.0
 11
15.5999755859375
 21
3.000000000000028
 31
0.0
  0
LINE
  5
1B4B
330
105C
100
AcDbEntity
  8
0
100
AcDbLine
 10
15.12451171875
 20
-2.886749267578125
 30
0.0
 11
12.0
 21
-2.886749267578125
 31
0.0
  0
LINE
  5
1B4C
330
105C
100
AcDbEntity
  8
0
100
AcDbLine
 10
15.5999755859375
 20
-4.33013916015625
 30
0.0
 11
15.5999755859375
 21
4.33013916015625
 31
0.0
  0
LINE
  5
1B4D
330
105C
100
AcDbEntity
  8
0
100
AcDbLine
 10
15.12451171875
 20
-5.77349853515625
 30
0.0
 11
12.0
 21
-5.77349853515625
 31
0.0
  0
ARC
  5
1B4E
330
105C
100
AcDbEntity
  8
0
100
AcDbCircle
 10
13.17169189453125
 20
-4.33013916015625
 30
0.0
 40
2.428322076797484
100
AcDbArc
 50
323.530683039958
 51
36.46931354494542
  0
ARC
  5
1B4F
330
105C
100
AcDbEntity
  8
0
100
AcDbCircle
 10
6.5999755859375
 20
0.0
 30
0.0
 40
9.0
100
AcDbArc
 50
341.2917037595304
 51
18.70829965556086
  0
ARC
  5
1B50
330
105C
100
AcDbEntity
  8
0
100
AcDbCircle
 10
13.17169189453125
 20
4.33013916015625
 30
0.0
 40
2.428322076797484
100
AcDbArc
 50
323.530683039958
 51
36.46883651019965
  0
LINE
  5
1B51
330
105C
100
AcDbEntity
  8
0
100
AcDbLine
 10
15.1245005956747
 20
5.77349853515625
 30
0.0
 11
12.0
 21
5.77349853515625
 31
0.0
  0
LINE
  5
1B52
330
105C
100
AcDbEntity
  8
0
100
AcDbLine
 10
0.0
 20
362.9983215332031
 30
0.0
 11
0.0
 21
341.6983337402344
 31
0.0
  0
LINE
  5
1B53
330
105C
100
AcDbEntity
  8
0
100
AcDbLine
 10
0.0
 20
249.9983215332031
 30
0.0
 11
0.0
 21
271.2983093261719
 31
0.0
  0
LINE
  5
1B54
330
105C
100
AcDbEntity
  8
0
100
AcDbLine
 10
0.0
 20
56.4000244140625
 30
0.0
 11
0.0
 21
-56.5
 31
0.0
  0
LINE
  5
1B55
330
105C
100
AcDbEntity
  8
0
100
AcDbLine
 10
-17.60000000000002
 20
260.9983215332031
 30
0.0
 11
-12.0
 21
260.9983215332031
 31
0.0
  0
LINE
  5
1B56
330
105C
100
AcDbEntity
  8
0
100
AcDbLine
 10
-17.59999999999996
 20
250.9983215332031
 30
0.0
 11
-12.0
 21
250.9983215332031
 31
0.0
  0
LINE
  5
1B57
330
105C
100
AcDbEntity
  8
0
100
AcDbLine
 10
-18.0
 20
260.3055012101756
 30
0.0
 11
-18.0
 21
251.6911418562307
 31
0.0
  0
LINE
  5
1B58
330
105C
100
AcDbEntity
  8
0
100
AcDbLine
 10
-17.60000000000002
 20
253.5398215332032
 30
0.0
 11
-17.60000000000002
 21
250.9983215332031
 31
0.0
  0
LINE
  5
1B59
330
105C
100
AcDbEntity
  8
0
100
AcDbLine
 10
-17.60000000000002
 20
250.9983215332031
 30
0.0
 11
-18.0
 21
251.6911418562307
 31
0.0
  0
LINE
  5
1B5A
330
105C
100
AcDbEntity
  8
0
100
AcDbLine
 10
-17.60000000000002
 20
260.9983215332031
 30
0.0
 11
-17.60000000000002
 21
258.4568215332031
 31
0.0
  0
LINE
  5
1B5B
330
105C
100
AcDbEntity
  8
0
100
AcDbLine
 10
-17.60000000000002
 20
260.9983215332031
 30
0.0
 11
-18.0
 21
260.3055012101756
 31
0.0
  0
LINE
  5
1B5C
330
105C
100
AcDbEntity
  8
0
100
AcDbLine
 10
17.60004131124674
 20
253.9983173216423
 30
0.0
 11
16.60004019039604
 21
252.9983162850854
 31
0.0
  0
LINE
  5
1B5D
330
105C
100
AcDbEntity
  8
0
100
AcDbLine
 10
16.6000188640919
 20
258.9983443364955
 30
0.0
 11
17.60004147983432
 21
257.9983216364575
 31
0.0
  0
LINE
  5
1B5E
330
105C
100
AcDbEntity
  8
0
100
AcDbLine
 10
17.5999755859375
 20
253.9983215332031
 30
0.0
 11
17.5999755859375
 21
257.9983215332031
 31
0.0
  0
LINE
  5
1B5F
330
105C
100
AcDbEntity
  8
0
100
AcDbLine
 10
16.5999755859375
 20
252.9983215332031
 30
0.0
 11
15.5999755859375
 21
252.9983215332031
 31
0.0
  0
LINE
  5
1B60
330
105C
100
AcDbEntity
  8
0
100
AcDbLine
 10
16.5999755859375
 20
258.9983215332031
 30
0.0
 11
15.5999755859375
 21
258.9983215332031
 31
0.0
  0
LINE
  5
1B61
330
105C
100
AcDbEntity
  8
0
100
AcDbLine
 10
15.60000000000002
 20
251.0983215332032
 30
0.0
 11
15.60000000000002
 21
260.8983215332031
 31
0.0
  0
ARC
  5
1B62
330
105C
100
AcDbEntity
  8
0
100
AcDbCircle
 10
8.32131487335198
 20
253.4983215332031
 30
0.0
 40
7.220950126647949
100
AcDbArc
 50
339.7444458007802
 51
20.25555419921974
  0
ARC
  5
1B63
330
105C
100
AcDbEntity
  8
0
100
AcDbCircle
 10
8.32131487335198
 20
258.4983215332032
 30
0.0
 40
7.220950126647949
100
AcDbArc
 50
339.7444458007802
 51
20.25555419921974
  0
LINE
  5
1B64
330
105C
100
AcDbEntity
  8
0
100
AcDbLine
 10
12.0
 20
260.9983215332031
 30
0.0
 11
15.54226499999998
 21
260.9983215332031
 31
0.0
  0
LINE
  5
1B65
330
105C
100
AcDbEntity
  8
0
100
AcDbLine
 10
15.54226499999998
 20
260.9983215332031
 30
0.0
 11
15.60000000000002
 21
260.8983215332031
 31
0.0
  0
LINE
  5
1B66
330
105C
100
AcDbEntity
  8
0
100
AcDbLine
 10
12.0
 20
255.9983215332031
 30
0.0
 11
15.09568477499999
 21
255.9983215332031
 31
0.0
  0
LINE
  5
1B67
330
105C
100
AcDbEntity
  8
0
100
AcDbLine
 10
12.0
 20
250.9983215332031
 30
0.0
 11
15.54226499999998
 21
250.9983215332031
 31
0.0
  0
LINE
  5
1B68
330
105C
100
AcDbEntity
  8
0
100
AcDbLine
 10
15.54226499999998
 20
250.9983215332031
 30
0.0
 11
15.60000000000002
 21
251.0983215332032
 31
0.0
  0
LINE
  5
1B69
330
105C
100
AcDbEntity
  8
0
100
AcDbLine
 10
-17.60000000000002
 20
351.9983215332031
 30
0.0
 11
-12.0
 21
351.9983215332031
 31
0.0
  0
LINE
  5
1B6A
330
105C
100
AcDbEntity
  8
0
100
AcDbLine
 10
-17.59999999999996
 20
361.9983215332031
 30
0.0
 11
-12.0
 21
361.9983215332031
 31
0.0
  0
LINE
  5
1B6B
330
105C
100
AcDbEntity
  8
0
100
AcDbLine
 10
-18.0
 20
352.6911418562307
 30
0.0
 11
-18.0
 21
361.3055012101756
 31
0.0
  0
LINE
  5
1B6C
330
105C
100
AcDbEntity
  8
0
100
AcDbLine
 10
-17.60000000000002
 20
359.4568215332031
 30
0.0
 11
-17.60000000000002
 21
361.9983215332031
 31
0.0
  0
LINE
  5
1B6D
330
105C
100
AcDbEntity
  8
0
100
AcDbLine
 10
-17.60000000000002
 20
361.9983215332031
 30
0.0
 11
-18.0
 21
361.3055012101756
 31
0.0
  0
LINE
  5
1B6E
330
105C
100
AcDbEntity
  8
0
100
AcDbLine
 10
-17.60000000000002
 20
351.9983215332031
 30
0.0
 11
-17.60000000000002
 21
354.5398215332032
 31
0.0
  0
LINE
  5
1B6F
330
105C
100
AcDbEntity
  8
0
100
AcDbLine
 10
-17.60000000000002
 20
351.9983215332031
 30
0.0
 11
-18.0
 21
352.6911418562307
 31
0.0
  0
LINE
  5
1B70
330
105C
100
AcDbEntity
  8
0
100
AcDbLine
 10
17.60004131124674
 20
358.998325744764
 30
0.0
 11
16.60004019039604
 21
359.9983267813209
 31
0.0
  0
LINE
  5
1B71
330
105C
100
AcDbEntity
  8
0
100
AcDbLine
 10
16.6000188640919
 20
353.9982987299108
 30
0.0
 11
17.60004147983432
 21
354.9983214299488
 31
0.0
  0
LINE
  5
1B72
330
105C
100
AcDbEntity
  8
0
100
AcDbLine
 10
17.5999755859375
 20
358.9983215332031
 30
0.0
 11
17.5999755859375
 21
354.9983215332031
 31
0.0
  0
LINE
  5
1B73
330
105C
100
AcDbEntity
  8
0
100
AcDbLine
 10
16.5999755859375
 20
359.9983215332031
 30
0.0
 11
15.5999755859375
 21
359.9983215332031
 31
0.0
  0
LINE
  5
1B74
330
105C
100
AcDbEntity
  8
0
100
AcDbLine
 10
16.5999755859375
 20
353.9983215332031
 30
0.0
 11
15.5999755859375
 21
353.9983215332031
 31
0.0
  0
LINE
  5
1B75
330
105C
100
AcDbEntity
  8
0
100
AcDbLine
 10
15.60000000000002
 20
361.8983215332031
 30
0.0
 11
15.60000000000002
 21
352.0983215332031
 31
0.0
  0
ARC
  5
1B76
330
105C
100
AcDbEntity
  8
0
100
AcDbCircle
 10
8.32131487335198
 20
359.4983215332031
 30
0.0
 40
7.220950126647949
100
AcDbArc
 50
339.7444458007802
 51
20.25555419921974
  0
ARC
  5
1B77
330
105C
100
AcDbEntity
  8
0
100
AcDbCircle
 10
8.32131487335198
 20
354.4983215332031
 30
0.0
 40
7.220950126647949
100
AcDbArc
 50
339.7444458007802
 51
20.25555419921974
  0
LINE
  5
1B78
330
105C
100
AcDbEntity
  8
0
100
AcDbLine
 10
12.0
 20
351.9983215332031
 30
0.0
 11
15.54226499999998
 21
351.9983215332031
 31
0.0
  0
LINE
  5
1B79
330
105C
100
AcDbEntity
  8
0
100
AcDbLine
 10
15.54226499999998
 20
351.9983215332031
 30
0.0
 11
15.60000000000002
 21
352.0983215332031
 31
0.0
  0
LINE
  5
1B7A
330
105C
100
AcDbEntity
  8
0
100
AcDbLine
 10
12.0
 20
356.9983215332031
 30
0.0
 11
15.09568477499999
 21
356.9983215332031
 31
0.0
  0
LINE
  5
1B7B
330
105C
100
AcDbEntity
  8
0
100
AcDbLine
 10
12.0
 20
361.9983215332031
 30
0.0
 11
15.54226499999998
 21
361.9983215332031
 31
0.0
  0
LINE
  5
1B7C
330
105C
100
AcDbEntity
  8
0
100
AcDbLine
 10
15.54226499999998
 20
361.9983215332031
 30
0.0
 11
15.60000000000002
 21
361.8983215332031
 31
0.0
  0
ENDSEC
  0
SECTION
  2
OBJECTS
  0
DICTIONARY
  5
FFD
330
0
100
AcDbDictionary
281
     1
  3
ACAD_2007HEADERVARS_RT
350
1D0D
  3
ACAD_CIP_PREVIOUS_PRODUCT_INFO
350
11C9
  3
ACAD_COLOR
350
1053
  3
ACAD_GROUP
350
FFE
  3
ACAD_LAYOUT
350
1052
  3
ACAD_MATERIAL
350
1001
  3
ACAD_MLEADERSTYLE
350
1056
  3
ACAD_MLINESTYLE
350
104F
  3
ACAD_PLOTSETTINGS
350
1051
  3
ACAD_PLOTSTYLENAME
350
FFF
  3
ACAD_SCALELIST
350
1033
  3
ACAD_TABLESTYLE
350
1054
  3
ACAD_VISUALSTYLE
350
101A
  3
ACDB_RECOMPOSE_DATA
350
1D0C
  3
AcDbVariableDictionary
350
1269
  3
AcmDictionary
350
11EF
  3
AEC_PROPERTY_SET_DEFS
350
1413
  3
AMG
350
11CA
  3
AMGSNAPSETTINGS
350
1221
  0
DICTIONARY
  5
122E
330
FF9
100
AcDbDictionary
280
     1
281
     1
  0
DICTIONARY
  5
155F
330
FF3
100
AcDbDictionary
280
     1
281
     1
  3
ACAD_LAYERSTATES
360
1560
  0
DICTIONARY
  5
1228
330
1045
100
AcDbDictionary
280
     1
281
     1
  3
ADSK_XREC_LAYER_RECONCILED
360
1229
  0
DICTIONARY
  5
12F8
330
105C
100
AcDbDictionary
280
     1
281
     1
  3
ACAD_SORTENTS
360
12F9
  0
DICTIONARY
  5
1D0D
102
{ACAD_REACTORS
330
FFD
102
}
330
FFD
100
AcDbDictionary
281
     1
  3
DIMARCSYM
350
1D0E
  3
DIMLTEX1
350
1D10
  3
DIMLTEX2
350
1D11
  3
DIMLTYPE
350
1D0F
  0
XRECORD
  5
11C9
102
{ACAD_REACTORS
330
FFD
102
}
330
FFD
100
AcDbXrecord
280
     1
300
AMECH_PP
300
2012
300
PDSU_F_S
  0
DICTIONARY
  5
1053
102
{ACAD_REACTORS
330
FFD
102
}
330
FFD
100
AcDbDictionary
281
     1
  0
DICTIONARY
  5
FFE
102
{ACAD_REACTORS
330
FFD
102
}
330
FFD
100
AcDbDictionary
281
     1
  0
DICTIONARY
  5
1052
102
{ACAD_REACTORS
330
FFD
102
}
330
FFD
100
AcDbDictionary
281
     1
  3
Model
350
105F
  3
レイアウト1
350
105B
  0
DICTIONARY
  5
1001
102
{ACAD_REACTORS
330
FFD
102
}
330
FFD
100
AcDbDictionary
281
     1
  3
ByBlock
350
100A
  3
ByLayer
350
1002
  3
Global
350
1012
  0
DICTIONARY
  5
1056
102
{ACAD_REACTORS
330
FFD
102
}
330
FFD
100
AcDbDictionary
281
     1
  3
Standard
350
1057
  0
DICTIONARY
  5
104F
102
{ACAD_REACTORS
330
FFD
102
}
330
FFD
100
AcDbDictionary
281
     1
  3
Standard
350
1050
  0
DICTIONARY
  5
1051
102
{ACAD_REACTORS
330
FFD
102
}
330
FFD
100
AcDbDictionary
281
     1
  0
ACDBDICTIONARYWDFLT
  5
FFF
102
{ACAD_REACTORS
330
FFD
102
}
330
FFD
100
AcDbDictionary
281
     1
  3
Normal
350
1000
100
AcDbDictionaryWithDefault
340
1000
  0
DICTIONARY
  5
1033
102
{ACAD_REACTORS
330
FFD
102
}
330
FFD
100
AcDbDictionary
281
     1
  3
A0
350
1034
  3
A1
350
1035
  3
A2
350
1036
  3
A3
350
1037
  3
A4
350
1038
  3
A5
350
1039
  3
A6
350
103A
  3
A7
350
103B
  3
A8
350
103C
  3
A9
350
103D
  3
B0
350
103E
  3
B1
350
103F
  3
B2
350
1040
  3
B3
350
1041
  3
B4
350
1042
  3
B5
350
1043
  3
B6
350
1044
  0
DICTIONARY
  5
1054
102
{ACAD_REACTORS
330
FFD
102
}
330
FFD
100
AcDbDictionary
281
     1
  3
Standard
350
1055
  0
DICTIONARY
  5
101A
102
{ACAD_REACTORS
330
FFD
102
}
330
FFD
100
AcDbDictionary
281
     1
  3
2dWireframe
350
1020
  3
3D Hidden
350
1558
  3
3dWireframe
350
1557
  3
Basic
350
101F
  3
Brighten
350
1026
  3
ColorChange
350
102A
  3
Conceptual
350
1023
  3
Dim
350
1025
  3
EdgeColorOff
350
1032
  3
Facepattern
350
1029
  3
Flat
350
101B
  3
FlatWithEdges
350
101C
  3
Gouraud
350
101D
  3
GouraudWithEdges
350
101E
  3
Hidden
350
1022
  3
JitterOff
350
1030
  3
Linepattern
350
1028
  3
OverhangOff
350
1031
  3
Realistic
350
1024
  3
Shaded
350
102F
  3
Shaded with edges
350
102E
  3
Shades of Gray
350
102B
  3
Sketchy
350
102C
  3
Thicken
350
1027
  3
Wireframe
350
1021
  3
X-Ray
350
102D
  0
XRECORD
  5
1D0C
102
{ACAD_REACTORS
330
FFD
102
}
330
FFD
100
AcDbXrecord
280
     1
 90
        1
330
1055
  0
DICTIONARY
  5
1269
102
{ACAD_REACTORS
330
FFD
102
}
330
FFD
100
AcDbDictionary
281
     1
  3
CANNOSCALE
350
126C
  3
CMLEADERSTYLE
350
126B
  3
CTABLESTYLE
350
126A
  3
DIMASSOC
350
126F
  3
INDEXCTL
350
126E
  3
LAYEREVAL
350
1569
  3
LAYERNOTIFY
350
156A
  3
LIGHTINGUNITS
350
1568
  3
MSLTSCALE
350
1567
  3
SOLIDHIST
350
15E4
  3
SORTENTS
350
126D
  3
XCLIPFRAME
350
1D0A
  0
DICTIONARY
  5
11EF
102
{ACAD_REACTORS
330
FFD
102
}
330
FFD
100
AcDbDictionary
281
     1
  3
AcmStdDictionary
350
11F8
  0
DICTIONARY
  5
1413
102
{ACAD_REACTORS
330
FFD
102
}
330
FFD
100
AcDbDictionary
281
     1
  0
DICTIONARY
  5
11CA
102
{ACAD_REACTORS
330
FFD
102
}
330
FFD
100
AcDbDictionary
281
     1
  0
DICTIONARY
  5
1221
102
{ACAD_REACTORS
330
FFD
102
}
330
FFD
100
AcDbDictionary
281
     1
  0
DICTIONARY
  5
1560
102
{ACAD_REACTORS
330
155F
102
}
330
155F
100
AcDbDictionary
281
     1
  0
XRECORD
  5
1229
102
{ACAD_REACTORS
330
1228
102
}
330
1228
100
AcDbXrecord
280
     1
290
     1
  0
SORTENTSTABLE
  5
12F9
102
{ACAD_REACTORS
330
12F8
102
}
330
12F8
100
AcDbSortentsTable
330
105C
  0
XRECORD
  5
1D0E
102
{ACAD_REACTORS
330
1D0D
102
}
330
1D0D
100
AcDbXrecord
280
     1
 70
     1
  0
XRECORD
  5
1D10
102
{ACAD_REACTORS
330
1D0D
102
}
330
1D0D
100
AcDbXrecord
280
     1
340
104B
  0
XRECORD
  5
1D11
102
{ACAD_REACTORS
330
1D0D
102
}
330
1D0D
100
AcDbXrecord
280
     1
340
104B
  0
XRECORD
  5
1D0F
102
{ACAD_REACTORS
330
1D0D
102
}
330
1D0D
100
AcDbXrecord
280
     1
340
104B
  0
LAYOUT
  5
105F
102
{ACAD_XDICTIONARY
360
1565
102
}
102
{ACAD_REACTORS
330
1052
102
}
330
1052
100
AcDbPlotSettings
  1

  2
iR C4580
  4

  6

 40
0.0
 41
0.0
 42
0.0
 43
0.0
 44
0.0
 45
0.0
 46
0.0
 47
0.0
 48
0.0
 49
0.0
140
0.0
141
0.0
142
1.0
143
1.0
 70
  1712
 72
     0
 73
     0
 74
     0
  7

 75
     0
147
1.0
 76
     0
 77
     2
 78
   300
148
0.0
149
0.0
100
AcDbLayout
  1
Model
 70
     1
 71
     0
 10
0.0
 20
0.0
 11
12.0
 21
9.0
 12
0.0
 22
0.0
 32
0.0
 14
0.0
 24
0.0
 34
0.0
 15
0.0
 25
0.0
 35
0.0
146
0.0
 13
0.0
 23
0.0
 33
0.0
 16
1.0
 26
0.0
 36
0.0
 17
0.0
 27
1.0
 37
0.0
 76
     0
330
105C
331
1060
  0
LAYOUT
  5
105B
102
{ACAD_REACTORS
330
1052
102
}
330
1052
100
AcDbPlotSettings
  1

  2
iR C4580
  4

  6

 40
0.0
 41
0.0
 42
0.0
 43
0.0
 44
0.0
 45
0.0
 46
0.0
 47
0.0
 48
0.0
 49
0.0
140
0.0
141
0.0
142
1.0
143
1.0
 70
   688
 72
     0
 73
     0
 74
     5
  7

 75
    16
147
1.0
 76
     0
 77
     2
 78
   300
148
0.0
149
0.0
100
AcDbLayout
  1
レイアウト1
 70
     1
 71
     1
 10
-584.0
 20
0.0
 11
0.0
 21
588.9623999834062
 12
0.0
 22
0.0
 32
0.0
 14
1.000000000000000E+20
 24
1.000000000000000E+20
 34
1.000000000000000E+20
 15
-1.000000000000000E+20
 25
-1.000000000000000E+20
 35
-1.000000000000000E+20
146
0.0
 13
0.0
 23
0.0
 33
0.0
 16
1.0
 26
0.0
 36
0.0
 17
0.0
 27
1.0
 37
0.0
 76
     0
330
1058
  0
MATERIAL
  5
100A
102
{ACAD_XDICTIONARY
360
100B
102
}
102
{ACAD_REACTORS
330
1001
102
}
330
1001
100
AcDbMaterial
  1
ByBlock
 72
     0
 43
0.0208333333333333
 43
0.0
 43
0.0
 43
0.0
 43
0.0
 43
0.0208333333333333
 43
0.0
 43
0.0
 43
0.0
 43
0.0
 43
1.0
 43
0.0
 43
0.0
 43
0.0
 43
0.0
 43
1.0
 77
     0
 47
0.0208333333333333
 47
0.0
 47
0.0
 47
0.0
 47
0.0
 47
0.0208333333333333
 47
0.0
 47
0.0
 47
0.0
 47
0.0
 47
1.0
 47
0.0
 47
0.0
 47
0.0
 47
0.0
 47
1.0
171
     0
 49
0.0208333333333333
 49
0.0
 49
0.0
 49
0.0
 49
0.0
 49
0.0208333333333333
 49
0.0
 49
0.0
 49
0.0
 49
0.0
 49
1.0
 49
0.0
 49
0.0
 49
0.0
 49
0.0
 49
1.0
175
     0
142
0.0208333333333333
142
0.0
142
0.0
142
0.0
142
0.0
142
0.0208333333333333
142
0.0
142
0.0
142
0.0
142
0.0
142
1.0
142
0.0
142
0.0
142
0.0
142
0.0
142
1.0
179
     0
144
0.0208333333333333
144
0.0
144
0.0
144
0.0
144
0.0
144
0.0208333333333333
144
0.0
144
0.0
144
0.0
144
0.0
144
1.0
144
0.0
144
0.0
144
0.0
144
0.0
144
1.0
147
0.0208333333333333
147
0.0
147
0.0
147
0.0
147
0.0
147
0.0208333333333333
147
0.0
147
0.0
147
0.0
147
0.0
147
1.0
147
0.0
147
0.0
147
0.0
147
0.0
147
1.0
  0
MATERIAL
  5
1002
102
{ACAD_XDICTIONARY
360
1003
102
}
102
{ACAD_REACTORS
330
1001
102
}
330
1001
100
AcDbMaterial
  1
ByLayer
 72
     0
 43
0.0208333333333333
 43
0.0
 43
0.0
 43
0.0
 43
0.0
 43
0.0208333333333333
 43
0.0
 43
0.0
 43
0.0
 43
0.0
 43
1.0
 43
0.0
 43
0.0
 43
0.0
 43
0.0
 43
1.0
 77
     0
 47
0.0208333333333333
 47
0.0
 47
0.0
 47
0.0
 47
0.0
 47
0.0208333333333333
 47
0.0
 47
0.0
 47
0.0
 47
0.0
 47
1.0
 47
0.0
 47
0.0
 47
0.0
 47
0.0
 47
1.0
171
     0
 49
0.0208333333333333
 49
0.0
 49
0.0
 49
0.0
 49
0.0
 49
0.0208333333333333
 49
0.0
 49
0.0
 49
0.0
 49
0.0
 49
1.0
 49
0.0
 49
0.0
 49
0.0
 49
0.0
 49
1.0
175
     0
142
0.0208333333333333
142
0.0
142
0.0
142
0.0
142
0.0
142
0.0208333333333333
142
0.0
142
0.0
142
0.0
142
0.0
142
1.0
142
0.0
142
0.0
142
0.0
142
0.0
142
1.0
179
     0
144
0.0208333333333333
144
0.0
144
0.0
144
0.0
144
0.0
144
0.0208333333333333
144
0.0
144
0.0
144
0.0
144
0.0
144
1.0
144
0.0
144
0.0
144
0.0
144
0.0
144
1.0
147
0.0208333333333333
147
0.0
147
0.0
147
0.0
147
0.0
147
0.0208333333333333
147
0.0
147
0.0
147
0.0
147
0.0
147
1.0
147
0.0
147
0.0
147
0.0
147
0.0
147
1.0
  0
MATERIAL
  5
1012
102
{ACAD_XDICTIONARY
360
1013
102
}
102
{ACAD_REACTORS
330
1001
102
}
330
1001
100
AcDbMaterial
  1
Global
 72
     0
 43
0.0208333333333333
 43
0.0
 43
0.0
 43
0.0
 43
0.0
 43
0.0208333333333333
 43
0.0
 43
0.0
 43
0.0
 43
0.0
 43
1.0
 43
0.0
 43
0.0
 43
0.0
 43
0.0
 43
1.0
 77
     0
 47
0.0208333333333333
 47
0.0
 47
0.0
 47
0.0
 47
0.0
 47
0.0208333333333333
 47
0.0
 47
0.0
 47
0.0
 47
0.0
 47
1.0
 47
0.0
 47
0.0
 47
0.0
 47
0.0
 47
1.0
171
     0
 49
0.0208333333333333
 49
0.0
 49
0.0
 49
0.0
 49
0.0
 49
0.0208333333333333
 49
0.0
 49
0.0
 49
0.0
 49
0.0
 49
1.0
 49
0.0
 49
0.0
 49
0.0
 49
0.0
 49
1.0
175
     0
142
0.0208333333333333
142
0.0
142
0.0
142
0.0
142
0.0
142
0.0208333333333333
142
0.0
142
0.0
142
0.0
142
0.0
142
1.0
142
0.0
142
0.0
142
0.0
142
0.0
142
1.0
179
     0
144
0.0208333333333333
144
0.0
144
0.0
144
0.0
144
0.0
144
0.0208333333333333
144
0.0
144
0.0
144
0.0
144
0.0
144
1.0
144
0.0
144
0.0
144
0.0
144
0.0
144
1.0
147
0.0208333333333333
147
0.0
147
0.0
147
0.0
147
0.0
147
0.0208333333333333
147
0.0
147
0.0
147
0.0
147
0.0
147
1.0
147
0.0
147
0.0
147
0.0
147
0.0
147
1.0
  0
MLEADERSTYLE
  5
1057
102
{ACAD_REACTORS
330
1056
102
}
330
1056
100
AcDbMLeaderStyle
170
     2
171
     1
172
     0
 90
        2
 40
0.0
 41
0.0
173
     1
 91
-1056964608
340
104B
 92
       -2
290
     1
 42
0.09
291
     1
 43
0.36
  3
Standard
 44
0.18
300

342
1046
174
     1
178
     6
175
     1
176
     0
 93
-1056964608
 45
0.18
292
     0
297
     0
 46
0.18
 94
-1056964608
 47
1.0
 49
1.0
140
1.0
293
     1
141
0.0
294
     1
177
     0
142
1.0
295
     0
296
     0
143
0.125
1001
ACAD_MLEADERVER
1070
     2
  0
MLINESTYLE
  5
1050
102
{ACAD_REACTORS
330
104F
102
}
330
104F
100
AcDbMlineStyle
  2
STANDARD
 70
     0
  3

 62
   256
 51
90.0
 52
90.0
 71
     2
 49
0.5
 62
   256
  6
BYLAYER
 49
-0.5
 62
   256
  6
BYLAYER
  0
ACDBPLACEHOLDER
  5
1000
102
{ACAD_REACTORS
330
FFF
102
}
330
FFF
  0
SCALE
  5
1034
102
{ACAD_REACTORS
330
1033
102
}
330
1033
100
AcDbScale
 70
     0
300
1:1
140
1.0
141
1.0
290
     1
  0
SCALE
  5
1035
102
{ACAD_REACTORS
330
1033
102
}
330
1033
100
AcDbScale
 70
     0
300
1/128" = 1'-0"
140
0.0078125
141
12.0
290
     0
  0
SCALE
  5
1036
102
{ACAD_REACTORS
330
1033
102
}
330
1033
100
AcDbScale
 70
     0
300
1/64" = 1'-0"
140
0.015625
141
12.0
290
     0
  0
SCALE
  5
1037
102
{ACAD_REACTORS
330
1033
102
}
330
1033
100
AcDbScale
 70
     0
300
1/32" = 1'-0"
140
0.03125
141
12.0
290
     0
  0
SCALE
  5
1038
102
{ACAD_REACTORS
330
1033
102
}
330
1033
100
AcDbScale
 70
     0
300
1/16" = 1'-0"
140
0.0625
141
12.0
290
     0
  0
SCALE
  5
1039
102
{ACAD_REACTORS
330
1033
102
}
330
1033
100
AcDbScale
 70
     0
300
3/32" = 1'-0"
140
0.09375
141
12.0
290
     0
  0
SCALE
  5
103A
102
{ACAD_REACTORS
330
1033
102
}
330
1033
100
AcDbScale
 70
     0
300
1/8" = 1'-0"
140
0.125
141
12.0
290
     0
  0
SCALE
  5
103B
102
{ACAD_REACTORS
330
1033
102
}
330
1033
100
AcDbScale
 70
     0
300
3/16" = 1'-0"
140
0.1875
141
12.0
290
     0
  0
SCALE
  5
103C
102
{ACAD_REACTORS
330
1033
102
}
330
1033
100
AcDbScale
 70
     0
300
1/4" = 1'-0"
140
0.25
141
12.0
290
     0
  0
SCALE
  5
103D
102
{ACAD_REACTORS
330
1033
102
}
330
1033
100
AcDbScale
 70
     0
300
3/8" = 1'-0"
140
0.375
141
12.0
290
     0
  0
SCALE
  5
103E
102
{ACAD_REACTORS
330
1033
102
}
330
1033
100
AcDbScale
 70
     0
300
1/2" = 1'-0"
140
0.5
141
12.0
290
     0
  0
SCALE
  5
103F
102
{ACAD_REACTORS
330
1033
102
}
330
1033
100
AcDbScale
 70
     0
300
3/4" = 1'-0"
140
0.75
141
12.0
290
     0
  0
SCALE
  5
1040
102
{ACAD_REACTORS
330
1033
102
}
330
1033
100
AcDbScale
 70
     0
300
1" = 1'-0"
140
1.0
141
12.0
290
     0
  0
SCALE
  5
1041
102
{ACAD_REACTORS
330
1033
102
}
330
1033
100
AcDbScale
 70
     0
300
1-1/2" = 1'-0"
140
1.5
141
12.0
290
     0
  0
SCALE
  5
1042
102
{ACAD_REACTORS
330
1033
102
}
330
1033
100
AcDbScale
 70
     0
300
3" = 1'-0"
140
3.0
141
12.0
290
     0
  0
SCALE
  5
1043
102
{ACAD_REACTORS
330
1033
102
}
330
1033
100
AcDbScale
 70
     0
300
6" = 1'-0"
140
6.0
141
12.0
290
     0
  0
SCALE
  5
1044
102
{ACAD_REACTORS
330
1033
102
}
330
1033
100
AcDbScale
 70
     0
300
1'-0" = 1'-0"
140
12.0
141
12.0
290
     0
  0
TABLESTYLE
  5
1055
102
{ACAD_XDICTIONARY
360
122A
102
}
102
{ACAD_REACTORS
330
1054
102
}
330
1054
100
AcDbTableStyle
  3
Standard
 70
     0
 71
     0
 40
0.06
 41
0.06
280
     0
281
     0
  7
STANDARD
140
0.18
170
     2
 62
     0
 63
     7
283
     0
274
    -2
284
     1
 64
     0
275
    -2
285
     1
 65
     0
276
    -2
286
     1
 66
     0
277
    -2
287
     1
 67
     0
278
    -2
288
     1
 68
     0
279
    -2
289
     1
 69
     0
  7
STANDARD
140
0.25
170
     5
 62
     0
 63
     7
283
     0
274
    -2
284
     1
 64
     0
275
    -2
285
     1
 65
     0
276
    -2
286
     1
 66
     0
277
    -2
287
     1
 67
     0
278
    -2
288
     1
 68
     0
279
    -2
289
     1
 69
     0
  7
STANDARD
140
0.18
170
     5
 62
     0
 63
     7
283
     0
274
    -2
284
     1
 64
     0
275
    -2
285
     1
 65
     0
276
    -2
286
     1
 66
     0
277
    -2
287
     1
 67
     0
278
    -2
288
     1
 68
     0
279
    -2
289
     1
 69
     0
  0
VISUALSTYLE
  5
1020
102
{ACAD_XDICTIONARY
360
1CBC
102
}
102
{ACAD_REACTORS
330
101A
102
}
330
101A
100
AcDbVisualStyle
  2
2dWireframe
 70
     4
 71
     0
 72
     2
 73
     0
 90
        0
 40
-0.6
 41
-30.0
 62
     5
 63
     7
 74
     1
 91
        4
 64
     7
 65
   257
 75
     1
175
     1
 42
1.0
 92
        0
 66
   257
 43
1.0
 76
     1
 77
     6
 78
     2
 67
     7
 79
     5
170
     0
171
     0
290
     0
174
     0
 93
        1
 44
0.0
173
     0
291
     0
 45
0.0
1001
ACAD
1000
AcDbSavedByObjectVersion
1070
     0
  0
VISUALSTYLE
  5
1558
102
{ACAD_XDICTIONARY
360
1CE8
102
}
102
{ACAD_REACTORS
330
101A
102
}
330
101A
100
AcDbVisualStyle
  2
3D Hidden
 70
     6
 71
     1
 72
     2
 73
     2
 90
        0
 40
-0.6
 41
-30.0
 62
     5
 63
     7
 74
     2
 91
        2
 64
     7
 65
   257
 75
     2
175
     1
 42
179.0
 92
        0
 66
   257
 43
1.0
 76
     1
 77
     6
 78
     2
 67
     7
 79
     3
170
     0
171
     0
290
     0
174
     0
 93
        1
 44
0.0
173
     0
291
     0
 45
0.0
1001
ACAD
1000
AcDbSavedByObjectVersion
1070
     0
  0
VISUALSTYLE
  5
1557
102
{ACAD_XDICTIONARY
360
1CE6
102
}
102
{ACAD_REACTORS
330
101A
102
}
330
101A
100
AcDbVisualStyle
  2
3dWireframe
 70
     5
 71
     0
 72
     2
 73
     0
 90
        0
 40
-0.6
 41
-30.0
 62
     5
 63
     7
 74
     1
 91
        4
 64
     7
 65
   257
 75
     1
175
     1
 42
1.0
 92
        0
 66
   257
 43
1.0
 76
     1
 77
     6
 78
     2
 67
     7
 79
     5
170
     0
171
     0
290
     0
174
     0
 93
        1
 44
0.0
173
     0
291
     0
 45
0.0
1001
ACAD
1000
AcDbSavedByObjectVersion
1070
     0
  0
VISUALSTYLE
  5
101F
102
{ACAD_XDICTIONARY
360
1CBA
102
}
102
{ACAD_REACTORS
330
101A
102
}
330
101A
100
AcDbVisualStyle
  2
Basic
 70
     7
 71
     1
 72
     0
 73
     1
 90
        0
 40
-0.6
 41
-30.0
 62
     5
 63
     7
 74
     0
 91
        4
 64
     7
 65
   257
 75
     1
175
     1
 42
1.0
 92
        8
 66
     7
 43
1.0
 76
     1
 77
     6
 78
     2
 67
     7
 79
     5
170
     0
171
     0
290
     0
174
     0
 93
        1
 44
0.0
173
     0
291
     1
 45
0.0
1001
ACAD
1000
AcDbSavedByObjectVersion
1070
     0
  0
VISUALSTYLE
  5
1026
102
{ACAD_XDICTIONARY
360
1CC8
102
}
102
{ACAD_REACTORS
330
101A
102
}
330
101A
100
AcDbVisualStyle
  2
Brighten
 70
    12
 71
     2
 72
     2
 73
     0
 90
        0
 40
-0.6
 41
-30.0
 62
     5
 63
     7
 74
     1
 91
        4
 64
     7
 65
   257
 75
     1
175
     1
 42
1.0
 92
        8
 66
     7
 43
1.0
 76
     1
 77
     6
 78
     2
 67
     7
 79
     5
170
     0
171
     0
290
     0
174
     0
 93
        1
 44
50.0
173
     0
291
     1
 45
0.0
1001
ACAD
1000
AcDbSavedByObjectVersion
1070
     0
  0
VISUALSTYLE
  5
102A
102
{ACAD_XDICTIONARY
360
1CD0
102
}
102
{ACAD_REACTORS
330
101A
102
}
330
101A
100
AcDbVisualStyle
  2
ColorChange
 70
    16
 71
     2
 72
     2
 73
     3
 90
        0
 40
-0.6
 41
-30.0
 62
     5
 63
     8
 74
     1
 91
        4
 64
     7
 65
   257
 75
     1
175
     1
 42
1.0
 92
        8
 66
     8
 43
1.0
 76
     1
 77
     6
 78
     2
 67
     7
 79
     5
170
     0
171
     0
290
     0
174
     0
 93
        1
 44
0.0
173
     0
291
     1
 45
0.0
1001
ACAD
1000
AcDbSavedByObjectVersion
1070
     0
  0
VISUALSTYLE
  5
1023
102
{ACAD_XDICTIONARY
360
1CC2
102
}
102
{ACAD_REACTORS
330
101A
102
}
330
101A
100
AcDbVisualStyle
  2
Conceptual
 70
     9
 71
     3
 72
     2
 73
     0
 90
        0
 40
-0.6
 41
-30.0
 62
     5
 63
     7
 74
     2
 91
        2
 64
     7
 65
   257
 75
     1
175
     1
 42
179.0
 92
        8
 66
     7
 43
1.0
 76
     1
 77
     6
 78
     2
 67
     7
 79
     3
170
     0
171
     0
290
     0
174
     0
 93
        1
 44
0.0
173
     0
291
     0
 45
0.0
1001
ACAD
1000
AcDbSavedByObjectVersion
1070
     0
  0
VISUALSTYLE
  5
1025
102
{ACAD_XDICTIONARY
360
1CC6
102
}
102
{ACAD_REACTORS
330
101A
102
}
330
101A
100
AcDbVisualStyle
  2
Dim
 70
    11
 71
     2
 72
     2
 73
     0
 90
        0
 40
-0.6
 41
-30.0
 62
     5
 63
     7
 74
     1
 91
        4
 64
     7
 65
   257
 75
     1
175
     1
 42
1.0
 92
        8
 66
     7
 43
1.0
 76
     1
 77
     6
 78
     2
 67
     7
 79
     5
170
     0
171
     0
290
     0
174
     0
 93
        1
 44
-50.0
173
     0
291
     1
 45
0.0
1001
ACAD
1000
AcDbSavedByObjectVersion
1070
     0
  0
VISUALSTYLE
  5
1032
102
{ACAD_XDICTIONARY
360
1CE0
102
}
102
{ACAD_REACTORS
330
101A
102
}
330
101A
100
AcDbVisualStyle
  2
EdgeColorOff
 70
    22
 71
     2
 72
     2
 73
     0
 90
        0
 40
-0.6
 41
-30.0
 62
     5
 63
     7
 74
     1
 91
        4
 64
     7
 65
   257
 75
     1
175
     1
 42
1.0
 92
        8
 66
     7
 43
1.0
 76
     1
 77
     6
 78
     2
 67
     7
 79
     5
170
     0
171
     0
290
     0
174
     0
 93
        1
 44
0.0
173
     0
291
     1
 45
0.0
1001
ACAD
1000
AcDbSavedByObjectVersion
1070
     0
  0
VISUALSTYLE
  5
1029
102
{ACAD_XDICTIONARY
360
1CCE
102
}
102
{ACAD_REACTORS
330
101A
102
}
330
101A
100
AcDbVisualStyle
  2
Facepattern
 70
    15
 71
     2
 72
     2
 73
     0
 90
        0
 40
-0.6
 41
-30.0
 62
     5
 63
     7
 74
     1
 91
        4
 64
     7
 65
   257
 75
     1
175
     1
 42
1.0
 92
        8
 66
     7
 43
1.0
 76
     1
 77
     6
 78
     2
 67
     7
 79
     5
170
     0
171
     0
290
     0
174
     0
 93
        1
 44
0.0
173
     0
291
     1
 45
0.0
1001
ACAD
1000
AcDbSavedByObjectVersion
1070
     0
  0
VISUALSTYLE
  5
101B
102
{ACAD_XDICTIONARY
360
1CB2
102
}
102
{ACAD_REACTORS
330
101A
102
}
330
101A
100
AcDbVisualStyle
  2
Flat
 70
     0
 71
     2
 72
     1
 73
     1
 90
        2
 40
-0.6
 41
30.0
 62
     5
 63
     7
 74
     0
 91
        0
 64
     7
 65
   257
 75
     1
175
     1
 42
1.0
 92
        8
 66
     7
 43
1.0
 76
     1
 77
     6
 78
     2
 67
     7
 79
     5
170
     0
171
     0
290
     0
174
     0
 93
       13
 44
0.0
173
     0
291
     1
 45
0.0
1001
ACAD
1000
AcDbSavedByObjectVersion
1070
     0
  0
VISUALSTYLE
  5
101C
102
{ACAD_XDICTIONARY
360
1CB4
102
}
102
{ACAD_REACTORS
330
101A
102
}
330
101A
100
AcDbVisualStyle
  2
FlatWithEdges
 70
     1
 71
     2
 72
     1
 73
     1
 90
        2
 40
-0.6
 41
30.0
 62
     5
 63
     7
 74
     1
 91
        0
 64
     7
 65
   257
 75
     1
175
     1
 42
1.0
 92
        0
 66
   257
 43
1.0
 76
     1
 77
     6
 78
     2
 67
     7
 79
     5
170
     0
171
     0
290
     0
174
     0
 93
       13
 44
0.0
173
     0
291
     1
 45
0.0
1001
ACAD
1000
AcDbSavedByObjectVersion
1070
     0
  0
VISUALSTYLE
  5
101D
102
{ACAD_XDICTIONARY
360
1CB6
102
}
102
{ACAD_REACTORS
330
101A
102
}
330
101A
100
AcDbVisualStyle
  2
Gouraud
 70
     2
 71
     2
 72
     2
 73
     1
 90
        2
 40
-0.6
 41
30.0
 62
     5
 63
     7
 74
     0
 91
        0
 64
     7
 65
   257
 75
     1
175
     1
 42
1.0
 92
        0
 66
     7
 43
1.0
 76
     1
 77
     6
 78
     2
 67
     7
 79
     5
170
     0
171
     0
290
     0
174
     0
 93
       13
 44
0.0
173
     0
291
     1
 45
0.0
1001
ACAD
1000
AcDbSavedByObjectVersion
1070
     0
  0
VISUALSTYLE
  5
101E
102
{ACAD_XDICTIONARY
360
1CB8
102
}
102
{ACAD_REACTORS
330
101A
102
}
330
101A
100
AcDbVisualStyle
  2
GouraudWithEdges
 70
     3
 71
     2
 72
     2
 73
     1
 90
        2
 40
-0.6
 41
30.0
 62
     5
 63
     7
 74
     1
 91
        0
 64
     7
 65
   257
 75
     1
175
     1
 42
1.0
 92
        0
 66
   257
 43
1.0
 76
     1
 77
     6
 78
     2
 67
     7
 79
     5
170
     0
171
     0
290
     0
174
     0
 93
       13
 44
0.0
173
     0
291
     1
 45
0.0
1001
ACAD
1000
AcDbSavedByObjectVersion
1070
     0
  0
VISUALSTYLE
  5
1022
102
{ACAD_XDICTIONARY
360
1CC0
102
}
102
{ACAD_REACTORS
330
101A
102
}
330
101A
100
AcDbVisualStyle
  2
Hidden
 70
     6
 71
     1
 72
     2
 73
     2
 90
        0
 40
-0.6
 41
-30.0
 62
     5
 63
     7
 74
     2
 91
        2
 64
     7
 65
   257
 75
     2
175
     1
 42
40.0
 92
        0
 66
   257
 43
1.0
 76
     1
 77
     6
 78
     2
 67
     7
 79
     3
170
     0
171
     0
290
     0
174
     0
 93
        1
 44
0.0
173
     0
291
     0
 45
0.0
1001
ACAD
1000
AcDbSavedByObjectVersion
1070
     0
  0
VISUALSTYLE
  5
1030
102
{ACAD_XDICTIONARY
360
1CDC
102
}
102
{ACAD_REACTORS
330
101A
102
}
330
101A
100
AcDbVisualStyle
  2
JitterOff
 70
    20
 71
     2
 72
     2
 73
     0
 90
        0
 40
-0.6
 41
-30.0
 62
     5
 63
     7
 74
     1
 91
        4
 64
     7
 65
   257
 75
     1
175
     1
 42
1.0
 92
       10
 66
     7
 43
1.0
 76
     1
 77
     6
 78
     2
 67
     7
 79
     5
170
     0
171
     0
290
     0
174
     0
 93
        1
 44
0.0
173
     0
291
     1
 45
0.0
1001
ACAD
1000
AcDbSavedByObjectVersion
1070
     0
  0
VISUALSTYLE
  5
1028
102
{ACAD_XDICTIONARY
360
1CCC
102
}
102
{ACAD_REACTORS
330
101A
102
}
330
101A
100
AcDbVisualStyle
  2
Linepattern
 70
    14
 71
     2
 72
     2
 73
     0
 90
        0
 40
-0.6
 41
-30.0
 62
     5
 63
     7
 74
     1
 91
        4
 64
     7
 65
   257
 75
     7
175
     7
 42
1.0
 92
        8
 66
     7
 43
1.0
 76
     1
 77
     6
 78
     2
 67
     7
 79
     5
170
     0
171
     0
290
     0
174
     0
 93
        1
 44
0.0
173
     0
291
     1
 45
0.0
1001
ACAD
1000
AcDbSavedByObjectVersion
1070
     0
  0
VISUALSTYLE
  5
1031
102
{ACAD_XDICTIONARY
360
1CDE
102
}
102
{ACAD_REACTORS
330
101A
102
}
330
101A
100
AcDbVisualStyle
  2
OverhangOff
 70
    21
 71
     2
 72
     2
 73
     0
 90
        0
 40
-0.6
 41
-30.0
 62
     5
 63
     7
 74
     1
 91
        4
 64
     7
 65
   257
 75
     1
175
     1
 42
1.0
 92
        9
 66
     7
 43
1.0
 76
     1
 77
     6
 78
     2
 67
     7
 79
     5
170
     0
171
     0
290
     0
174
     0
 93
        1
 44
0.0
173
     0
291
     1
 45
0.0
1001
ACAD
1000
AcDbSavedByObjectVersion
1070
     0
  0
VISUALSTYLE
  5
1024
102
{ACAD_XDICTIONARY
360
1CC4
102
}
102
{ACAD_REACTORS
330
101A
102
}
330
101A
100
AcDbVisualStyle
  2
Realistic
 70
     8
 71
     2
 72
     2
 73
     0
 90
        2
 40
-0.6
 41
30.0
 62
     5
 63
     7
 74
     0
 91
        0
 64
     7
 65
   257
 75
     1
175
     1
 42
1.0
 92
        8
 66
   257
 43
1.0
 76
     1
 77
     6
 78
     2
 67
     7
 79
     3
170
     0
171
     0
290
     0
174
     0
 93
       13
 44
0.0
173
     0
291
     0
 45
0.0
1001
ACAD
1000
AcDbSavedByObjectVersion
1070
     0
  0
VISUALSTYLE
  5
102F
102
{ACAD_XDICTIONARY
360
1CDA
102
}
102
{ACAD_REACTORS
330
101A
102
}
330
101A
100
AcDbVisualStyle
  2
Shaded
 70
    27
 71
     2
 72
     2
 73
     1
 90
        2
 40
-0.6
 41
30.0
 62
     5
 63
     7
 74
     0
 91
        4
 64
     7
 65
   257
 75
     1
175
     1
 42
1.0
 92
        8
 66
   257
 43
1.0
 76
     1
 77
     6
 78
     2
 67
     8
 79
     3
170
     0
171
     0
290
     0
174
     0
 93
        5
 44
0.0
173
     0
291
     0
 45
0.0
1001
ACAD
1000
AcDbSavedByObjectVersion
1070
     0
  0
VISUALSTYLE
  5
102E
102
{ACAD_XDICTIONARY
360
1CD8
102
}
102
{ACAD_REACTORS
330
101A
102
}
330
101A
100
AcDbVisualStyle
  2
Shaded with edges
 70
    26
 71
     2
 72
     2
 73
     1
 90
        2
 40
-0.6
 41
30.0
 62
     5
 63
     7
 74
     1
 91
       10
 64
     7
 65
   257
 75
     2
175
     1
 42
1.0
 92
        8
 66
   257
 43
1.0
 76
     1
 77
     6
 78
     2
 67
     7
 79
     3
170
     0
171
     0
290
     0
174
     0
 93
        5
 44
0.0
173
     0
291
     0
 45
0.0
1001
ACAD
1000
AcDbSavedByObjectVersion
1070
     0
  0
VISUALSTYLE
  5
102B
102
{ACAD_XDICTIONARY
360
1CD2
102
}
102
{ACAD_REACTORS
330
101A
102
}
330
101A
100
AcDbVisualStyle
  2
Shades of Gray
 70
    23
 71
     2
 72
     2
 73
     3
 90
        0
 40
-0.6
 41
-30.0
 62
     5
 63
     7
 74
     2
 91
        2
 64
     7
 65
     7
 75
     1
175
     1
 42
40.0
 92
        8
 66
     7
 43
1.0
 76
     1
 77
     6
 78
     2
 67
     7
 79
     3
170
     0
171
     0
290
     0
174
     0
 93
        1
 44
0.0
173
     0
291
     0
 45
0.0
1001
ACAD
1000
AcDbSavedByObjectVersion
1070
     0
  0
VISUALSTYLE
  5
102C
102
{ACAD_XDICTIONARY
360
1CD4
102
}
102
{ACAD_REACTORS
330
101A
102
}
330
101A
100
AcDbVisualStyle
  2
Sketchy
 70
    24
 71
     1
 72
     2
 73
     2
 90
        0
 40
-0.6
 41
-30.0
 62
     5
 63
     7
 74
     2
 91
        2
 64
     7
 65
     7
 75
     1
175
     1
 42
40.0
 92
       11
 66
     7
 43
1.0
 76
     1
 77
     6
 78
     2
 67
     7
 79
     6
170
     0
171
     0
290
     0
174
     0
 93
        1
 44
0.0
173
     0
291
     0
 45
0.0
1001
ACAD
1000
AcDbSavedByObjectVersion
1070
     0
  0
VISUALSTYLE
  5
1027
102
{ACAD_XDICTIONARY
360
1CCA
102
}
102
{ACAD_REACTORS
330
101A
102
}
330
101A
100
AcDbVisualStyle
  2
Thicken
 70
    13
 71
     2
 72
     2
 73
     0
 90
        0
 40
-0.6
 41
-30.0
 62
     5
 63
     7
 74
     1
 91
        4
 64
     7
 65
   257
 75
     1
175
     1
 42
1.0
 92
       12
 66
     7
 43
1.0
 76
     1
 77
     6
 78
     2
 67
     7
 79
     5
170
     0
171
     0
290
     0
174
     0
 93
        1
 44
0.0
173
     0
291
     1
 45
0.0
1001
ACAD
1000
AcDbSavedByObjectVersion
1070
     0
  0
VISUALSTYLE
  5
1021
102
{ACAD_XDICTIONARY
360
1CBE
102
}
102
{ACAD_REACTORS
330
101A
102
}
330
101A
100
AcDbVisualStyle
  2
Wireframe
 70
     5
 71
     0
 72
     2
 73
     0
 90
        0
 40
-0.6
 41
-30.0
 62
     5
 63
     7
 74
     1
 91
        4
 64
     7
 65
   257
 75
     1
175
     1
 42
1.0
 92
        0
 66
   257
 43
1.0
 76
     1
 77
     6
 78
     2
 67
     7
 79
     3
170
     0
171
     0
290
     0
174
     0
 93
        1
 44
0.0
173
     0
291
     0
 45
0.0
1001
ACAD
1000
AcDbSavedByObjectVersion
1070
     0
  0
VISUALSTYLE
  5
102D
102
{ACAD_XDICTIONARY
360
1CD6
102
}
102
{ACAD_REACTORS
330
101A
102
}
330
101A
100
AcDbVisualStyle
  2
X-Ray
 70
    25
 71
     2
 72
     2
 73
     1
 90
        1
 40
0.5
 41
-30.0
 62
     5
 63
     7
 74
     1
 91
        0
 64
     7
 65
   257
 75
     1
175
     1
 42
1.0
 92
        8
 66
     7
 43
1.0
 76
     1
 77
     6
 78
     2
 67
     7
 79
     3
170
     0
171
     0
290
     0
174
     0
 93
       13
 44
0.0
173
     0
291
     0
 45
0.0
1001
ACAD
1000
AcDbSavedByObjectVersion
1070
     0
  0
DICTIONARYVAR
  5
126C
102
{ACAD_REACTORS
330
1269
102
}
330
1269
100
DictionaryVariables
280
     0
  1
1:1
  0
DICTIONARYVAR
  5
126B
102
{ACAD_REACTORS
330
1269
102
}
330
1269
100
DictionaryVariables
280
     0
  1
STANDARD
  0
DICTIONARYVAR
  5
126A
102
{ACAD_REACTORS
330
1269
102
}
330
1269
100
DictionaryVariables
280
     0
  1
STANDARD
  0
DICTIONARYVAR
  5
126F
102
{ACAD_REACTORS
330
1269
102
}
330
1269
100
DictionaryVariables
280
     0
  1
1
  0
DICTIONARYVAR
  5
126E
102
{ACAD_REACTORS
330
1269
102
}
330
1269
100
DictionaryVariables
280
     0
  1
0
  0
DICTIONARYVAR
  5
1569
102
{ACAD_REACTORS
330
1269
102
}
330
1269
100
DictionaryVariables
280
     0
  1
1
  0
DICTIONARYVAR
  5
156A
102
{ACAD_REACTORS
330
1269
102
}
330
1269
100
DictionaryVariables
280
     0
  1
15
  0
DICTIONARYVAR
  5
1568
102
{ACAD_REACTORS
330
1269
102
}
330
1269
100
DictionaryVariables
280
     0
  1
0
  0
DICTIONARYVAR
  5
1567
102
{ACAD_REACTORS
330
1269
102
}
330
1269
100
DictionaryVariables
280
     0
  1
0
  0
DICTIONARYVAR
  5
15E4
102
{ACAD_REACTORS
330
1269
102
}
330
1269
100
DictionaryVariables
280
     0
  1
1
  0
DICTIONARYVAR
  5
126D
102
{ACAD_REACTORS
330
1269
102
}
330
1269
100
DictionaryVariables
280
     0
  1
127
  0
DICTIONARYVAR
  5
1D0A
102
{ACAD_REACTORS
330
1269
102
}
330
1269
100
DictionaryVariables
280
     0
  1
2
  0
DICTIONARY
  5
11F8
102
{ACAD_REACTORS
330
11EF
102
}
330
11EF
100
AcDbDictionary
281
     1
  0
DICTIONARY
  5
1565
330
105F
100
AcDbDictionary
280
     1
281
     1
  3
ADSK_XREC_LAYOUTTHUMBNAIL
360
1566
  0
DICTIONARY
  5
100B
330
100A
100
AcDbDictionary
280
     1
281
     1
  3
ACAD_XREC_ROUNDTRIP
360
1D13
  3
BUMPTILE
360
100D
  3
DIFFUSETILE
360
100C
  3
OPACITYTILE
360
1010
  3
REFLECTIONTILE
360
100F
  3
REFRACTIONTILE
360
1011
  3
SPECULARTILE
360
100E
  0
DICTIONARY
  5
1003
330
1002
100
AcDbDictionary
280
     1
281
     1
  3
ACAD_XREC_ROUNDTRIP
360
1D12
  3
BUMPTILE
360
1005
  3
DIFFUSETILE
360
1004
  3
OPACITYTILE
360
1008
  3
REFLECTIONTILE
360
1007
  3
REFRACTIONTILE
360
1009
  3
SPECULARTILE
360
1006
  0
DICTIONARY
  5
1013
330
1012
100
AcDbDictionary
280
     1
281
     1
  3
ACAD_XREC_ROUNDTRIP
360
1D14
  3
BUMPTILE
360
1015
  3
DIFFUSETILE
360
1014
  3
OPACITYTILE
360
1018
  3
REFLECTIONTILE
360
1017
  3
REFRACTIONTILE
360
1019
  3
SPECULARTILE
360
1016
  0
DICTIONARY
  5
122A
330
1055
100
AcDbDictionary
280
     1
281
     1
  3
ACAD_ROUNDTRIP_2008_TABLESTYLE_CELLSTYLEMAP
360
1D0B
  3
ACAD_XREC_ROUNDTRIP
360
1D15
  0
DICTIONARY
  5
1CBC
330
1020
100
AcDbDictionary
280
     1
281
     1
  3
ACAD_XREC_ROUNDTRIP
360
1CBD
  0
DICTIONARY
  5
1CE8
330
1558
100
AcDbDictionary
280
     1
281
     1
  3
ACAD_XREC_ROUNDTRIP
360
1CE9
  0
DICTIONARY
  5
1CE6
330
1557
100
AcDbDictionary
280
     1
281
     1
  3
ACAD_XREC_ROUNDTRIP
360
1CE7
  0
DICTIONARY
  5
1CBA
330
101F
100
AcDbDictionary
280
     1
281
     1
  3
ACAD_XREC_ROUNDTRIP
360
1CBB
  0
DICTIONARY
  5
1CC8
330
1026
100
AcDbDictionary
280
     1
281
     1
  3
ACAD_XREC_ROUNDTRIP
360
1CC9
  0
DICTIONARY
  5
1CD0
330
102A
100
AcDbDictionary
280
     1
281
     1
  3
ACAD_XREC_ROUNDTRIP
360
1CD1
  0
DICTIONARY
  5
1CC2
330
1023
100
AcDbDictionary
280
     1
281
     1
  3
ACAD_XREC_ROUNDTRIP
360
1CC3
  0
DICTIONARY
  5
1CC6
330
1025
100
AcDbDictionary
280
     1
281
     1
  3
ACAD_XREC_ROUNDTRIP
360
1CC7
  0
DICTIONARY
  5
1CE0
330
1032
100
AcDbDictionary
280
     1
281
     1
  3
ACAD_XREC_ROUNDTRIP
360
1CE1
  0
DICTIONARY
  5
1CCE
330
1029
100
AcDbDictionary
280
     1
281
     1
  3
ACAD_XREC_ROUNDTRIP
360
1CCF
  0
DICTIONARY
  5
1CB2
330
101B
100
AcDbDictionary
280
     1
281
     1
  3
ACAD_XREC_ROUNDTRIP
360
1CB3
  0
DICTIONARY
  5
1CB4
330
101C
100
AcDbDictionary
280
     1
281
     1
  3
ACAD_XREC_ROUNDTRIP
360
1CB5
  0
DICTIONARY
  5
1CB6
330
101D
100
AcDbDictionary
280
     1
281
     1
  3
ACAD_XREC_ROUNDTRIP
360
1CB7
  0
DICTIONARY
  5
1CB8
330
101E
100
AcDbDictionary
280
     1
281
     1
  3
ACAD_XREC_ROUNDTRIP
360
1CB9
  0
DICTIONARY
  5
1CC0
330
1022
100
AcDbDictionary
280
     1
281
     1
  3
ACAD_XREC_ROUNDTRIP
360
1CC1
  0
DICTIONARY
  5
1CDC
330
1030
100
AcDbDictionary
280
     1
281
     1
  3
ACAD_XREC_ROUNDTRIP
360
1CDD
  0
DICTIONARY
  5
1CCC
330
1028
100
AcDbDictionary
280
     1
281
     1
  3
ACAD_XREC_ROUNDTRIP
360
1CCD
  0
DICTIONARY
  5
1CDE
330
1031
100
AcDbDictionary
280
     1
281
     1
  3
ACAD_XREC_ROUNDTRIP
360
1CDF
  0
DICTIONARY
  5
1CC4
330
1024
100
AcDbDictionary
280
     1
281
     1
  3
ACAD_XREC_ROUNDTRIP
360
1CC5
  0
DICTIONARY
  5
1CDA
330
102F
100
AcDbDictionary
280
     1
281
     1
  3
ACAD_XREC_ROUNDTRIP
360
1CDB
  0
DICTIONARY
  5
1CD8
330
102E
100
AcDbDictionary
280
     1
281
     1
  3
ACAD_XREC_ROUNDTRIP
360
1CD9
  0
DICTIONARY
  5
1CD2
330
102B
100
AcDbDictionary
280
     1
281
     1
  3
ACAD_XREC_ROUNDTRIP
360
1CD3
  0
DICTIONARY
  5
1CD4
330
102C
100
AcDbDictionary
280
     1
281
     1
  3
ACAD_XREC_ROUNDTRIP
360
1CD5
  0
DICTIONARY
  5
1CCA
330
1027
100
AcDbDictionary
280
     1
281
     1
  3
ACAD_XREC_ROUNDTRIP
360
1CCB
  0
DICTIONARY
  5
1CBE
330
1021
100
AcDbDictionary
280
     1
281
     1
  3
ACAD_XREC_ROUNDTRIP
360
1CBF
  0
DICTIONARY
  5
1CD6
330
102D
100
AcDbDictionary
280
     1
281
     1
  3
ACAD_XREC_ROUNDTRIP
360
1CD7
  0
XRECORD
  5
1566
102
{ACAD_REACTORS
330
1565
102
}
330
1565
100
AcDbXrecord
280
     1
310
28000000000100009B0000000100080000000000009B0000000000000000000000010000000000000000000000000000FFFFFF000000000000000000000000000000000000000000000000000000000000000000330000006600000099000000CC000000FF00000000330000333300006633000099330000CC330000FF3300
310
0000660000336600006666000099660000CC660000FF66000000990000339900006699000099990000CC990000FF99000000CC000033CC000066CC000099CC0000CCCC0000FFCC000000FF000033FF000066FF000099FF0000CCFF0000FFFF000000003300330033006600330099003300CC003300FF003300003333003333
310
33006633330099333300CC333300FF33330000663300336633006666330099663300CC663300FF66330000993300339933006699330099993300CC993300FF99330000CC330033CC330066CC330099CC3300CCCC3300FFCC330000FF330033FF330066FF330099FF3300CCFF3300FFFF330000006600330066006600660099
310
006600CC006600FF00660000336600333366006633660099336600CC336600FF33660000666600336666006666660099666600CC666600FF66660000996600339966006699660099996600CC996600FF99660000CC660033CC660066CC660099CC6600CCCC6600FFCC660000FF660033FF660066FF660099FF6600CCFF6600
310
FFFF660000009900330099006600990099009900CC009900FF00990000339900333399006633990099339900CC339900FF33990000669900336699006666990099669900CC669900FF66990000999900339999006699990099999900CC999900FF99990000CC990033CC990066CC990099CC9900CCCC9900FFCC990000FF99
310
0033FF990066FF990099FF9900CCFF9900FFFF99000000CC003300CC006600CC009900CC00CC00CC00FF00CC000033CC003333CC006633CC009933CC00CC33CC00FF33CC000066CC003366CC006666CC009966CC00CC66CC00FF66CC000099CC003399CC006699CC009999CC00CC99CC00FF99CC0000CCCC0033CCCC0066CC
310
CC0099CCCC00CCCCCC00FFCCCC0000FFCC0033FFCC0066FFCC0099FFCC00CCFFCC00FFFFCC000000FF003300FF006600FF009900FF00CC00FF00FF00FF000033FF003333FF006633FF009933FF00CC33FF00FF33FF000066FF003366FF006666FF009966FF00CC66FF00FF66FF000099FF003399FF006699FF009999FF00CC
310
99FF00FF99FF0000CCFF0033CCFF0066CCFF0099CCFF00CCCCFF00FFCCFF0000FFFF0033FFFF0066FFFF0099FFFF00CCFFFF00FFFFFF00000000000D0D0D001A1A1A00282828003535350043434300505050005D5D5D006B6B6B00787878008686860093939300A1A1A100AEAEAE00BBBBBB00C9C9C900D6D6D600E4E4E400
310
F1F1F100FFFFFF0000000000000000000000000000000000000000000000000000000000000000000000000000000000E2E2E2E2E2E2E2E2E2E2E2E2E2E2E2E2E2E2E2E2E2E2E2E2E2E2E2E2E2E2E2E2E2E2E2E2E2E2E2E2E2E2E2E2E2E2E2E2E2E2E2E2E2E2E2E2E2E2E2E2E2E2E2E2E2E2E2E2E2E2E2E2E2E2E2E2E2E2E2
310
E2E2E2E2E2E2E2E2E2E2E2E2E2E2E2E2E2E2E2E2E2E2E2E2E2E2E2E2E2E2E2E2E2E2E2E2E2E2E2E2E2E2E2E2E2E2E2E2E2E2E2E2E2E2E2E2E2E2E2E2E2E2E2E2E2E2E2E2E2E2E2E2E2E2E2E2E2E2E2E2E2E2E2E2E2E2E2E2E2E2E2E2E2E2E2E2E2E2E2E2E2E2E2E2E2E2E2E2E2E2E2E2E2E2E2E2E2E2E2E2E2E2E2E2E2E2E2
310
E2E2E2E2E2E2E2E2E2E2E2E2E2E2E2E2E2E2E2E2E2E2E2E2E2E2E2E2E2E2E2E2E2E2E2E2E2E2E2E2E2E2E2E2E2E2E2E2E2E2E2E2E2E2E2E2E2E2E2E2E2E2E2E2E2E2E2E2E2E2E2E2E2E2E2E2E2E2E2E2E2E2E2E2E2E2E2E2E2E2E2E2E2E2E2E2E2E2E2E2E2E2E2E2E2E2E2E2E2E2E2E2E2E2E2E2E2E2E2E2E2E2E2E2E2E2E2
310
E2E2E2E2E2E2E2E2E2E2E2E2E2E2E2E2E2E2E2E2E2E2E2E2E2E2E2E2E2E2E2E2E2E2E2E2E2E2E2E2E2E2E2E2E2E2E2E2E2E2E2E2E2E2E2E2E2E2E2E2E2E2E2E2E2E2E2E2E2E2E2E2E2E2E2E2E2E2E2E2E2E2E2E2E2E2E2E2E2E2E2E2E2E2E2E2E2E2E2E2E2E2E2E2E2E2E2E2E2E2E2E2E2E2E2E2E2E2E2E2E2E2E2E2E2E2E2
310
E2E2E2E2E2E2E2E2E2E2E2E2E2E2E2E2E2E2E2E2E2E2E2E2E2E2E2E2E2E2E2E2E2E2E2E2E2E2E2E2E2E2E2E2E2E2E2E2E2E2E2E2E2E2E2E2E2E2E2E2E2E2E2E2E2E2E2E2E2E2E2E2E2E2E2E2E2E2E2E2E2E2E2E2E2E2E2E2E2E2E2E2E2E2E2E2E2E2E2E2E2E2E2E2E2E2E2E2E2E2E2E2E2E2E2E2E2E2E2E2E2E2E2E2E2E2E2
310
E2E2E2E2E2E2E2E2E2E2E2E2E2E2E2E2E2E2E2E2E2E2E2E2E2E2E2E2E2E2E2E2E2E2E2E2E2E2E2E2E2E2E2E2E2E2E2E2E2E2E2E2E2E2E2E2E2E2E2E2E2E2E2E2E2E2E2E2E2E2E2E2E2E2E2E2E2E2E2E2E2E2E2E2E2E2E2E2E2E2E2E2E2E2E2E2E2E2E2E2E2E2E2E2E2E2E2E2E2E2E2E2E2E2E2E2E2E2E2E2E2E2E2E2E2E2E2
310
E2E2E2E2E2E2E2E2E2E2E2E2E2E2E2E2E2E2E2E2E2E2E2E2E2E2E2E2E2E2E2E2E2E2E2E2E2E2E2E2E2E2E2E2E2E2E2E2E2E2E2E2E2E2E2E2E2E2E2E2E2E2E2E2E2E2E2E2E2E2E2E2E2E2E2E2E2E2E2E2E2E2E2E2E2E2E2E2E2E2E2E2E2E2E2E2E2E2E2E2E2E2E2E2E2E2E2E2E2E2E2E2E2E2E2E2E2E2E2E2E2E2E2E2E2E2E2
310
E2E2E2E2E2E2E2E2E2E2E2E2E2E2E2E2E2E2E2E2E2E2E2E2E2E2E2E2E2E2E2E2E2E2E2E2E2E2E2E2E2E2E2E2E2E2E2E2E2E2E2E2E2E2E2E2E2E2E2E2E2E2E2E2E2E2E2E2E2E2E2E2E2E2E2E2E2E2E2E2E2E2E2E2E2E2E2E2E2E2E2E2E2E2E2E2E2E2E2E2E2E2E2E2E2E2E2E2E2E2E2E2E2E2E2E2E2E2E2E2E2E2E2E2E2E2E2
310
E2E2E2E2E2E2E2E2E2E2E2E2E2E2E2E2E2E2E2E2E2E2E2E2E2E2E2E2E2E2E2E2E2E2E2E2E2E2E2E2E2E2E2E2E2E2E2E2E2E2E2E2E2E2E2E2E2E2E2E2E2E2E2E2E2E2E2E2E2E2E2E2E2E2E2E2E2E2E2E2E2E2E2E2E2E2E2E2E2E2E2E2E2E2E2E2E2E2E2E2E2E2E2E2E2E2E2E2E2E2E2E2E2E2E2E2E2E2E2E2E2E2E2E2E2E2E2
310
E2E2E2E2E2E2E2E2E2E2E2E2E2E2E2E2E2E2E2E2E2E2E2E2E2E2E2E2E2E2E2E2E2E2E2E2E2E2E2E2E2E2E2E2E2E2E2E2E2E2E2E2E2E2E2E2E2E2E2E2E2E2E2E2E2E2E2E2E2E2E2E2E2E2E2E2E2E2E2E2E2E2E2E2E2E2E2E2E2E2E2E2E2E2E2E2E2E2E2E2E2E2E2E2E2E2E2E2E2E2E2E2E2E2E2E2E2E2E2E2E2E2E2E2E2E2E2
310
E2E2E2E2E2E2E2E2E2E2E2E2E2E2E2E2E2E2E2E2E2E2E2E2E2E2E2E2E2E2E2E2E2E2E2E2E2E2E2E2E2E2E2E2E2E2E2E2E2E2E2E2E2E2E2E2E2E2E2E2E2E2E2E2E2E2E2E2E2E2E2E2E2E2E2E2E2E2E2E2E2E2E2E2E2E2E2E2E2E2E2E2E2E2E2E2E2E2E2E2E2E2E2E2E2E2E2E2E2E2E2E2E2E2E2E2E2E2E2E2E2E2E2E2E2E2E2
310
E2E2E2E2E2E2E2E2E2E2E2E2E2E2E2E2E2E2E2E2E2E2E2E2E2E2E2E2E2E2E2E2E2E2E2E2E2E2E2E2E2E2E2E2E2E2E2E2E2E2E2E2E2E2E2E2E2E2E2E2E2E2E2E2E2E2E2E2E2E2E2E2E2E2E2E2E2E2E2E2E2E2E2E2E2E2E2E2E2E2E2E2E2E2E2E2E2E2E2E2E2E2E2E2E2E2E2E2E2E2E2E2E2E2E2E2E2E2E2E2E2E2E2E2E2E2E2
310
E2E2E2E2E2E2E2E2E2E2E2E2E2E2E2E2E2E2E2E2E2E2E2E2E2E2E2E2E2E2E2E2E2E2E2E2E2E2E2E2E2E2E2E2E2E2E2E2E2E2E2E2E2E2E2E2E2E2E2E2E2E2E2E2E2E2E2E2E2E2E2E2E2E2E2E2E2E2E2E2E2E2E2E2E2E2E2E2E2E2E2E2E2E2E2E2E2E2E2E2E2E2E2E2E2E2E2E2E2E2E2E2E2E2E2E2E2E2E2E2E2E2E2E2E2E2E2
310
E2E2E2E2E2E2E2E2E2E2E2E2E2E2E2E2E2E2E2E2E2E2E2E2E2E2E2E2E2E2E2E2E2E2E2E2E2E2E2E2E2E2E2E2E2E2E2E2E2E2E2E2E2E2E2E2E2E2E2E2E2E2E2E2E2E2E2E2E2E2E2E2E2E2E2E2E2E2E2E2E2E2E2E2E2E2E2E2E2E2E2E2E2E2E2E2E2E2E2E2E2E2E2E2E2E2E2E2E2E2E2E2E2E2E2E2E2E2E2E2E2E2E2E2E2E2E2
310
E2E2E2E2E2E2E2E2E2E2E2E2E2E2E2E2E2E2E2E2E2E2E2E2E2E2E2E2E2E2E2E2E2E2E2E2E2E2E2E2E2E2E2E2E2E2E2E2E2E2E2E2E2E2E2E2E2E2E2E2E2E2E2E2E2E2E2E2E2E2E2E2E2E2E2E2E2E2E2E2E2E2E2E2E2E2E2E2E2E2E2E2E2E2E2E2E2E2E2E2E2E2E2E2E2E2E2E2E2E2E2E2E2E2E2E2E2E2E2E2E2E2E2E2E2E2E2
310
E2E2E2E2E2E2E2E2E2E2E2E2E2E2E2E2E2E2E2E2E2E2E2E2E2E2E2E2E2E2E2E2E2E2E2E2E2E2E2E2E2E2E2E2E2E2E2E2E2E2E2E2E2E2E2E2E2E2E2E2E2E2E2E2E2E2E2E2E2E2E2E2E2E2E2E2E2E2E2E2E2E2E2E2E2E2E2E2E2E2E2E2E2E2E2E2E2E2E2E2E2E2E2E2E2E2E2E2E2E2E2E2E2E2E2E2E2E2E2E2E2E2E2E2E2E2E2
310
E2E2E2E2E2E2E2E2E2E2E2E2E2E2E2E2E2E2E2E2E2E2E2E2E2E2E2E2E2E2E2E2E2E2E2E2E2E2E2E2E2E2E2E2E2E2E2E2E2E2E2E2E2E2E2E2E2E2E2E2E2E2E2E2E2E2E2E2E2E2E2E2E2E2E2E2E2E2E2E2E2E2E2E2E2E2E2E2E2E2E2E2E2E2E2E2E2E2E2E2E2E2E2E2E2E2E2E2E2E2E2E2E2E2E2E2E2E2E2E2E2E2E2E2E2E2E2
310
E2E2E2E2E2E2E2E2E2E2E2E2E2E2E2E2E2E2E2E2E2E2E2E2E2E2E2E2E2E2E2E2E2E2E2E2E2E2E2E2E2E2E2E2E2E2E2E2E2E2E2E2E2E2E2E2E2E2E2E2E2E2E2E2E2E2E2E2E2E2E2E2E2E2E2E2E2E2E2E2E2E2E2E2E2E2E2E2E2E2E2E2E2E2E2E2E2E2E2E2E2E2E2E2E2E2E2E2E2E2E2E2E2E2E2E2E2E2E2E2E2E2E2E2E2E2E2
310
E2E2E2E2E2E2E2E2E2E2E2E2E2E2E2E2E2E2E2E2E2E2E2E2E2E2E2E2E2E2E2E2E2E2E2E2E2E2E2E2E2E2E2E2E2E2E2E2E2E2E2E2E2E2E2E2E2E2E2E2E2E2E2E2E2E2E2E2E2E2E2E2E2E2E2E2E2E2E2E2E2E2E2E2E2E2E2E2E2E2E2E2E2E2E2E2E2E2E2E2E2E2E2E2E2E2E2E2E2E2E2E2E2E2E2E2E2E2E2E2E2E2E2E2E2E2E2
310
E2E2E2E2E2E2E2E2E2E2E2E2E2E2E2E2E2E2E2E2E2E2E2E2E2E2E2E2E2E2E2E2E2E2E2E2E2E2E2E2E2E2E2E2E2E2E2E2E2E2E2E2E2E2E2E2E2E2E2E2E2E2E2E2E2E2E2E2E2E2E2E2E2E2E2E2E2E2E2E2E2E2E2E2E2E2E2E2E2E2E2E2E2E2E2E2E2E2E2E2E2E2E2E2E2E2E2E2E2E2E2E2E2E2E2E2E2E2E2E2E2E2E2E2E2E2E2
310
E2E2E2E2E2E2E2E2E2E2E2E2E2E2E2E2E2E2E2E2E2E2E2E2E2E2E2E2E2E2E2E2E2E2E2E2E2E2E2E2E2E2E2E2E2E2E2E2E2E2E2E2E2E2E2E2E2E2E2E2E2E2E2E2E2E2E2E2E2E2E2E2E2E2E2E2E2E2E2E2E2E2E2E2E2E2E2E2E2E2E2E2E2E2E2E2E2E2E2E2E2E2E2E2E2E2E2E2E2E2E2E2E2E2E2E2E2E2E2E2E2E2E2E2E2E2E2
310
E2E2E2E2E2E2E2E2E2E2E2E2E2E2E2E2E2E2E2E2E2E2E2E2E2E2E2E2E2E2E2E2E2E2E2E2E2E2E2E2E2E2E2E2E2E2E2E2E2E2E2E2E2E2E2E2E2E2E2E2E2E2E2E2E2E2E2E2E2E2E2E2E2E2E2E2E2E2E2E2E2E2E2E2E2E2E2E2E2E2E2E2E2E2E2E2E2E2E2E2E2E2E2E2E2E2E2E2E2E2E2E2E2E2E2E2E2E2E2E2E2E2E2E2E2E2E2
310
E2E2E2E2E2E2E2E2E2E2E2E2E2E2E2E2E2E2E2E2E2E2E2E2E2E2E2E2E2E2E2E2E2E2E2E2E2E2E2E2E2E2E2E2E2E2E2E2E2E2E2E2E2E2E2E2E2E2E2E2E2E2E2E2E2E2E2E2E2E2E2E2E2E2E2E2E2E2E2E2E2E2E2E2E2E2E2E2E2E2E2E2E2E2E2E2E2E2E2E2E2E2E2E2E2E2E2E2E2E2E2E2E2E2E2E2E2E2E2E2E2E2E2E2E2E2E2
310
E2E2E2E2E2E2E2E2E2E2E2E2E2E2E2E2E2E2E2E2E2E2E2E2E2E2E2E2E2E2E2E2E2E2E2E2E2E2E2E2E2E2E2E2E2E2E2E2E2E2E2E2E2E2E2E2E2E2E2E2E2E2E2E2E2E2E2E2E2E2E2E2E2E2E2E2E2E2E2E2E2E2E2E2E2E2E2E2E2E2E2E2E2E2E2E2E2E2E2E2E2E2E2E2E2E2E2E2E2E2E2E2E2E2E2E2E2E2E2E2E2E2E2E2E2E2E2
310
E2E2E2E2E2E2E2E2E2E2E2E2E2E2E2E2E2E2E2E2E2E2E2E2E2E2E2E2E2E2E2E2E2E2E2E2E2E2E2E2E2E2E2E2E2E2E2E2E2E2E2E2E2E2E2E2E2E2E2E2E2E2E2E2E2E2E2E2E2E2E2E2E2E2E2E2E2E2E2E2E2E2E2E2E2E2E2E2E2E2E2E2E2E2E2E2E2E2E2E2E2E2E2E2E2E2E2E2E2E2E2E2E2E2E2E2E2E2E2E2E2E2E2E2E2E2E2
310
E2E2E2E2E2E2E2E2E2E2E2E2E2E2E2E2E2E2E2E2E2E2E2E2E2E2E2E2E2E2E2E2E2E2E2E2E2E2E2E2E2E2E2E2E2E2E2E2E2E2E2E2E2E2E2E2E2E2E2E2E2E2E2E2E2E2E2E2E2E2E2E2E2E2E2E2E2E2E2E2E2E2E2E2E2E2E2E2E2E2E2E2E2E2E2E2E2E2E2E2E2E2E2E2E2E2E2E2E2E2E2E2E2E2E2E2E2E2E2E2E2E2E2E2E2E2E2
310
E2E2E2E2E2E2E2E2E2E2E2E2E2E2E2E2E2E2E2E2E2E2E2E2E2E2E2E2E2E2E2E2E2E2E2E2E2E2E2E2E2E2E2E2E2E2E2E2E2E2E2E2E2E2E2E2E2E2E2E2E2E2E2E2E2E2E2E2E2E2E2E2E2E2E2E2E2E2E2E2E2E2E2E2E2E2E2E2E2E2E2E2E2E2E2E2E2E2E2E2E2E2E2E2E2E2E2E2E2E2E2E2E2E2E2E2E2E2E2E2E2E2E2E2E2E2E2
310
E2E2E2E2E2E2E2E2E2E2E2E2E2E2E2E2E2E2E2E2E2E2E2E2E2E2E2E2E2E2E2E2E2E2E2E2E2E2E2E2E2E2E2E2E2E2E2E2E2E2E2E2E2E2E2E2E2E2E2E2E2E2E2E2E2E2E2E2E2E2E2E2E2E2E2E2E2E2E2E2E2E2E2E2E2E2E2E2E2E2E2E2E2E2E2E2E2E2E2E2E2E2E2E2E2E2E2E2E2E2E2E2E2E2E2E2E2E2E2E2E2E2E2E2E2E2E2
310
E2E2E2E2E2E2E2E2E2E2E2E2E2E2E2E2E2E2E2E2E2E2E2E2E2E2E2E2E2E2E2E2E2E2E2E2E2E2E2E2E2E2E2E2E2E2E2E2E2E2E2E2E2E2E2E2E2E2E2E2E2E2E2E2E2E2E2E2E2E2E2E2E2E2E2E2E2E2E2E2E2E2E2E2E2E2E2E2E2E2E2E2E2E2E2E2E2E2E2E2E2E2E2E2E2E2E2E2E2E2E2E2E2E2E2E2E2E2E2E2E2E2E2E2E2E2E2
310
E2E2E2E2E2E2E2E2E2E2E2E2E2E2E2E2E2E2E2E2E2E2E2E2E2E2E2E2E2E2E2E2E2E2E2E2E2E2E2E2E2E2E2E2E2E2E2E2E2E2E2E2E2E2E2E2E2E2E2E2E2E2E2E2E2E2E2E2E2E2E2E2E2E2E2E2E2E2E2E2E2E2E2E2E2E2E2E2E2E2E2E2E2E2E2E2E2E2E2E2E2E2E2E2E2E2E2E2E2E2E2E2E2E2E2E2E2E2E2E2E2E2E2E2E2E2E2
310
E2E2E2E2E2E2E2E2E2E2E2E2E2E2E2E2E2E2E2E2E2E2E2E2E2E2E2E2E2E2E2E2E2E2E2E2E2E2E2E2E2E2E2E2E2E2E2E2E2E2E2E2E2E2E2E2E2E2E2E2E2E2E2E2E2E2E2E2E2E2E2E2E2E2E2E2E2E2E2E2E2E2E2E2E2E2E2E2E2E2E2E2E2E2E2E2E2E2E2E2E2E2E2E2E2E2E2E2E2E2E2E2E2E2E2E2E2E2E2E2E2E2E2E2E2E2E2
310
E2E2E2E2E2E2E2E2E2E2E2E2E2E2E2E2E2E2E2E2E2E2E2E2E2E2E2E2E2E2E2E2E2E2E2E2E2E2E2E2E2E2E2E2E2E2E2E2E2E2E2E2E2E2E2E2E2E2E2E2E2E2E2E2E2E2E2E2E2E2E2E2E2E2E2E2E2E2E2E2E2E2E2E2E2E2E2E2E2E2E2E2E2E2E2E2E2E2E2E2E2E2E2E2E2E2E2E2E2E2E2E2E2E2E2E2E2E2E2E2E2E2E2E2E2E2E2
310
E2E2E2E2E2E2E2E2E2E2E2E2E2E2E2E2E2E2E2E2E2E2E2E2E2E2E2E2E2E2E2E2E2E2E2E2E2E2E2E2E2E2E2E2E2E2E2E2E2E2E2E2E2E2E2E2E2E2E2E2E2E2E2E2E2E2E2E2E2E2E2E2E2E2E2E2E2E2E2E2E2E2E2E2E2E2E2E2E2E2E2E2E2E2E2E2E2E2E2E2E2E2E2E2E2E2E2E2E2E2E2E2E2E2E2E2E2E2E2E2E2E2E2E2E2E2E2
310
E2E2E2E2E2E2E2E2E2E2E2E2E2E2E2E2E2E2E2E2E2E2E2E2E2E2E2E2E2E2E2E2E2E2E2E2E2E2E2E2E2E2E2E2E2E2E2E2E2E2E2E2E2E2E2E2E2E2E2E2E2E2E2E2E2E2E2E2E2E2E2E2E2E2E2E2E2E2E2E2E2E2E2E2E2E2E2E2E2E2E2E2E2E2E2E2E2E2E2E2E2E2E2E2E2E2E2E2E2E2E2E2E2E2E2E2E2E2E2E2E2E2E2E2E2E2E2
310
E2E2E2E2E2E2E2E2E2E2E2E2E2E2E2E2E2E2E2E2E2E2E2E2E2E2E2E2E2E2E2E2E2E2E2E2E2E2E2E2E2E2E2E2E2E2E2E2E2E2E2E2E2E2E2E2E2E2E2E2E2E2E2E2E2E2E2E2E2E2E2E2E2E2E2E2E2E2E2E2E2E2E2E2E2E2E2E2E2E2E2E2E2E2E2E2E2E2E2E2E2E2E2E2E2E2E2E2E2E2E2E2E2E2E2E2E2E2E2E2E2E2E2E2E2E2E2
310
E2E2E2E2E2E2E2E2E2E2E2E2E2E2E2E2E2E2E2E2E2E2E2E2E2E2E2E2E2E2E2E2E2E2E2E2E2E2E2E2E2E2E2E2E2E2E2E2E2E2E2E2E2E2E2E2E2E2E2E2E2E2E2E2E2E2E2E2E2E2E2E2E2E2E2E2E2E2E2E2E2E2E2E2E2E2E2E2E2E2E2E2E2E2E2E2E2E2E2E2E2E2E2E2E2E2E2E2E2E2E2E2E2E2E2E2E2E2E2E2E2E2E2E2E2E2E2
310
E2E2E2E2E2E2E2E2E2E2E2E2E2E2E2E2E2E2E2E2E2E2E2E2E2E2E2E2E2E2E2E2E2E2E2E2E2E2E2E2E2E2E2E2E2E2E2E2E2E2E2E2E2E2E2E2E2E2E2E2E2E2E2E2E2E2E2E2E2E2E2E2E2E2E2E2E2E2E2E2E2E2E2E2E2E2E2E2E2E2E2E2E2E2E2E2E2E2E2E2E2E2E2E2E2E2E2E2E2E2E2E2E2E2E2E2E2E2E2E2E2E2E2E2E2E2E2
310
E2E2E2E2E2E2E2E2E2E2E2E2E2E2E2E2E2E2E2E2E2E2E2E2E2E2E2E2E2E2E2E2E2E2E2E2E2E2E2E2E2E2E2E2E2E2E2E2E2E2E2E2E2E2E2E2E2E2E2E2E2E2E2E2E2F5E2E2E2E2E2E2E2E2E2E2E2E2E2E2E2E2E2E2E2E2E2E2E2E2E2E2E2E2E2E2E2E2E2E2E2E2E2E2E2E2E2E2E2E2E2E2E2E2E2E2E2E2E2E2E2E2E2E2E2E2E2
310
E2E2E2E2E2E2E2E2E2E2E2E2E2E2E2E2E2E2E2E2E2E2E2E2E2E2E2E2E2E2E2E2E2E2E2E2E2E2E2E2E2E2E2E2E2E2E2E2E2E2E2E2E2E2E2E2E2E2E2E2E2E2E2E2E2E2E2E2E2E2E2E2E2E2E2E2E2E2E2E2E2E2E2E2E2E2E2E2E2E2E2E2E2E2E2E2E2E2E2E2E2E2E2E2E2E2E2E2E2E2E2E2E2E2E2E2E2E2E2E2E2E2E2E2E2E2E2
310
E2E2E2E2E2E2E2E2E2E2E2E2E2E2E2E2E2E2E2E2E2E2E2E2E2E2E2E2E2E2E2E2E2E2E2E2E2E2E2E2E2E2E2E2E2E2E2E2E2E2E2E2E2E2E2E2E2E2E2E2E2E2E2E2E2E2E2F5E2E2E2E2E2E2E2E2E2E2E2E2E2E2E2E2E2E2E2E2E2E2E2E2E2E2E2E2E2E2E2E2E2E2E2E2E2E2E2E2E2E2E2E2E2E2E2E2E2E2E2E2E2E2E2E2E2E2E2
310
E2E2E2E2E2E2E2E2E2E2E2E2E2E2E2E2E2E2E2E2E2E2E2E2E2E2E2E2E2E2E2E2E2E2E2E2E2E2E2E2E2E2E2E2E2E2E2E2E2E2E2E2E2E2E2E2E2E2E2E2E2E2E2E2E2E2E2E2E2E2E2E2E2E2E2E2E2E2E2E2E2E2E2E2E2E2E2E2E2E2E2E2E2E2E2E2E2E2E2E2E2E2E2E2E2E2E2E2E2E2E2E2E2E2E2E2E2E2E2E2E2E2E2E2E2E2E2
310
E2E2E2E2E2E2E2E2E2E2E2E2E2E2E2E2E2E2E2E2E2E2E2F5E2E2E2E2E2E2E2E2E2E2E2E2E2E2E2E2E2E2E2E2E2E2E2E2E2E2E2E2E2E2E2E2E2E2E2E2E2E2E2E2E2E2E2E2E2F5E2E2E2E2E2E2E2E2E2E2E2E2E2E2E2E2E2E2E2E2E2E2E2E2E2E2E2E2E2E2E2E2E2E2E2E2E2E2E2E2E2E2E2E2E2E2E2E2E2E2E2E2E2E2E2E2E2
310
E2E2E2E2E2E2E2E2E2E2E2E2E2E2E2E2E2E2E2E2E2E2E2E2E2E2E2E2E2E2E2E2E2E2E2E2E2E2E2E2E2E2E2E2E2E2E2E2E2E2E2E2E2E2E2E2E2E2E2E2E2E2E2E2E2E2E2E2E2E2E2E2E2E2E2E2E2E2E2E2E2E2E2E2E2E2E2E2E2E2E2E2E2E2E2E2E2E2E2E2E2E2E2E2E2E2E2E2E2E2E2E2E2E2E2E2E2E2E2E2E2E2E2E2E2E2E2
310
E2E2E2E2E2E2E2E2E2E2E2E2E2E2E2E2E2E2E2E2E2E2F5F5F5F5F5F5F5E2E2E2E2E2E2E2E2E2E2E2E2E2E2E2E2E2E2E2E2E2E2E2E2E2E2E2E2E2E2E2E2E2E2E2E2E2E2E2F5F5F5F5F5F5F5E2E2E2E2E2E2E2E2E2E2E2E2E2E2E2E2E2E2E2E2E2E2E2E2E2E2E2E2E2E2E2E2E2E2E2E2E2E2E2E2E2E2E2E2E2E2E2E2E2E2E2E2
310
E2E2E2E2E2E2E2E2E2E2E2E2E2E2E2E2E2E2E2E2E2E2E2E2E2E2E2E2E2E2E2E2E2E2E2E2E2E2E2E2E2E2E2E2E2E2E2E2E2E2E2E2E2E2E2E2E2E2E2E2E2E2E2E2E2E2E2E2E2E2E2E2E2E2E2E2E2E2E2E2E2E2E2E2E2E2E2E2E2E2E2E2E2E2E2E2E2E2E2E2E2E2E2E2E2E2E2E2E2E2E2E2E2E2E2E2E2E2E2E2E2E2E2E2E2E2E2
310
E2E2E2E2E2E2E2E2E2E2E2E2E2E2E2E2E2E2E2E2E2E2F5F5E2E2E2F5E2E2E2F5F5E2E2E2E2E2E2E2E2E2E2E2E2E2E2E2E2E2E2E2E2E2E2E2E2E2E2E2E2E2E2E2E2E2E2E2E2F5F5E2E2F5E2E2F5F5E2E2E2E2E2E2E2E2E2E2E2E2E2E2E2E2E2E2E2E2E2E2E2E2E2E2E2E2E2E2E2E2E2E2E2E2E2E2E2E2E2E2E2E2E2E2E2E2E2
310
E2E2E2E2E2E2E2E2E2E2E2E2E2E2E2E2E2E2E2E2E2E2E2E2E2E2E2E2E2E2E2E2E2E2E2E2E2E2E2E2E2E2E2E2E2E2E2E2E2E2E2E2E2E2E2E2E2E2E2E2E2E2E2E2E2E2E2E2E2E2E2E2E2E2E2E2E2E2E2E2E2E2E2E2E2E2E2E2E2E2E2E2E2E2E2E2E2E2E2E2E2E2E2E2E2E2E2E2E2E2E2E2E2E2E2E2E2E2E2E2E2E2E2E2E2E2E2
310
E2E2E2E2E2E2E2E2E2E2E2E2E2E2E2E2E2E2E2E2E2E2E2F5F5F5F5E2F5F5F5E2E2F5F5F5E2E2E2E2E2E2E2E2E2E2E2E2E2E2E2E2E2E2E2E2E2E2E2E2E2E2E2E2F5E2E2E2E2E2E2F5F5E2E2F5E2E2F5F5E2E2E2E2E2E2F5F5E2E2E2E2E2E2E2E2E2E2E2E2E2E2E2E2E2E2E2E2E2E2E2E2E2E2E2E2E2E2E2E2E2E2E2E2E2E2E2
310
E2E2E2E2E2E2E2E2E2E2E2E2E2E2E2E2E2E2E2E2E2E2E2E2E2E2E2E2E2E2E2E2E2E2E2E2E2E2E2E2E2E2E2E2E2E2E2E2E2E2E2E2E2E2E2E2E2E2E2E2E2E2E2E2E2E2E2E2E2E2E2E2E2E2E2E2E2E2E2E2E2E2E2E2E2E2E2E2E2E2E2E2E2E2E2E2E2E2E2E2E2E2E2E2E2E2E2E2E2E2E2E2E2E2E2E2E2E2E2E2E2E2E2E2E2E2E2
310
E2E2E2E2E2E2E2E2E2E2E2E2E2E2E2E2E2E2E2E2E2E2E2F5F5E2F5F5F5F5E2F5E2F5F5F5F5E2F5F5E2E2E2E2E2E2E2E2E2E2E2E2E2E2E2E2E2E2E2E2E2E2E2E2E2E2F5E2E2E2E2E2E2F5F5E2E2F5E2E2F5F5E2E2E2E2E2E2F5F5E2E2E2E2E2E2E2E2E2E2E2E2E2E2E2E2E2E2E2E2E2E2E2E2E2E2E2E2E2E2E2E2E2E2E2E2E2
310
E2E2E2E2E2E2E2E2E2E2E2E2E2E2E2E2E2E2E2E2E2E2E2E2E2E2E2E2E2E2E2E2E2E2E2E2E2E2E2E2E2E2E2E2E2E2E2E2E2E2E2E2E2E2E2E2E2E2E2E2E2E2E2E2E2E2E2E2E2E2E2E2E2E2E2E2E2E2E2E2E2E2E2E2E2E2E2E2E2E2E2E2E2E2E2E2E2E2E2E2E2E2E2E2E2E2E2E2E2E2E2E2E2E2E2E2E2E2E2E2E2E2E2E2E2E2E2
310
E2E2E2E2E2E2E2E2E2E2E2E2E2E2E2E2E2E2E2E2E2E2E2E2F5E2E2E2F5F5E2E2E2F5E2E2E2F5F5E2E2E2F5E2E2E2E2E2E2E2E2E2E2E2E2E2E2E2E2E2E2E2E2E2E2E2E2E2F5F5F5F5F5F5F5E2F5E2E2F5E2E2F5F5F5F5F5F5F5F5F5F5E2E2E2E2E2E2E2E2E2E2E2E2E2E2E2E2E2E2E2E2E2E2E2E2E2E2E2E2E2E2E2E2E2E2E2
310
E2E2E2E2E2E2E2E2E2E2E2E2E2E2E2E2E2E2E2E2E2E2E2E2E2E2E2E2E2E2E2E2E2E2E2E2E2E2E2E2E2E2E2E2E2E2E2E2E2E2E2E2E2E2E2E2E2E2E2E2E2E2E2E2E2E2E2E2E2E2E2E2E2E2E2E2E2E2E2E2E2E2E2E2E2E2E2E2E2E2E2E2E2E2E2E2E2E2E2E2E2E2E2E2E2E2E2E2E2E2E2E2E2E2E2E2E2E2E2E2E2E2E2E2E2E2E2
310
E2E2E2E2E2E2E2E2E2E2E2E2E2E2E2E2E2E2E2E2E2E2E2E2E2F5E2E2E2F5E2E2F5F5F5F5F5F5F5E2E2F5E2E2E2F5E2E2E2E2E2E2E2E2E2E2E2E2E2E2E2E2E2E2E2E2E2E2E2E2F5F5E2E2E2F5E2E2F5E2E2F5E2E2F5E2E2F5E2E2E2F5F5F5E2E2E2E2E2E2E2E2E2E2E2E2E2E2E2E2E2E2E2E2E2E2E2E2E2E2E2E2E2E2E2E2E2
310
E2E2E2E2E2E2E2E2E2E2E2E2E2E2E2E2E2E2E2E2E2E2E2E2E2E2E2E2E2E2E2E2E2E2E2E2E2E2E2E2E2E2E2E2E2E2E2E2E2E2E2E2E2E2E2E2E2E2E2E2E2E2E2E2E2E2E2E2E2E2E2E2E2E2E2E2E2E2E2E2E2E2E2E2E2E2E2E2E2E2E2E2E2E2E2E2E2E2E2E2E2E2E2E2E2E2E2E2E2E2E2E2E2E2E2E2E2E2E2E2E2E2E2E2E2E2E2
310
E2E2E2E2E2E2E2E2E2E2E2E2E2E2E2E2E2E2E2E2E2E2E2E2E2E2F5E2E2F5F5E2F5F5E2E2E2F5E2E2E2F5F5E2F5F5E2E2F5E2E2E2E2E2E2E2E2E2E2E2E2E2E2E2E2E2E2E2E2E2E2E2F5F5E2E2E2F5E2E2F5E2E2F5E2E2F5E2E2F5E2E2E2F5F5F5E2E2E2E2E2E2E2E2E2E2E2E2E2E2E2E2E2E2E2E2E2E2E2E2E2E2E2E2E2E2E2
310
E2E2E2E2E2E2E2E2E2E2E2E2E2E2E2E2E2E2E2E2E2E2E2E2E2E2E2E2E2E2E2E2E2E2E2E2E2E2E2E2E2E2E2E2E2E2E2E2E2E2E2E2E2E2E2E2E2E2E2E2E2E2E2E2E2E2E2E2E2E2E2E2E2E2E2E2E2E2E2E2E2E2E2E2E2E2E2E2E2E2E2E2E2E2E2E2E2E2E2E2E2E2E2E2E2E2E2E2E2E2E2E2E2E2E2E2E2E2E2E2E2E2E2E2E2E2E2
310
E2E2E2E2E2E2E2E2E2E2E2E2E2E2E2E2E2E2E2E2E2E2E2E2E2E2E2F5E2E2F5E2E2F5E2E2E2E2E2F5E2E2E2E2E2F5E2E2F5E2E2F5E2E2E2E2E2E2E2E2E2E2E2E2E2E2E2E2E2E2E2E2E2E2F5F5E2E2E2F5E2E2F5E2E2F5E2E2F5E2E2F5E2E2E2F5F5F5E2E2E2E2E2E2E2E2E2E2E2E2E2E2E2E2E2E2E2E2E2E2E2E2E2E2E2E2E2
310
E2E2E2E2E2E2E2E2E2E2E2E2E2E2E2E2E2E2E2E2E2E2E2E2E2E2E2E2E2E2E2E2E2E2E2E2E2E2E2E2E2E2E2E2E2E2E2E2E2E2E2E2E2E2E2E2E2E2E2E2E2E2E2E2E2E2E2E2E2E2E2E2E2E2E2E2E2E2E2E2E2E2E2E2E2E2E2E2E2E2E2E2E2E2E2E2E2E2E2E2E2E2E2E2E2E2E2E2E2E2E2E2E2E2E2E2E2E2E2E2E2E2E2E2E2E2E2
310
E2E2E2E2E2E2E2E2E2E2E2E2E2E2E2E2E2E2E2E2E2E2E2E2E2E2E2E2E2F5E2E2F5E2F5E2E2E2E2E2E2F5E2E2E2E2E2E2F5E2F5E2E2F5E2E2E2E2E2E2E2E2E2E2E2E2E2E2E2E2E2E2E2E2E2E2F5F5E2E2E2F5E2E2F5E2E2F5E2E2F5E2E2F5E2E2E2F5F5F5E2E2E2E2E2E2E2E2E2E2E2E2E2E2E2E2E2E2E2E2E2E2E2E2E2E2E2
310
E2E2E2E2E2E2E2E2E2E2E2E2E2E2E2E2E2E2E2E2E2E2E2E2E2E2E2E2E2E2E2E2E2E2E2E2E2E2E2E2E2E2E2E2E2E2E2E2E2E2E2E2E2E2E2E2E2E2E2E2E2E2E2E2E2E2E2E2E2E2E2E2E2E2E2E2E2E2E2E2E2E2E2E2E2E2E2E2E2E2E2E2E2E2E2E2E2E2E2E2E2E2E2E2E2E2E2E2E2E2E2E2E2E2E2E2E2E2E2E2E2E2E2E2E2E2E2
310
E2E2E2E2E2E2E2E2E2E2E2E2E2E2E2E2E2E2E2E2E2E2E2E2E2E2E2E2E2E2F5E2E2F5E2E2F5E2E2E2E2E2E2F5E2E2E2E2E2E2E2F5E2F5E2E2F5E2E2E2E2E2E2E2E2E2E2E2E2E2E2E2E2E2E2E2E2E2F5F5E2E2E2F5E2E2F5E2E2F5E2E2F5E2E2F5E2E2E2F5F5F5E2E2E2E2E2E2E2E2E2E2E2E2E2E2E2E2E2E2E2E2E2E2E2E2E2
310
E2E2E2E2E2E2E2E2E2E2E2E2E2E2E2E2E2E2E2E2E2E2E2E2E2E2E2E2E2E2E2E2E2E2E2E2E2E2E2E2E2E2E2E2E2E2E2E2E2E2E2E2E2E2E2E2E2E2E2E2E2E2E2E2E2E2E2E2E2E2E2E2E2E2E2E2E2E2E2E2E2E2E2E2E2E2E2E2E2E2E2E2E2E2E2E2E2E2E2E2E2E2E2E2E2E2E2E2E2E2E2E2E2E2E2E2E2E2E2E2E2E2E2E2E2E2E2
310
E2E2E2E2E2E2E2E2E2E2E2E2E2E2E2E2E2E2E2E2E2E2E2E2E2E2E2E2E2E2E2E2F5E2E2F5E2F5E2E2E2E2E2E2E2F5E2E2E2E2E2E2E2F5E2F5E2E2F5E2E2E2E2E2E2E2E2E2E2E2E2E2E2E2E2E2E2E2E2E2F5F5E2E2E2F5E2E2F5E2E2F5E2E2F5E2E2F5E2E2E2F5F5F5E2E2E2E2E2E2E2E2E2E2E2E2E2E2E2E2E2E2E2E2E2E2E2
310
E2E2E2E2E2E2E2E2E2E2E2E2E2E2E2E2E2E2E2E2E2E2E2E2E2E2E2E2E2E2E2E2E2E2E2E2E2E2E2E2E2E2E2E2E2E2E2E2E2E2E2E2E2E2E2E2E2E2E2E2E2E2E2E2E2E2E2E2E2E2E2E2E2E2E2E2E2E2E2E2E2E2E2E2E2E2E2E2E2E2E2E2E2E2E2E2E2E2E2E2E2E2E2E2E2E2E2E2E2E2E2E2E2E2E2E2E2E2E2E2E2E2E2E2E2E2E2
310
E2E2E2E2E2E2E2E2E2E2E2E2E2E2E2E2E2E2E2E2E2E2E2E2E2E2E2E2E2E2E2E2E2E2F5E2E2F5E2F5E2E2E2E2E2E2E2F5E2E2E2E2E2E2E2F5E2F5E2E2F5E2E2E2E2E2E2E2E2E2E2E2E2E2E2E2E2E2E2E2E2E2F5F5E2E2E2F5E2E2F5E2E2F5E2E2F5E2E2F5E2E2E2F5F5F5E2E2E2E2E2E2E2E2E2E2E2E2E2E2E2E2E2E2E2E2E2
310
E2E2E2E2E2E2E2E2E2E2E2E2E2E2E2E2E2E2E2E2E2E2E2E2E2E2E2E2E2E2E2E2E2E2E2E2E2E2E2E2E2E2E2E2E2E2E2E2E2E2E2E2E2E2E2E2E2E2E2E2E2E2E2E2E2E2E2E2E2E2E2E2E2E2E2E2E2E2E2E2E2E2E2E2E2E2E2E2E2E2E2E2E2E2E2E2E2E2E2E2E2E2E2E2E2E2E2E2E2E2E2E2E2E2E2E2E2E2E2E2E2E2E2E2E2E2E2
310
E2E2E2E2E2E2E2E2E2E2E2E2E2E2E2E2E2E2E2E2E2E2E2E2E2E2E2E2E2E2E2E2E2E2E2E2F5F5F5E2E2F5E2E2E2E2E2E2E2F5E2E2E2E2E2E2E2F5E2E2F5F5F5E2E2E2E2E2E2E2E2E2E2E2E2E2E2E2E2E2E2E2E2E2F5F5E2E2E2F5E2F5F5E2E2F5E2E2F5F5E2F5E2E2E2F5F5F5E2E2E2E2E2E2E2E2E2E2E2E2E2E2E2E2E2E2E2
310
E2E2E2E2E2E2E2E2E2E2E2E2E2E2E2E2E2E2E2E2E2E2E2E2E2E2E2E2E2E2E2E2E2E2E2E2E2E2E2E2E2E2E2E2E2E2E2E2E2E2E2E2E2E2E2E2E2E2E2E2E2E2E2E2E2E2E2E2E2E2E2E2E2E2E2E2E2E2E2E2E2E2E2E2E2E2E2E2E2E2E2E2E2E2E2E2E2E2E2E2E2E2E2E2E2E2E2E2E2E2E2E2E2E2E2E2E2E2E2E2E2E2E2E2E2E2E2
310
E2E2E2E2E2E2E2E2E2E2E2E2E2E2E2E2E2E2E2E2E2E2E2E2E2E2E2E2E2E2E2E2E2E2E2E2E2F5F5F5F5F5F5F5F5F5F5F5F5F5F5F5F5F5F5F5F5F5F5F5F5F5F5F5F5F5E2E2E2E2E2E2E2E2E2E2E2E2E2E2E2E2E2E2F5F5F5F5F5F5F5F5F5F5F5F5F5F5F5F5F5F5F5F5F5F5F5F5F5F5F5E2E2E2E2E2E2E2E2E2E2E2E2E2E2E2E2
310
E2E2E2E2E2E2E2E2E2E2E2E2E2E2E2E2E2E2E2E2E2E2E2E2E2E2E2E2E2E2E2E2E2E2E2E2E2E2E2E2E2E2E2E2E2E2E2E2E2E2E2E2E2E2E2E2E2E2E2E2E2E2E2E2E2E2E2E2E2E2E2E2E2E2E2E2E2E2E2E2E2E2E2E2E2E2E2E2E2E2E2E2E2E2E2E2E2E2E2E2E2E2E2E2E2E2E2E2E2E2E2E2E2E2E2E2E2E2E2E2E2E2E2E2E2E2E2
310
E2E2E2E2E2E2E2E2E2E2E2E2E2E2E2E2E2E2E2E2E2E2E2E2E2E2E2E2E2E2E2E2E2E2E2E2E2E2E2E2F5F5F5E2E2F5E2E2E2E2E2E2E2F5E2E2E2E2E2E2E2F5E2E2F5F5F5E2E2E2E2E2E2E2E2E2E2E2E2E2E2E2E2E2E2E2E2E2F5F5E2E2E2F5E2F5F5E2E2F5E2E2F5F5E2F5E2E2E2F5F5F5E2E2E2E2E2E2E2E2E2E2E2E2E2E2E2
310
E2E2E2E2E2E2E2E2E2E2E2E2E2E2E2E2E2E2E2E2E2E2E2E2E2E2E2E2E2E2E2E2E2E2E2E2E2E2E2E2E2E2E2E2E2E2E2E2E2E2E2E2E2E2E2E2E2E2E2E2E2E2E2E2E2E2E2E2E2E2E2E2E2E2E2E2E2E2E2E2E2E2E2E2E2E2E2E2E2E2E2E2E2E2E2E2E2E2E2E2E2E2E2E2E2E2E2E2E2E2E2E2E2E2E2E2E2E2E2E2E2E2E2E2E2E2E2
310
E2E2E2E2E2E2E2E2E2E2E2E2E2E2E2E2E2E2E2E2E2E2E2E2E2E2E2E2E2E2E2E2E2E2E2E2E2E2E2E2E2E2F5E2E2F5E2F5E2E2E2E2E2E2E2F5E2E2E2E2E2E2E2F5E2F5E2E2F5E2E2E2E2E2E2E2E2E2E2E2E2E2E2E2E2E2E2E2E2E2F5F5E2E2E2F5E2E2F5E2E2F5E2E2F5E2E2F5E2E2E2F5F5F5E2E2E2E2E2E2E2E2E2E2E2E2E2
310
E2E2E2E2E2E2E2E2E2E2E2E2E2E2E2E2E2E2E2E2E2E2E2E2E2E2E2E2E2E2E2E2E2E2E2E2E2E2E2E2E2E2E2E2E2E2E2E2E2E2E2E2E2E2E2E2E2E2E2E2E2E2E2E2E2E2E2E2E2E2E2E2E2E2E2E2E2E2E2E2E2E2E2E2E2E2E2E2E2E2E2E2E2E2E2E2E2E2E2E2E2E2E2E2E2E2E2E2E2E2E2E2E2E2E2E2E2E2E2E2E2E2E2E2E2E2E2
310
E2E2E2E2E2E2E2E2E2E2E2E2E2E2E2E2E2E2E2E2E2E2E2E2E2E2E2E2E2E2E2E2E2E2E2E2E2E2E2E2E2E2E2E2F5E2E2F5E2F5E2E2E2E2E2E2E2F5E2E2E2E2E2E2E2F5E2F5E2E2F5E2E2E2E2E2E2E2E2E2E2E2E2E2E2E2E2E2E2E2E2E2F5F5E2E2E2F5E2E2F5E2E2F5E2E2F5E2E2F5E2E2E2F5F5F5E2E2E2E2E2E2E2E2E2E2E2
310
E2E2E2E2E2E2E2E2E2E2E2E2E2E2E2E2E2E2E2E2E2E2E2E2E2E2E2E2E2E2E2E2E2E2E2E2E2E2E2E2E2E2E2E2E2E2E2E2E2E2E2E2E2E2E2E2E2E2E2E2E2E2E2E2E2E2E2E2E2E2E2E2E2E2E2E2E2E2E2E2E2E2E2E2E2E2E2E2E2E2E2E2E2E2E2E2E2E2E2E2E2E2E2E2E2E2E2E2E2E2E2E2E2E2E2E2E2E2E2E2E2E2E2E2E2E2E2
310
E2E2E2E2E2E2E2E2E2E2E2E2E2E2E2E2E2E2E2E2E2E2E2E2E2E2E2E2E2E2E2E2E2E2E2E2E2E2E2E2E2E2E2E2E2E2F5E2E2F5E2E2F5E2E2E2E2E2E2F5E2E2E2E2E2E2E2F5E2F5E2E2F5E2E2E2E2E2E2E2E2E2E2E2E2E2E2E2E2E2E2E2E2E2F5F5E2E2E2F5E2E2F5E2E2F5E2E2F5E2E2F5E2E2E2F5F5F5E2E2E2E2E2E2E2E2E2
310
E2E2E2E2E2E2E2E2E2E2E2E2E2E2E2E2E2E2E2E2E2E2E2E2E2E2E2E2E2E2E2E2E2E2E2E2E2E2E2E2E2E2E2E2E2E2E2E2E2E2E2E2E2E2E2E2E2E2E2E2E2E2E2E2E2E2E2E2E2E2E2E2E2E2E2E2E2E2E2E2E2E2E2E2E2E2E2E2E2E2E2E2E2E2E2E2E2E2E2E2E2E2E2E2E2E2E2E2E2E2E2E2E2E2E2E2E2E2E2E2E2E2E2E2E2E2E2
310
E2E2E2E2E2E2E2E2E2E2E2E2E2E2E2E2E2E2E2E2E2E2E2E2E2E2E2E2E2E2E2E2E2E2E2E2E2E2E2E2E2E2E2E2E2E2E2E2E2F5E2E2F5E2F5E2E2E2E2E2E2F5E2E2E2E2E2E2F5E2F5E2E2F5E2E2E2E2E2E2E2E2E2E2E2E2E2E2E2E2E2E2E2E2E2E2F5F5E2E2E2F5E2E2F5E2E2F5E2E2F5E2E2F5E2E2E2F5F5F5E2E2E2E2E2E2E2
310
E2E2E2E2E2E2E2E2E2E2E2E2E2E2E2E2E2E2E2E2E2E2E2E2E2E2E2E2E2E2E2E2E2E2E2E2E2E2E2E2E2E2E2E2E2E2E2E2E2E2E2E2E2E2E2E2E2E2E2E2E2E2E2E2E2E2E2E2E2E2E2E2E2E2E2E2E2E2E2E2E2E2E2E2E2E2E2E2E2E2E2E2E2E2E2E2E2E2E2E2E2E2E2E2E2E2E2E2E2E2E2E2E2E2E2E2E2E2E2E2E2E2E2E2E2E2E2
310
E2E2E2E2E2E2E2E2E2E2E2E2E2E2E2E2E2E2E2E2E2E2E2E2E2E2E2E2E2E2E2E2E2E2E2E2E2E2E2E2E2E2E2E2E2E2E2E2E2E2E2F5E2E2F5E2E2F5E2E2E2E2E2F5E2E2E2E2E2F5E2E2F5E2E2F5E2E2E2E2E2E2E2E2E2E2E2E2E2E2E2E2E2E2E2E2E2E2F5F5E2E2E2F5E2E2F5E2E2F5E2E2F5E2E2F5E2E2E2F5F5F5E2E2E2E2E2
310
E2E2E2E2E2E2E2E2E2E2E2E2E2E2E2E2E2E2E2E2E2E2E2E2E2E2E2E2E2E2E2E2E2E2E2E2E2E2E2E2E2E2E2E2E2E2E2E2E2E2E2E2E2E2E2E2E2E2E2E2E2E2E2E2E2E2E2E2E2E2E2E2E2E2E2E2E2E2E2E2E2E2E2E2E2E2E2E2E2E2E2E2E2E2E2E2E2E2E2E2E2E2E2E2E2E2E2E2E2E2E2E2E2E2E2E2E2E2E2E2E2E2E2E2E2E2E2
310
E2E2E2E2E2E2E2E2E2E2E2E2E2E2E2E2E2E2E2E2E2E2E2E2E2E2E2E2E2E2E2E2E2E2E2E2E2E2E2E2E2E2E2E2E2E2E2E2E2E2E2E2E2E2F5E2E2F5E2E2F5E2E2E2E2F5E2E2E2E2F5E2E2F5E2E2F5E2E2E2E2E2E2E2E2E2E2E2E2E2E2E2E2E2E2E2E2E2E2E2F5F5E2E2E2F5E2E2F5E2E2F5E2E2F5E2E2F5E2E2E2F5F5F5E2E2E2
310
E2E2E2E2E2E2E2E2E2E2E2E2E2E2E2E2E2E2E2E2E2E2E2E2E2E2E2E2E2E2E2E2E2E2E2E2E2E2E2E2E2E2E2E2E2E2E2E2E2E2E2E2E2E2E2E2E2E2E2E2E2E2E2E2E2E2E2E2E2E2E2E2E2E2E2E2E2E2E2E2E2E2E2E2E2E2E2E2E2E2E2E2E2E2E2E2E2E2E2E2E2E2E2E2E2E2E2E2E2E2E2E2E2E2E2E2E2E2E2E2E2E2E2E2E2E2E2
310
E2E2E2E2E2E2E2E2E2E2E2E2E2E2E2E2E2E2E2E2E2E2E2E2E2E2E2E2E2E2E2E2E2E2E2E2E2E2E2E2E2E2E2E2E2E2E2E2E2E2E2E2E2E2E2E2F5E2E2E2F5E2E2F5F5F5F5F5F5F5F5F5E2E2F5E2E2E2F5E2E2E2E2E2E2E2E2E2E2E2E2E2E2E2E2E2E2E2E2E2E2E2F5F5E2E2E2F5E2E2F5E2E2F5E2E2F5E2E2F5E2E2E2F5F5F5E2
310
E2E2E2E2E2E2E2E2E2E2E2E2E2E2E2E2E2E2E2E2E2E2E2E2E2E2E2E2E2E2E2E2E2E2E2E2E2E2E2E2E2E2E2E2E2E2E2E2E2E2E2E2E2E2E2E2E2E2E2E2E2E2E2E2E2E2E2E2E2E2E2E2E2E2E2E2E2E2E2E2E2E2E2E2E2E2E2E2E2E2E2E2E2E2E2E2E2E2E2E2E2E2E2E2E2E2E2E2E2E2E2E2E2E2E2E2E2E2E2E2E2E2E2E2E2E2E2
310
E2E2E2E2E2E2E2E2E2E2E2E2E2E2E2E2E2E2E2E2E2E2E2E2E2E2E2E2E2E2E2E2E2E2E2E2E2E2E2E2E2E2E2E2E2E2E2E2E2E2E2E2E2E2E2E2E2E2E2F5E2E2E2F5F5E2E2E2E2F5E2E2E2E2F5F5E2E2E2F5E2E2E2E2E2E2E2E2E2E2E2E2E2E2E2E2E2E2E2E2E2E2E2E2F5F5F5F5F5F5F5E2F5E2E2F5E2E2F5F5F5F5F5F5F5F5F5
310
F5E2E2E2E2E2E2E2E2E2E2E2E2E2E2E2E2E2E2E2E2E2E2E2E2E2E2E2E2E2E2E2E2E2E2E2E2E2E2E2E2E2E2E2E2E2E2E2E2E2E2E2E2E2E2E2E2E2E2E2E2E2E2E2E2E2E2E2E2E2E2E2E2E2E2E2E2E2E2E2E2E2E2E2E2E2E2E2E2E2E2E2E2E2E2E2E2E2E2E2E2E2E2E2E2E2E2E2E2E2E2E2E2E2E2E2E2E2E2E2E2E2E2E2E2E2E2
310
E2E2E2E2E2E2E2E2E2E2E2E2E2E2E2E2E2E2E2E2E2E2E2E2E2E2E2E2E2E2E2E2E2E2E2E2E2E2E2E2E2E2E2E2E2E2E2E2E2E2E2E2E2E2E2E2E2E2E2E2E2E2F5F5F5F5F5F5F5F5E2F5E2F5F5F5F5F5F5F5F5E2E2E2E2E2E2E2E2E2E2E2E2E2E2E2E2E2E2E2E2E2E2E2E2E2F5E2E2E2E2E2F5F5F5E2E2F5E2E2F5F5F5E2E2E2E2
310
E2F5F5E2E2E2E2E2E2E2E2E2E2E2E2E2E2E2E2E2E2E2E2E2E2E2E2E2E2E2E2E2E2E2E2E2E2E2E2E2E2E2E2E2E2E2E2E2E2E2E2E2E2E2E2E2E2E2E2E2E2E2E2E2E2E2E2E2E2E2E2E2E2E2E2E2E2E2E2E2E2E2E2E2E2E2E2E2E2E2E2E2E2E2E2E2E2E2E2E2E2E2E2E2E2E2E2E2E2E2E2E2E2E2E2E2E2E2E2E2E2E2E2E2E2E2E2
310
E2E2E2E2E2E2E2E2E2E2E2E2E2E2E2E2E2E2E2E2E2E2E2E2E2E2E2E2E2E2E2E2E2E2E2E2E2E2E2E2E2E2E2E2E2E2E2E2E2E2E2E2E2E2E2E2E2E2E2E2E2E2E2E2E2E2F5F5F5F5F5E2F5F5F5E2E2F5F5F5F5E2E2E2E2E2E2E2E2E2E2E2E2E2E2E2E2E2E2E2E2E2E2E2E2E2E2E2F5E2E2E2E2E2F5E2F5E2E2F5E2E2F5F5F5E2E2
310
E2E2E2F5F5E2E2E2E2E2E2E2E2E2E2E2E2E2E2E2E2E2E2E2E2E2E2E2E2E2E2E2E2E2E2E2E2E2E2E2E2E2E2E2E2E2E2E2E2E2E2E2E2E2E2E2E2E2E2E2E2E2E2E2E2E2E2E2E2E2E2E2E2E2E2E2E2E2E2E2E2E2E2E2E2E2E2E2E2E2E2E2E2E2E2E2E2E2E2E2E2E2E2E2E2E2E2E2E2E2E2E2E2E2E2E2E2E2E2E2E2E2E2E2E2E2E2
310
E2E2E2E2E2E2E2E2E2E2E2E2E2E2E2E2E2E2E2E2E2E2E2E2E2E2E2E2E2E2E2E2E2E2E2E2E2E2E2E2E2E2E2E2E2E2E2E2E2E2E2E2E2E2E2E2E2E2E2E2E2E2E2E2E2E2E2E2F5E2F5F5E2E2E2F5E2E2E2F5F5E2F5E2E2E2E2E2E2E2E2E2E2E2E2E2E2E2E2E2E2E2E2E2E2E2E2E2E2E2E2E2E2E2E2E2F5F5F5E2E2F5E2E2F5F5F5
310
E2E2E2E2E2E2E2E2E2E2E2E2E2E2E2E2E2E2E2E2E2E2E2E2E2E2E2E2E2E2E2E2E2E2E2E2E2E2E2E2E2E2E2E2E2E2E2E2E2E2E2E2E2E2E2E2E2E2E2E2E2E2E2E2E2E2E2E2E2E2E2E2E2E2E2E2E2E2E2E2E2E2E2E2E2E2E2E2E2E2E2E2E2E2E2E2E2E2E2E2E2E2E2E2E2E2E2E2E2E2E2E2E2E2E2E2E2E2E2E2E2E2E2E2E2E2E2
310
E2E2E2E2E2E2E2E2E2E2E2E2E2E2E2E2E2E2E2E2E2E2E2E2E2E2E2E2E2E2E2E2E2E2E2E2E2E2E2E2E2E2E2E2E2E2E2E2E2E2E2E2E2E2E2E2E2E2E2E2E2E2E2E2E2E2E2E2E2E2F5F5F5F5F5F5F5F5F5F5F5F5F5F5F5E2E2E2E2E2E2E2E2E2E2E2E2E2E2E2E2E2E2E2E2E2E2E2E2E2E2E2E2E2E2E2E2E2E2F5F5F5F5F5F5F5F5
310
F5F5E2E2E2E2E2E2E2E2E2E2E2E2E2E2E2E2E2E2E2E2E2E2E2E2E2E2E2E2E2E2E2E2E2E2E2E2E2E2E2E2E2E2E2E2E2E2E2E2E2E2E2E2E2E2E2E2E2E2E2E2E2E2E2E2E2E2E2E2E2E2E2E2E2E2E2E2E2E2E2E2E2E2E2E2E2E2E2E2E2E2E2E2E2E2E2E2E2E2E2E2E2E2E2E2E2E2E2E2E2E2E2E2E2E2E2E2E2E2E2E2E2E2E2E2E2
310
E2E2E2E2E2E2E2E2E2E2E2E2E2E2E2E2E2E2E2E2E2E2E2E2E2E2E2E2E2E2E2E2E2E2E2E2E2E2E2E2E2E2E2E2E2E2E2E2E2E2E2E2E2E2E2E2E2E2E2E2E2E2E2E2E2E2E2E2E2E2E2E2F5E2E2E2E2E2E2F5E2E2E2E2E2E2F5E2E2E2E2E2E2E2E2E2E2E2E2E2E2E2E2E2E2E2E2E2E2E2E2E2E2E2E2E2E2E2E2F5F5F5F5F5F5F5F5
310
F5F5F5F5F5F5E2E2E2E2E2E2E2E2E2E2E2E2E2E2E2E2E2E2E2E2E2E2E2E2E2E2E2E2E2E2E2E2E2E2E2E2E2E2E2E2E2E2E2E2E2E2E2E2E2E2E2E2E2E2E2E2E2E2E2E2E2E2E2E2E2E2E2E2E2E2E2E2E2E2E2E2E2E2E2E2E2E2E2E2E2E2E2E2E2E2E2E2E2E2E2E2E2E2E2E2E2E2E2E2E2E2E2E2E2E2E2E2E2E2E2E2E2E2E2E2E2
310
E2E2E2E2E2E2E2E2E2E2E2E2E2E2E2E2E2E2E2E2E2E2E2E2E2E2E2E2E2E2E2E2E2E2E2E2E2E2E2E2E2E2E2E2E2E2E2E2E2E2E2E2E2E2E2E2E2E2E2E2E2E2E2E2E2E2E2E2E2E2E2E2E2E2F5E2E2E2E2E2E2F5E2E2E2E2E2E2F5E2E2E2E2E2E2E2E2E2E2E2E2E2E2E2E2E2E2E2E2E2E2E2E2E2E2E2E2E2E2F5F5F5E2F5F5E2E2
310
F5E2E2F5F5E2F5F5F5F5E2E2E2E2E2E2E2E2E2E2E2E2E2E2E2E2E2E2E2E2E2E2E2E2E2E2E2E2E2E2E2E2E2E2E2E2E2E2E2E2E2E2E2E2E2E2E2E2E2E2E2E2E2E2E2E2E2E2E2E2E2E2E2E2E2E2E2E2E2E2E2E2E2E2E2E2E2E2E2E2E2E2E2E2E2E2E2E2E2E2E2E2E2E2E2E2E2E2E2E2E2E2E2E2E2E2E2E2E2E2E2E2E2E2E2E2E2
310
E2E2E2E2E2E2E2E2E2E2E2E2E2E2E2E2E2E2E2E2E2E2E2E2E2E2E2E2E2E2E2E2E2E2E2E2E2E2E2E2E2E2E2E2E2E2E2E2E2E2E2E2E2E2E2E2E2E2E2E2E2E2E2E2E2E2E2E2E2E2E2E2E2E2E2E2F5F5F5F5F5F5F5F5F5F5F5F5F5F5F5E2E2E2E2E2E2E2E2E2E2E2E2E2E2E2E2E2E2E2E2E2E2E2E2E2E2E2E2E2F5F5E2E2E2F5F5
310
E2E2F5E2E2F5F5E2E2E2F5F5E2E2E2E2E2E2E2E2E2E2E2E2E2E2E2E2E2E2E2E2E2E2E2E2E2E2E2E2E2E2E2E2E2E2E2E2E2E2E2E2E2E2E2E2E2E2E2E2E2E2E2E2E2E2E2E2E2E2E2E2E2E2E2E2E2E2E2E2E2E2E2E2E2E2E2E2E2E2E2E2E2E2E2E2E2E2E2E2E2E2E2E2E2E2E2E2E2E2E2E2E2E2E2E2E2E2E2E2E2E2E2E2E2E2E2
310
E2E2E2E2E2E2E2E2E2E2E2E2E2E2E2E2E2E2E2E2E2E2E2E2E2E2E2E2E2E2E2E2E2E2E2E2E2E2E2E2E2E2E2E2E2E2E2E2E2E2E2E2E2E2E2E2E2E2E2E2E2E2E2E2E2E2E2E2E2E2E2E2E2E2E2E2E2E2F5E2E2E2E2E2E2F5E2E2E2E2E2E2F5E2E2E2E2E2E2E2E2E2E2E2E2E2E2E2E2E2E2E2E2E2E2E2E2E2E2E2E2E2F5F5E2E2E2
310
F5F5F5F5F5F5F5F5F5E2E2E2F5F5E2E2E2E2E2E2E2E2E2E2E2E2E2E2E2E2E2E2E2E2E2E2E2E2E2E2E2E2E2E2E2E2E2E2E2E2E2E2E2E2E2E2E2E2E2E2E2E2E2E2E2E2E2E2E2E2E2E2E2E2E2E2E2E2E2E2E2E2E2E2E2E2E2E2E2E2E2E2E2E2E2E2E2E2E2E2E2E2E2E2E2E2E2E2E2E2E2E2E2E2E2E2E2E2E2E2E2E2E2E2E2E2E2
310
E2E2E2E2E2E2E2E2E2E2E2E2E2E2E2E2E2E2E2E2E2E2E2E2E2E2E2E2E2E2E2E2E2E2E2E2E2E2E2E2E2E2E2E2E2E2E2E2E2E2E2E2E2E2E2E2E2E2E2E2E2E2E2E2E2E2E2E2E2E2E2E2E2E2E2E2E2E2E2E2F5E2E2E2E2E2E2F5E2E2E2E2E2E2F5E2E2E2E2E2E2E2E2E2E2E2E2E2E2E2E2E2E2E2E2E2E2E2E2E2E2E2E2E2F5F5E2
310
E2E2E2F5E2E2F5E2E2E2F5E2E2E2F5F5E2E2E2E2E2E2E2E2E2E2E2E2E2E2E2E2E2E2E2E2E2E2E2E2E2E2E2E2E2E2E2E2E2E2E2E2E2E2E2E2E2E2E2E2E2E2E2E2E2E2E2E2E2E2E2E2E2E2E2E2E2E2E2E2E2E2E2E2E2E2E2E2E2E2E2E2E2E2E2E2E2E2E2E2E2E2E2E2E2E2E2E2E2E2E2E2E2E2E2E2E2E2E2E2E2E2E2E2E2E2E2
310
E2E2E2E2E2E2E2E2E2E2E2E2E2E2E2E2E2E2E2E2E2E2E2E2E2E2E2E2E2E2E2E2E2E2E2E2E2E2E2E2E2E2E2E2E2E2E2E2E2E2E2E2E2E2E2E2E2E2E2E2E2E2E2E2E2E2E2E2E2E2E2E2E2E2E2E2E2E2E2E2E2E2F5E2E2E2E2E2E2F5E2E2E2E2E2E2F5E2E2E2E2E2E2E2E2E2E2E2E2E2E2E2E2E2E2E2E2E2E2E2E2E2E2E2E2E2F5
310
F5E2E2E2E2F5E2E2F5E2E2E2F5E2E2E2F5F5E2E2E2E2E2E2E2E2E2E2E2E2E2E2E2E2E2E2E2E2E2E2E2E2E2E2E2E2E2E2E2E2E2E2E2E2E2E2E2E2E2E2E2E2E2E2E2E2E2E2E2E2E2E2E2E2E2E2E2E2E2E2E2E2E2E2E2E2E2E2E2E2E2E2E2E2E2E2E2E2E2E2E2E2E2E2E2E2E2E2E2E2E2E2E2E2E2E2E2E2E2E2E2E2E2E2E2E2E2
310
E2E2E2E2E2E2E2E2E2E2E2E2E2E2E2E2E2E2E2E2E2E2E2E2E2E2E2E2E2E2E2E2E2E2E2E2E2E2E2E2E2E2E2E2E2E2E2E2E2E2E2E2E2E2E2E2E2E2E2E2E2E2E2E2E2E2E2E2E2E2E2E2E2E2E2E2E2E2E2E2E2E2E2E2F5E2E2E2E2E2E2F5E2E2E2E2E2E2F5E2E2E2E2E2E2E2E2E2E2E2E2E2E2E2E2E2E2E2E2E2E2E2E2E2E2E2E2
310
E2F5F5F5F5F5F5F5E2E2F5E2E2E2F5F5F5F5F5F5E2E2E2E2E2E2E2E2E2E2E2E2E2E2E2E2E2E2E2E2E2E2E2E2E2E2E2E2E2E2E2E2E2E2E2E2E2E2E2E2E2E2E2E2E2E2E2E2E2E2E2E2E2E2E2E2E2E2E2E2E2E2E2E2E2E2E2E2E2E2E2E2E2E2E2E2E2E2E2E2E2E2E2E2E2E2E2E2E2E2E2E2E2E2E2E2E2E2E2E2E2E2E2E2E2E2E2
310
E2E2E2E2E2E2E2E2E2E2E2E2E2E2E2E2E2E2E2E2E2E2E2E2E2E2E2E2E2E2E2E2E2E2E2E2E2E2E2E2E2E2E2E2E2E2E2E2E2E2E2E2E2E2E2E2E2E2E2E2E2E2E2E2E2E2E2E2E2E2E2E2E2E2E2E2E2E2E2E2E2E2E2E2E2E2F5E2E2E2E2E2E2F5E2E2E2E2E2E2F5E2E2E2E2E2E2E2E2E2E2E2E2E2E2E2E2E2E2E2E2E2E2E2E2E2E2
310
E2E2E2F5F5F5E2E2F5F5E2E2F5E2E2E2F5E2E2F5F5F5E2E2E2E2E2E2E2E2E2E2E2E2E2E2E2E2E2E2E2E2E2E2E2E2E2E2E2E2E2E2E2E2E2E2E2E2E2E2E2E2E2E2E2E2E2E2E2E2E2E2E2E2E2E2E2E2E2E2E2E2E2E2E2E2E2E2E2E2E2E2E2E2E2E2E2E2E2E2E2E2E2E2E2E2E2E2E2E2E2E2E2E2E2E2E2E2E2E2E2E2E2E2E2E2E2
310
E2E2E2E2E2E2E2E2E2E2E2E2E2E2E2E2E2E2E2E2E2E2E2E2E2E2E2E2E2E2E2E2E2E2E2E2E2E2E2E2E2E2E2E2E2E2E2E2E2E2E2E2E2E2E2E2E2E2E2E2E2E2E2E2E2E2E2E2E2E2E2E2E2E2E2E2E2E2E2E2E2E2E2E2E2E2E2E2F5E2E2E2E2E2E2F5E2E2E2E2E2E2F5E2E2E2E2E2E2E2E2E2E2E2E2E2E2E2E2E2E2E2E2E2E2E2E2
310
E2E2E2E2E2F5F5F5F5F5F5F5F5F5F5F5F5F5F5F5F5F5F5F5E2E2E2E2E2E2E2E2E2E2E2E2E2E2E2E2E2E2E2E2E2E2E2E2E2E2E2E2E2E2E2E2E2E2E2E2E2E2E2E2E2E2E2E2E2E2E2E2E2E2E2E2E2E2E2E2E2E2E2E2E2E2E2E2E2E2E2E2E2E2E2E2E2E2E2E2E2E2E2E2E2E2E2E2E2E2E2E2E2E2E2E2E2E2E2E2E2E2E2E2E2E2E2
310
E2E2E2E2E2E2E2E2E2E2E2E2E2E2E2E2E2E2E2E2E2E2E2E2E2E2E2E2E2E2E2E2E2E2E2E2E2E2E2E2E2E2E2E2E2E2E2E2E2E2E2E2E2E2E2E2E2E2E2E2E2E2E2E2E2E2E2E2E2E2E2E2E2E2E2E2E2E2E2E2E2E2E2E2E2E2E2E2E2E2F5F5F5F5F5F5F5F5F5F5F5F5F5F5F5E2E2E2E2E2E2E2E2E2E2E2E2E2E2E2E2E2E2E2E2E2E2
310
E2F5F5F5F5F5F5F5F5F5F5F5F5F5F5F5F5F5F5F5F5F5F5F5F5F5F5F5F5F5F5F5F5F5F5F5E2E2E2E2E2E2E2E2E2E2E2E2E2E2E2E2E2E2E2E2E2E2E2E2E2E2E2E2E2E2E2E2E2E2E2E2E2E2E2E2E2E2E2E2E2E2E2E2E2E2E2E2E2E2E2E2E2E2E2E2E2E2E2E2E2E2E2E2E2E2E2E2E2E2E2E2E2E2E2E2E2E2E2E2E2E2E2E2E2E2E2
310
E2E2E2E2E2E2E2E2E2E2E2E2E2E2E2E2E2E2E2E2E2E2E2E2E2E2E2E2E2E2E2E2E2E2E2E2E2E2E2E2E2E2E2E2E2E2E2E2E2E2E2E2E2E2E2E2E2E2E2E2E2E2E2E2E2E2E2E2E2E2E2E2E2E2E2E2E2E2E2E2E2E2E2E2E2E2E2E2E2E2E2E2F5F5F5F5F5F5F5F5F5F5F5F5F5F5F5E2E2E2E2E2E2E2E2E2E2E2E2E2E2E2E2E2E2E2E2
310
E2E2E2F5F5F5F5E2E2E2E2E2E2E2E2E2E2E2F5E2E2E2E2E2E2E2E2E2E2E2E2E2E2E2E2F5F5F5E2E2E2E2E2E2E2E2E2E2E2E2E2E2E2E2E2E2E2E2E2E2E2E2E2E2E2E2E2E2E2E2E2E2E2E2E2E2E2E2E2E2E2E2E2E2E2E2E2E2E2E2E2E2E2E2E2E2E2E2E2E2E2E2E2E2E2E2E2E2E2E2E2E2E2E2E2E2E2E2E2E2E2E2E2E2E2E2E2
310
E2E2E2E2E2E2E2E2E2E2E2E2E2E2E2E2E2E2E2E2E2E2E2E2E2E2E2E2E2E2E2E2E2E2E2E2E2E2E2E2E2E2E2E2E2E2E2E2E2E2E2E2E2E2E2E2E2E2E2E2E2E2E2E2E2E2E2E2E2E2E2E2E2E2E2E2E2E2E2E2E2E2E2E2E2E2E2E2E2E2E2E2E2E2F5E2F5F5E2E2E2F5E2E2E2F5F5E2F5E2E2E2E2E2E2E2E2E2E2E2E2E2E2E2E2E2E2
310
E2E2E2E2E2F5F5F5F5E2E2E2E2E2E2E2E2E2E2E2F5E2E2E2E2E2E2E2E2E2E2E2E2E2E2E2E2F5F5F5E2E2E2E2E2E2E2E2E2E2E2E2E2E2E2E2E2E2E2E2E2E2E2E2E2E2E2E2E2E2E2E2E2E2E2E2E2E2E2E2E2E2E2E2E2E2E2E2E2E2E2E2E2E2E2E2E2E2E2E2E2E2E2E2E2E2E2E2E2E2E2E2E2E2E2E2E2E2E2E2E2E2E2E2E2E2E2
310
E2E2E2E2E2E2E2E2E2E2E2E2E2E2E2E2E2E2E2E2E2E2E2E2E2E2E2E2E2E2E2E2E2E2E2E2E2E2E2E2E2E2E2E2E2E2E2E2E2E2E2E2E2E2E2E2E2E2E2E2E2E2E2E2E2E2E2E2E2E2E2E2E2E2E2E2E2E2E2E2E2E2E2E2E2E2E2E2E2E2E2E2E2E2E2E2F5F5F5E2E2E2E2F5E2E2E2E2F5F5F5E2E2E2E2E2E2E2E2E2E2E2E2E2E2E2E2
310
E2E2E2E2E2E2E2F5F5F5F5E2E2E2E2E2E2E2E2E2E2E2F5E2E2E2E2E2E2E2E2E2E2E2E2E2E2E2E2F5F5F5E2E2E2E2E2E2E2E2E2E2E2E2E2E2E2E2E2E2E2E2E2E2E2E2E2E2E2E2E2E2E2E2E2E2E2E2E2E2E2E2E2E2E2E2E2E2E2E2E2E2E2E2E2E2E2E2E2E2E2E2E2E2E2E2E2E2E2E2E2E2E2E2E2E2E2E2E2E2E2E2E2E2E2E2E2
310
E2E2E2E2E2E2E2E2E2E2E2E2E2E2E2E2E2E2E2E2E2E2E2E2E2E2E2E2E2E2E2E2E2E2E2E2E2E2E2E2E2E2E2E2E2E2E2E2E2E2E2E2E2E2E2E2E2E2E2E2E2E2E2E2E2E2E2E2E2E2E2E2E2E2E2E2E2E2E2E2E2E2E2E2E2E2E2E2E2E2E2E2E2E2E2E2E2E2F5E2E2E2E2E2E2F5E2E2E2E2E2E2F5E2E2E2E2E2E2E2E2E2E2E2E2E2E2
310
E2E2E2E2E2E2E2E2E2E2E2F5F5E2E2E2E2E2E2E2E2E2E2E2F5E2E2E2E2E2E2E2E2E2E2E2E2E2E2E2E2F5F5E2E2E2E2E2E2E2E2E2E2E2E2E2E2E2E2E2E2E2E2E2E2E2E2E2E2E2E2E2E2E2E2E2E2E2E2E2E2E2E2E2E2E2E2E2E2E2E2E2E2E2E2E2E2E2E2E2E2E2E2E2E2E2E2E2E2E2E2E2E2E2E2E2E2E2E2E2E2E2E2E2E2E2E2
310
E2E2E2E2E2E2E2E2E2E2E2E2E2E2E2E2E2E2E2E2E2E2E2E2E2E2E2E2E2E2E2E2E2E2E2E2E2E2E2E2E2E2E2E2E2E2E2E2E2E2E2E2E2E2E2E2E2E2E2E2E2E2E2E2E2E2E2E2E2E2E2E2E2E2E2E2E2E2E2E2E2E2E2E2E2E2E2E2E2E2E2E2E2E2E2E2E2E2E2E2F5E2E2E2E2E2E2F5E2E2E2E2E2E2F5E2E2E2E2E2E2E2E2E2E2E2E2
310
E2E2E2E2E2E2E2E2E2E2E2E2E2F5F5F5F5F5F5F5F5F5F5F5F5F5F5F5F5F5F5F5F5F5F5F5F5F5F5F5F5F5F5F5F5E2E2E2E2E2E2E2E2E2E2E2E2E2E2E2E2E2E2E2E2E2E2E2E2E2E2E2E2E2E2E2E2E2E2E2E2E2E2E2E2E2E2E2E2E2E2E2E2E2E2E2E2E2E2E2E2E2E2E2E2E2E2E2E2E2E2E2E2E2E2E2E2E2E2E2E2E2E2E2E2E2E2
310
E2E2E2E2E2E2E2E2E2E2E2E2E2E2E2E2E2E2E2E2E2E2E2E2E2E2E2E2E2E2E2E2E2E2E2E2E2E2E2E2E2E2E2E2E2E2E2E2E2E2E2E2E2E2E2E2E2E2E2E2E2E2E2E2E2E2E2E2E2E2E2E2E2E2E2E2E2E2E2E2E2E2E2E2E2E2E2E2E2E2E2E2E2E2E2E2E2E2E2E2E2E2F5E2E2E2E2E2E2F5E2E2E2E2E2E2F5E2E2E2E2E2E2E2E2E2E2
310
E2E2E2E2E2E2E2E2E2E2E2E2E2E2E2F5F5E2E2E2E2E2E2E2E2E2E2E2F5E2E2E2E2E2E2E2E2E2E2E2E2E2E2E2E2F5F5E2E2E2E2E2E2E2E2E2E2E2E2E2E2E2E2E2E2E2E2E2E2E2E2E2E2E2E2E2E2E2E2E2E2E2E2E2E2E2E2E2E2E2E2E2E2E2E2E2E2E2E2E2E2E2E2E2E2E2E2E2E2E2E2E2E2E2E2E2E2E2E2E2E2E2E2E2E2E2E2
310
E2E2E2E2E2E2E2E2E2E2E2E2E2E2E2E2E2E2E2E2E2E2E2E2E2E2E2E2E2E2E2E2E2E2E2E2E2E2E2E2E2E2E2E2E2E2E2E2E2E2E2E2E2E2E2E2E2E2E2E2E2E2E2E2E2E2E2E2E2E2E2E2E2E2E2E2E2E2E2E2E2E2E2E2E2E2E2E2E2E2E2E2E2E2E2E2E2E2E2E2E2E2E2F5E2E2E2E2E2E2E2F5E2E2E2F5E2E2E2F5E2E2E2E2E2E2E2
310
E2E2E2E2E2E2E2E2E2E2E2E2E2F5F5E2F5F5F5E2E2E2E2E2E2E2E2E2E2E2F5E2E2E2E2E2E2E2E2E2E2E2E2E2E2E2E2F5F5F5F5F5E2E2E2E2E2E2E2E2E2E2E2E2E2E2E2E2E2E2E2E2E2E2E2E2E2E2E2E2E2E2E2E2E2E2E2E2E2E2E2E2E2E2E2E2E2E2E2E2E2E2E2E2E2E2E2E2E2E2E2E2E2E2E2E2E2E2E2E2E2E2E2E2E2E2E2
310
E2E2E2E2E2E2E2E2E2E2E2E2E2E2E2E2E2E2E2E2E2E2E2E2E2E2E2E2E2E2E2E2E2E2E2E2E2E2E2E2E2E2E2E2E2E2E2E2E2E2E2E2E2E2E2E2E2E2E2E2E2E2E2E2E2E2E2E2E2E2E2E2E2E2E2E2E2E2E2E2E2E2E2E2E2E2E2E2E2E2E2E2E2E2E2E2E2E2E2E2E2E2E2E2E2F5E2E2F5F5F5E2E2F5E2E2F5F5F5F5E2F5E2E2E2E2E2
310
E2E2E2E2E2E2E2E2E2E2E2E2E2E2E2F5F5F5F5F5F5E2E2E2E2E2E2E2E2E2E2E2F5E2E2E2E2E2E2E2E2E2E2E2E2E2E2E2E2F5F5F5F5F5F5E2E2E2E2E2E2E2E2E2E2E2E2E2E2E2E2E2E2E2E2E2E2E2E2E2E2E2E2E2E2E2E2E2E2E2E2E2E2E2E2E2E2E2E2E2E2E2E2E2E2E2E2E2E2E2E2E2E2E2E2E2E2E2E2E2E2E2E2E2E2E2E2
310
E2E2E2E2E2E2E2E2E2E2E2E2E2E2E2E2E2E2E2E2E2E2E2E2E2E2E2E2E2E2E2E2E2E2E2E2E2E2E2E2E2E2E2E2E2E2E2E2E2E2E2E2E2E2E2E2E2E2E2E2E2E2E2E2E2E2E2E2E2E2E2E2E2E2E2E2E2E2E2E2E2E2E2E2E2E2E2E2E2E2E2E2E2E2E2E2E2E2E2E2E2E2E2E2E2E2E2F5E2E2F5E2F5E2E2F5E2E2F5E2E2F5E2F5E2E2E2
310
E2E2E2E2E2E2E2E2E2E2E2E2E2E2E2E2E2F5F5F5F5F5F5E2E2E2E2E2E2E2E2E2E2E2F5E2E2E2E2E2E2E2E2E2E2E2E2E2E2E2E2F5F5F5F5F5F5E2E2E2E2E2E2E2E2E2E2E2E2E2E2E2E2E2E2E2E2E2E2E2E2E2E2E2E2E2E2E2E2E2E2E2E2E2E2E2E2E2E2E2E2E2E2E2E2E2E2E2E2E2E2E2E2E2E2E2E2E2E2E2E2E2E2E2E2E2E2
310
E2E2E2E2E2E2E2E2E2E2E2E2E2E2E2E2E2E2E2E2E2E2E2E2E2E2E2E2E2E2E2E2E2E2E2E2E2E2E2E2E2E2E2E2E2E2E2E2E2E2E2E2E2E2E2E2E2E2E2E2E2E2E2E2E2E2E2E2E2E2E2E2E2E2E2E2E2E2E2E2E2E2E2E2E2E2E2E2E2E2E2E2E2E2E2E2E2E2E2E2E2E2E2E2E2E2E2E2E2F5E2E2F5F5F5E2E2F5E2E2F5E2F5F5E2F5E2
310
E2E2E2E2E2E2E2E2E2E2E2E2E2E2E2E2E2E2E2F5F5F5F5F5F5E2E2E2E2E2E2E2E2E2E2E2F5E2E2E2E2E2E2E2E2E2E2E2E2E2E2E2E2F5F5F5F5F5F5E2E2E2E2E2E2E2E2E2E2E2E2E2E2E2E2E2E2E2E2E2E2E2E2E2E2E2E2E2E2E2E2E2E2E2E2E2E2E2E2E2E2E2E2E2E2E2E2E2E2E2E2E2E2E2E2E2E2E2E2E2E2E2E2E2E2E2E2
310
E2E2E2E2E2E2E2E2E2E2E2E2E2E2E2E2E2E2E2E2E2E2E2E2E2E2E2E2E2E2E2E2E2E2E2E2E2E2E2E2E2E2E2E2E2E2E2E2E2E2E2E2E2E2E2E2E2E2E2E2E2E2E2E2E2E2E2E2E2E2E2E2E2E2E2E2E2E2E2E2E2E2E2E2E2E2E2E2E2E2E2E2E2E2E2E2E2E2E2E2E2E2E2E2E2E2E2E2E2E2E2F5E2E2E2E2E2E2E2F5E2E2E2F5F5E2E2
310
F5E2E2E2E2E2E2E2E2E2E2E2E2E2E2E2E2E2E2E2E2F5F5E2F5F5F5E2E2E2E2E2E2E2E2E2E2E2F5E2E2E2E2E2E2E2E2E2E2E2E2E2E2E2E2F5F5F5F5F5E2E2E2E2E2E2E2E2E2E2E2E2E2E2E2E2E2E2E2E2E2E2E2E2E2E2E2E2E2E2E2E2E2E2E2E2E2E2E2E2E2E2E2E2E2E2E2E2E2E2E2E2E2E2E2E2E2E2E2E2E2E2E2E2E2E2E2
310
E2E2E2E2E2E2E2E2E2E2E2E2E2E2E2E2E2E2E2E2E2E2E2E2E2E2E2E2E2E2E2E2E2E2E2E2E2E2E2E2E2E2E2E2E2E2E2E2E2E2E2E2E2E2E2E2E2E2E2E2E2E2E2E2E2E2E2E2E2E2E2E2E2E2E2E2E2E2E2E2E2E2E2E2E2E2E2E2E2E2E2E2E2E2E2E2E2E2E2E2E2E2E2E2E2E2E2E2E2E2E2E2E2E2F5E2E2E2E2E2E2F5E2E2E2E2E2
310
E2F5E2E2E2E2E2E2E2E2E2E2E2E2E2E2E2E2E2E2E2E2E2E2E2E2E2F5F5E2E2E2E2E2E2E2E2E2E2E2F5E2E2E2E2E2E2E2E2E2E2E2E2E2E2E2E2F5F5E2E2E2E2E2E2E2E2E2E2E2E2E2E2E2E2E2E2E2E2E2E2E2E2E2E2E2E2E2E2E2E2E2E2E2E2E2E2E2E2E2E2E2E2E2E2E2E2E2E2E2E2E2E2E2E2E2E2E2E2E2E2E2E2E2E2E2E2
310
E2E2E2E2E2E2E2E2E2E2E2E2E2E2E2E2E2E2E2E2E2E2E2E2E2E2E2E2E2E2E2E2E2E2E2E2E2E2E2E2E2E2E2E2E2E2E2E2E2E2E2E2E2E2E2E2E2E2E2E2E2E2E2E2E2E2E2E2E2E2E2E2E2E2E2E2E2E2E2E2E2E2E2E2E2E2E2E2E2E2E2E2E2E2E2E2E2E2E2E2E2E2E2E2E2E2E2E2E2E2E2E2E2E2E2E2F5E2E2E2E2E2E2F5E2E2E2
310
E2E2E2F5E2E2E2E2E2E2E2E2E2E2E2E2E2E2E2E2E2E2E2E2E2E2E2E2E2F5F5F5F5F5F5F5F5F5F5F5F5F5F5F5F5F5F5F5F5F5F5F5F5F5F5F5F5F5F5F5F5E2E2E2E2E2E2E2E2E2E2E2E2E2E2E2E2E2E2E2E2E2E2E2E2E2E2E2E2E2E2E2E2E2E2E2E2E2E2E2E2E2E2E2E2E2E2E2E2E2E2E2E2E2E2E2E2E2E2E2E2E2E2E2E2E2E2
310
E2E2E2E2E2E2E2E2E2E2E2E2E2E2E2E2E2E2E2E2E2E2E2E2E2E2E2E2E2E2E2E2E2E2E2E2E2E2E2E2E2E2E2E2E2E2E2E2E2E2E2E2E2E2E2E2E2E2E2E2E2E2E2E2E2E2E2E2E2E2E2E2E2E2E2E2E2E2E2E2E2E2E2E2E2E2E2E2E2E2E2E2E2E2E2E2E2E2E2E2E2E2E2E2E2E2E2E2E2E2E2E2E2E2E2E2E2E2F5E2E2E2E2E2E2F5E2
310
E2E2E2E2E2F5E2E2E2E2E2E2E2E2E2E2E2E2E2E2E2E2E2E2E2E2E2E2E2E2E2F5F5E2E2E2E2E2E2E2E2E2E2E2F5E2E2E2E2E2E2E2E2E2E2E2E2E2E2E2E2F5F5E2E2E2E2E2E2E2E2E2E2E2E2E2E2E2E2E2E2E2E2E2E2E2E2E2E2E2E2E2E2E2E2E2E2E2E2E2E2E2E2E2E2E2E2E2E2E2E2E2E2E2E2E2E2E2E2E2E2E2E2E2E2E2E2
310
E2E2E2E2E2E2E2E2E2E2E2E2E2E2E2E2E2E2E2E2E2E2E2E2E2E2E2E2E2E2E2E2E2E2E2E2E2E2E2E2E2E2E2E2E2E2E2E2E2E2E2E2E2E2E2E2E2E2E2E2E2E2E2E2E2E2E2E2E2E2E2E2E2E2E2E2E2E2E2E2E2E2E2E2E2E2E2E2E2E2E2E2E2E2E2E2E2E2E2E2E2E2E2E2E2E2E2E2E2E2E2E2E2E2E2E2E2E2E2E2F5F5F5E2E2E2E2
310
F5E2E2E2E2F5F5F5E2E2E2E2E2E2E2E2E2E2E2E2E2E2E2E2E2E2E2E2E2E2E2F5F5F5F5E2E2E2E2E2E2E2E2E2E2E2F5E2E2E2E2E2E2E2E2E2E2E2E2E2E2E2E2F5F5F5E2E2E2E2E2E2E2E2E2E2E2E2E2E2E2E2E2E2E2E2E2E2E2E2E2E2E2E2E2E2E2E2E2E2E2E2E2E2E2E2E2E2E2E2E2E2E2E2E2E2E2E2E2E2E2E2E2E2E2E2E2
310
E2E2E2E2E2E2E2E2E2E2E2E2E2E2E2E2E2E2E2E2E2E2E2E2E2E2E2E2E2E2E2E2E2E2E2E2E2E2E2E2E2E2E2E2E2E2E2E2E2E2E2E2E2E2E2E2E2E2E2E2E2E2E2E2E2E2E2E2E2E2E2E2E2E2E2E2E2E2E2E2E2E2E2E2E2E2E2E2E2E2E2E2E2E2E2E2E2E2E2E2E2E2E2E2E2E2E2E2E2E2E2E2E2E2E2E2E2E2E2E2E2E2F5F5F5F5E2
310
E2E2F5E2E2E2F5F5F5F5E2E2E2E2E2E2E2E2E2E2E2E2E2E2E2E2E2E2E2E2E2E2E2F5F5F5F5E2E2E2E2E2E2E2E2E2E2E2F5E2E2E2E2E2E2E2E2E2E2E2E2E2E2E2E2F5F5F5E2E2E2E2E2E2E2E2E2E2E2E2E2E2E2E2E2E2E2E2E2E2E2E2E2E2E2E2E2E2E2E2E2E2E2E2E2E2E2E2E2E2E2E2E2E2E2E2E2E2E2E2E2E2E2E2E2E2E2
310
E2E2E2E2E2E2E2E2E2E2E2E2E2E2E2E2E2E2E2E2E2E2E2E2E2E2E2E2E2E2E2E2E2E2E2E2E2E2E2E2E2E2E2E2E2E2E2E2E2E2E2E2E2E2E2E2E2E2E2E2E2E2E2E2E2E2E2E2E2E2E2E2E2E2E2E2E2E2E2E2E2E2E2E2E2E2E2E2E2E2E2E2E2E2E2E2E2E2E2E2E2E2E2E2E2E2E2E2E2E2E2E2E2E2E2E2E2E2E2E2E2E2E2E2F5F5F5
310
F5E2E2E2F5E2E2E2E2F5F5F5E2E2E2E2E2E2E2E2E2E2E2E2E2E2E2E2E2E2E2E2E2E2E2F5F5F5F5E2E2E2E2E2E2E2E2E2E2E2F5E2E2E2E2E2E2E2E2E2E2E2E2E2E2E2E2F5F5F5E2E2E2E2E2E2E2E2E2E2E2E2E2E2E2E2E2E2E2E2E2E2E2E2E2E2E2E2E2E2E2E2E2E2E2E2E2E2E2E2E2E2E2E2E2E2E2E2E2E2E2E2E2E2E2E2E2
310
E2E2E2E2E2E2E2E2E2E2E2E2E2E2E2E2E2E2E2E2E2E2E2E2E2E2E2E2E2E2E2E2E2E2E2E2E2E2E2E2E2E2E2E2E2E2E2E2E2E2E2E2E2E2E2E2E2E2E2E2E2E2E2E2E2E2E2E2E2E2E2E2E2E2E2E2E2E2E2E2E2E2E2E2E2E2E2E2E2E2E2E2E2E2E2E2E2E2E2E2E2E2E2E2E2E2E2E2E2E2E2E2E2E2E2E2E2E2E2E2E2E2E2E2E2E2F5
310
F5F5F5F5F5F5F5F5F5F5F5F5F5F5E2E2E2E2E2E2E2E2E2E2E2E2E2E2E2E2E2E2E2E2E2E2E2F5F5F5F5F5F5F5F5F5F5F5F5F5F5F5F5F5F5F5F5F5F5F5F5F5F5F5F5F5F5F5F5F5F5F5E2E2E2E2E2E2E2E2E2E2E2E2E2E2E2E2E2E2E2E2E2E2E2E2E2E2E2E2E2E2E2E2E2E2E2E2E2E2E2E2E2E2E2E2E2E2E2E2E2E2E2E2E2E2E2
310
E2E2E2E2E2E2E2E2E2E2E2E2E2E2E2E2E2E2E2E2E2E2E2E2E2E2E2E2E2E2E2E2E2E2E2E2E2E2E2E2E2E2E2E2E2E2E2E2E2E2E2E2E2E2E2E2E2E2E2E2E2E2E2E2E2E2E2E2E2E2E2E2E2E2E2E2E2E2E2E2E2E2E2E2E2E2E2E2E2E2E2E2E2E2E2E2E2E2E2E2E2E2E2E2E2E2E2E2E2E2E2E2E2E2E2E2E2E2E2E2E2E2E2E2E2E2E2
310
E2E2E2E2F5F5F5F5F5F5F5F5F5E2E2E2E2E2E2E2E2E2E2E2E2E2E2E2E2E2E2E2E2E2E2E2E2E2E2E2E2E2E2E2E2F5F5F5F5F5F5F5F5F5F5F5F5F5F5F5F5F5F5F5E2E2E2E2E2E2E2E2E2E2E2E2E2E2E2E2E2E2E2E2E2E2E2E2E2E2E2E2E2E2E2E2E2E2E2E2E2E2E2E2E2E2E2E2E2E2E2E2E2E2E2E2E2E2E2E2E2E2E2E2E2E2E2
310
E2E2E2E2E2E2E2E2E2E2E2E2E2E2E2E2E2E2E2E2E2E2E2E2E2E2E2E2E2E2E2E2E2E2E2E2E2E2E2E2E2E2E2E2E2E2E2E2E2E2E2E2E2E2E2E2E2E2E2E2E2E2E2E2E2E2E2E2E2E2E2E2E2E2E2E2E2E2E2E2E2E2E2E2E2E2E2E2E2E2E2E2E2E2E2E2E2E2E2E2E2E2E2E2E2E2E2E2E2E2E2E2E2E2E2E2E2E2E2E2E2E2E2E2E2E2E2
310
E2E2E2E2E2E2F5E2E2F5F5F5E2E2F5E2E2E2E2E2E2E2E2E2E2E2E2E2E2E2E2E2E2E2E2E2E2E2E2E2E2E2E2E2E2E2E2F5E2E2E2E2E2E2E2E2F5E2E2E2E2E2E2E2E2F5E2E2E2E2E2E2E2E2E2E2E2E2E2E2E2E2E2E2E2E2E2E2E2E2E2E2E2E2E2E2E2E2E2E2E2E2E2E2E2E2E2E2E2E2E2E2E2E2E2E2E2E2E2E2E2E2E2E2E2E2E2
310
E2E2E2E2E2E2E2E2E2E2E2E2E2E2E2E2E2E2E2E2E2E2E2E2E2E2E2E2E2E2E2E2E2E2E2E2E2E2E2E2E2E2E2E2E2E2E2E2E2E2E2E2E2E2E2E2E2E2E2E2E2E2E2E2E2E2E2E2E2E2E2E2E2E2E2E2E2E2E2E2E2E2E2E2E2E2E2E2E2E2E2E2E2E2E2E2E2E2E2E2E2E2E2E2E2E2E2E2E2E2E2E2E2E2E2E2E2E2E2E2E2E2E2E2E2E2E2
310
E2E2E2E2E2E2E2E2F5E2E2F5F5F5E2E2F5E2E2E2E2E2E2E2E2E2E2E2E2E2E2E2E2E2E2E2E2E2E2E2E2E2E2E2E2E2E2E2E2F5E2E2E2E2E2E2E2E2F5E2E2E2E2E2E2E2E2F5E2E2E2E2E2E2E2E2E2E2E2E2E2E2E2E2E2E2E2E2E2E2E2E2E2E2E2E2E2E2E2E2E2E2E2E2E2E2E2E2E2E2E2E2E2E2E2E2E2E2E2E2E2E2E2E2E2E2E2
310
E2E2E2E2E2E2E2E2E2E2E2E2E2E2E2E2E2E2E2E2E2E2E2E2E2E2E2E2E2E2E2E2E2E2E2E2E2E2E2E2E2E2E2E2E2E2E2E2E2E2E2E2E2E2E2E2E2E2E2E2E2E2E2E2E2E2E2E2E2E2E2E2E2E2E2E2E2E2E2E2E2E2E2E2E2E2E2E2E2E2E2E2E2E2E2E2E2E2E2E2E2E2E2E2E2E2E2E2E2E2E2E2E2E2E2E2E2E2E2E2E2E2E2E2E2E2E2
310
E2E2E2E2E2E2E2E2E2E2F5E2E2F5F5F5E2E2F5E2E2E2E2E2E2E2E2E2E2E2E2E2E2E2E2E2E2E2E2E2E2E2E2E2E2E2E2E2E2E2E2F5E2E2E2E2E2E2E2E2F5E2E2E2E2E2E2E2E2F5E2E2E2E2E2E2E2E2E2E2E2E2E2E2E2E2E2E2E2E2E2E2E2E2E2E2E2E2E2E2E2E2E2E2E2E2E2E2E2E2E2E2E2E2E2E2E2E2E2E2E2E2E2E2E2E2E2
310
E2E2E2E2E2E2E2E2E2E2E2E2E2E2E2E2E2E2E2E2E2E2E2E2E2E2E2E2E2E2E2E2E2E2E2E2E2E2E2E2E2E2E2E2E2E2E2E2E2E2E2E2E2E2E2E2E2E2E2E2E2E2E2E2E2E2E2E2E2E2E2E2E2E2E2E2E2E2E2E2E2E2E2E2E2E2E2E2E2E2E2E2E2E2E2E2E2E2E2E2E2E2E2E2E2E2E2E2E2E2E2E2E2E2E2E2E2E2E2E2E2E2E2E2E2E2E2
310
E2E2E2E2E2E2E2E2E2E2E2E2F5E2E2F5F5F5E2E2F5E2E2E2E2E2E2E2E2E2E2E2E2E2E2E2E2E2E2E2E2E2E2E2E2E2E2E2E2E2E2E2E2F5E2E2E2E2E2E2E2E2F5E2E2E2E2E2E2E2E2F5E2E2E2E2E2E2E2E2E2E2E2E2E2E2E2E2E2E2E2E2E2E2E2E2E2E2E2E2E2E2E2E2E2E2E2E2E2E2E2E2E2E2E2E2E2E2E2E2E2E2E2E2E2E2E2
310
E2E2E2E2E2E2E2E2E2E2E2E2E2E2E2E2E2E2E2E2E2E2E2E2E2E2E2E2E2E2E2E2E2E2E2E2E2E2E2E2E2E2E2E2E2E2E2E2E2E2E2E2E2E2E2E2E2E2E2E2E2E2E2E2E2E2E2E2E2E2E2E2E2E2E2E2E2E2E2E2E2E2E2E2E2E2E2E2E2E2E2E2E2E2E2E2E2E2E2E2E2E2E2E2E2E2E2E2E2E2E2E2E2E2E2E2E2E2E2E2E2E2E2E2E2E2E2
310
E2E2E2E2E2E2E2E2E2E2E2E2E2E2F5F5F5F5F5F5F5F5F5E2E2E2E2E2E2E2E2E2E2E2E2E2E2E2E2E2E2E2E2E2E2E2E2E2E2E2E2E2E2E2E2F5F5F5F5F5F5F5F5F5F5F5F5F5F5F5F5F5F5F5E2E2E2E2E2E2E2E2E2E2E2E2E2E2E2E2E2E2E2E2E2E2E2E2E2E2E2E2E2E2E2E2E2E2E2E2E2E2E2E2E2E2E2E2E2E2E2E2E2E2E2E2E2
310
E2E2E2E2E2E2E2E2E2E2E2E2E2E2E2E2E2E2E2E2E2E2E2E2E2E2E2E2E2E2E2E2E2E2E2E2E2E2E2E2E2E2E2E2E2E2E2E2E2E2E2E2E2E2E2E2E2E2E2E2E2E2E2E2E2E2E2E2E2E2E2E2E2E2E2E2E2E2E2E2E2E2E2E2E2E2E2E2E2E2E2E2E2E2E2E2E2E2E2E2E2E2E2E2E2E2E2E2E2E2E2E2E2E2E2E2E2E2E2E2E2E2E2E2E2E2E2
310
E2E2E2E2E2E2E2E2E2E2E2E2E2E2E2E2E2E2E2F5F5F5E2E2E2E2E2E2E2E2E2E2E2E2E2E2E2E2E2E2E2E2E2E2E2E2E2E2E2E2E2E2E2E2E2E2E2E2E2E2E2E2E2E2E2F5F5F5F5E2E2E2E2E2E2E2E2E2E2E2E2E2E2E2E2E2E2E2E2E2E2E2E2E2E2E2E2E2E2E2E2E2E2E2E2E2E2E2E2E2E2E2E2E2E2E2E2E2E2E2E2E2E2E2E2E2E2
310
E2E2E2E2E2E2E2E2E2E2E2E2E2E2E2E2E2E2E2E2E2E2E2E2E2E2E2E2E2E2E2E2E2E2E2E2E2E2E2E2E2E2E2E2E2E2E2E2E2E2E2E2E2E2E2E2E2E2E2E2E2E2E2E2E2E2E2E2E2E2E2E2E2E2E2E2E2E2E2E2E2E2E2E2E2E2E2E2E2E2E2E2E2E2E2E2E2E2E2E2E2E2E2E2E2E2E2E2E2E2E2E2E2E2E2E2E2E2E2E2E2E2E2E2E2E2E2
310
E2E2E2E2E2E2E2E2E2E2E2E2E2E2E2E2E2E2E2E2E2F5F5F5E2E2E2E2E2E2E2E2E2E2E2E2E2E2E2E2E2E2E2E2E2E2E2E2E2E2E2E2E2E2E2E2E2E2E2E2E2E2E2E2E2E2E2F5F5F5E2E2E2E2E2E2E2E2E2E2E2E2E2E2E2E2E2E2E2E2E2E2E2E2E2E2E2E2E2E2E2E2E2E2E2E2E2E2E2E2E2E2E2E2E2E2E2E2E2E2E2E2E2E2E2E2E2
310
E2E2E2E2E2E2E2E2E2E2E2E2E2E2E2E2E2E2E2E2E2E2E2E2E2E2E2E2E2E2E2E2E2E2E2E2E2E2E2E2E2E2E2E2E2E2E2E2E2E2E2E2E2E2E2E2E2E2E2E2E2E2E2E2E2E2E2E2E2E2E2E2E2E2E2E2E2E2E2E2E2E2E2E2E2E2E2E2E2E2E2E2E2E2E2E2E2E2E2E2E2E2E2E2E2E2E2E2E2E2E2E2E2E2E2E2E2E2E2E2E2E2E2E2E2E2E2
310
E2E2E2E2E2E2E2E2E2E2E2E2E2E2E2E2E2E2E2E2E2E2E2E2F5E2E2E2E2E2E2E2E2E2E2E2E2E2E2E2E2E2E2E2E2E2E2E2E2E2E2E2E2E2E2E2E2E2E2E2E2E2E2E2E2E2E2E2E2E2F5E2E2E2E2E2E2E2E2E2E2E2E2E2E2E2E2E2E2E2E2E2E2E2E2E2E2E2E2E2E2E2E2E2E2E2E2E2E2E2E2E2E2E2E2E2E2E2E2E2E2E2E2E2E2E2E2
310
E2E2E2E2E2E2E2E2E2E2E2E2E2E2E2E2E2E2E2E2E2E2E2E2E2E2E2E2E2E2E2E2E2E2E2E2E2E2E2E2E2E2E2E2E2E2E2E2E2E2E2E2E2E2E2E2E2E2E2E2E2E2E2E2E2E2E2E2E2E2E2E2E2E2E2E2E2E2E2E2E2E2E2E2E2E2E2E2E2E2E2E2E2E2E2E2E2E2E2E2E2E2E2E2E2E2E2E2E2E2E2E2E2E2E2E2E2E2E2E2E2E2E2E2E2E2E2
310
E2E2E2E2E2E2E2E2E2E2E2E2E2E2E2E2E2E2E2E2E2E2E2E2E2E2E2E2E2E2E2E2E2E2E2E2E2E2E2E2E2E2E2E2E2E2E2E2E2E2E2E2E2E2E2E2E2E2E2E2E2E2E2E2E2E2E2E2E2E2E2E2E2E2E2E2E2E2E2E2E2E2E2E2E2E2E2E2E2E2E2E2E2E2E2E2E2E2E2E2E2E2E2E2E2E2E2E2E2E2E2E2E2E2E2E2E2E2E2E2E2E2E2E2E2E2E2
310
E2E2E2E2E2E2E2E2E2E2E2E2E2E2E2E2E2E2E2E2E2E2E2E2E2E2E2E2E2E2E2E2E2E2E2E2E2E2E2E2E2E2E2E2E2E2E2E2E2E2E2E2E2E2E2E2E2E2E2E2E2E2E2E2E2E2E2E2E2E2E2E2E2E2E2E2E2E2E2E2E2E2E2E2E2E2E2E2E2E2E2E2E2E2E2E2E2E2E2E2E2E2E2E2E2E2E2E2E2E2E2E2E2E2E2E2E2E2E2E2E2E2E2E2E2E2E2
310
E2E2E2E2E2E2E2E2E2E2E2E2E2E2E2E2E2E2E2E2E2E2E2E2E2E2E2E2E2E2E2E2E2E2E2E2E2E2E2E2E2E2E2E2E2E2E2E2E2E2E2E2E2E2E2E2E2E2E2E2E2E2E2E2E2E2E2E2E2E2E2E2E2E2E2E2E2E2E2E2E2E2E2E2E2E2E2E2E2E2E2E2E2E2E2E2E2E2E2E2E2E2E2E2E2E2E2E2E2E2E2E2E2E2E2E2E2E2E2E2E2E2E2E2E2E2E2
310
E2E2E2E2E2E2E2E2E2E2E2E2E2E2E2E2E2E2E2E2E2E2E2E2E2E2E2E2E2E2E2E2E2E2E2E2E2E2E2E2E2E2E2E2E2E2E2E2E2E2E2E2E2E2E2E2E2E2E2E2E2E2E2E2E2E2E2E2E2E2E2E2E2E2E2E2E2E2E2E2E2E2E2E2E2E2E2E2E2E2E2E2E2E2E2E2E2E2E2E2E2E2E2E2E2E2E2E2E2E2E2E2E2E2E2E2E2E2E2E2E2E2E2E2E2E2E2
310
E2E2E2E2E2E2E2E2E2E2E2E2E2E2E2E2E2E2E2E2E2E2E2E2E2E2E2E2E2E2E2E2E2E2E2E2E2E2E2E2E2E2E2E2E2E2E2E2E2E2E2E2E2E2E2E2E2E2E2E2E2E2E2E2E2E2E2E2E2E2E2E2E2E2E2E2E2E2E2E2E2E2E2E2E2E2E2E2E2E2E2E2E2E2E2E2E2E2E2E2E2E2E2E2E2E2E2E2E2E2E2E2E2E2E2E2E2E2E2E2E2E2E2E2E2E2E2
310
E2E2E2E2E2E2E2E2E2E2E2E2E2E2E2E2E2E2E2E2E2E2E2E2E2E2E2E2E2E2E2E2E2E2E2E2E2E2E2E2E2E2E2E2E2E2E2E2E2E2E2E2E2E2E2E2E2E2E2E2E2E2E2E2E2E2E2E2E2E2E2E2E2E2E2E2E2E2E2E2E2E2E2E2E2E2E2E2E2E2E2E2E2E2E2E2E2E2E2E2E2E2E2E2E2E2E2E2E2E2E2E2E2E2E2E2E2E2E2E2E2E2E2E2E2E2E2
310
E2E2E2E2E2E2E2E2E2E2E2E2E2E2E2E2E2E2E2E2E2E2E2E2E2E2E2E2E2E2E2E2E2E2E2E2E2E2E2E2E2E2E2E2E2E2E2E2E2E2E2E2E2E2E2E2E2E2E2E2E2E2E2E2E2E2E2E2E2E2E2E2E2E2E2E2E2E2F5E2E2E2E2E2E2E2E2E2E2E2E2E2E2E2E2E2E2E2E2E2E2E2E2E2E2E2E2E2E2E2E2E2E2E2E2E2E2E2E2E2E2E2E2E2E2E2E2
310
E2E2E2E2E2E2E2E2E2E2E2E2E2E2E2E2E2E2E2E2E2E2E2E2E2E2E2E2E2E2E2E2E2E2E2E2E2E2E2E2E2E2E2E2E2E2E2E2E2E2E2E2E2E2E2E2E2E2E2E2E2E2E2E2E2E2E2E2E2E2E2E2E2E2E2E2E2E2E2E2E2E2E2E2E2E2E2E2E2E2E2E2E2E2E2E2E2E2E2E2E2E2E2E2E2E2E2E2E2E2E2E2E2E2E2E2E2E2E2E2E2E2E2E2E2E2E2
310
E2E2E2E2E2E2E2E2E2E2E2E2E2E2E2E2E2E2E2E2E2E2E2E2E2E2E2E2E2E2E2E2E2E2E2E2E2E2E2E2E2E2E2E2E2E2E2E2E2E2E2E2E2E2E2E2E2E2E2E2E2E2E2E2E2E2E2E2E2E2E2E2E2E2E2E2E2E2E2E2F5E2E2E2E2E2E2E2E2E2E2E2E2E2E2E2E2E2E2E2E2E2E2E2E2E2E2E2E2E2E2E2E2E2E2E2E2E2E2E2E2E2E2E2E2E2E2
310
E2E2E2E2E2E2E2E2E2E2E2E2E2E2E2E2E2E2E2E2E2E2E2E2E2E2E2E2E2E2E2E2E2E2E2E2E2E2E2E2E2E2E2E2E2E2E2E2E2E2E2E2E2E2E2E2E2E2E2E2E2E2E2E2E2E2E2E2E2E2E2E2E2E2E2E2E2E2E2E2E2E2E2E2E2E2E2E2E2E2E2E2E2E2E2E2E2E2E2E2E2E2E2E2E2E2E2E2E2E2E2E2E2E2E2E2E2E2E2E2E2E2E2E2E2E2E2
310
E2E2E2E2E2E2E2E2E2E2E2E2E2E2E2E2E2E2E2E2E2E2E2E2E2E2E2E2E2E2E2E2E2E2E2E2E2E2E2E2E2E2E2E2E2E2E2E2E2E2E2E2E2E2E2E2E2E2E2E2E2E2E2E2E2E2E2E2E2E2E2E2E2E2E2E2E2E2E2E2E2E2F5E2E2E2E2E2E2E2E2E2E2E2E2E2E2E2E2E2E2E2E2E2E2E2E2E2E2E2E2E2E2E2E2E2E2E2E2E2E2E2E2E2E2E2E2
310
E2E2E2E2E2E2E2E2E2E2E2E2E2E2E2E2E2E2E2E2E2E2E2E2E2E2E2E2E2E2E2E2E2E2E2E2E2E2E2E2E2E2E2E2E2E2E2E2E2E2E2E2E2E2E2E2E2E2E2E2E2E2E2E2E2E2E2E2E2E2E2E2E2E2E2E2E2E2E2E2E2E2E2E2E2E2E2E2E2E2E2E2E2E2E2E2E2E2E2E2E2E2E2E2E2E2E2E2E2E2E2E2E2E2E2E2E2E2E2E2E2E2E2E2E2E2E2
310
E2E2E2E2E2E2E2E2E2E2E2E2E2E2E2E2E2E2E2E2E2E2E2E2E2E2E2E2E2E2E2E2E2E2E2E2E2E2E2E2E2E2E2E2E2E2E2E2E2E2E2E2E2E2E2E2E2E2E2E2E2E2E2E2E2E2E2E2E2E2E2E2E2E2E2E2E2E2E2E2E2E2E2E2F5E2E2E2E2E2E2E2E2E2E2E2E2E2E2E2E2E2E2E2E2E2E2E2E2E2E2E2E2E2E2E2E2E2E2E2E2E2E2E2E2E2E2
310
E2E2E2E2E2E2E2E2E2E2E2E2E2E2E2E2E2E2E2E2E2E2E2E2E2E2E2E2E2E2E2E2E2E2E2E2E2E2E2E2E2E2E2E2E2E2E2E2E2E2E2E2E2E2E2E2E2E2E2E2E2E2E2E2E2E2E2E2E2E2E2E2E2E2E2E2E2E2E2E2E2E2E2E2E2E2E2E2E2E2E2E2E2E2E2E2E2E2E2E2E2E2E2E2E2E2E2E2E2E2E2E2E2E2E2E2E2E2E2E2E2E2E2E2E2E2E2
310
E2E2E2E2E2E2E2E2E2E2E2E2E2E2E2E2E2E2E2E2E2E2E2E2E2E2E2E2E2E2E2E2E2E2E2E2E2E2E2E2E2E2E2E2E2E2E2E2E2E2E2E2E2E2E2E2E2E2E2E2E2E2E2E2E2E2E2E2E2E2E2E2E2E2E2E2E2E2E2E2E2E2F5F5F5F5F5F5F5F5F5E2E2E2E2E2E2E2E2E2E2E2E2E2E2E2E2E2E2E2E2E2E2E2E2E2E2E2E2E2E2E2E2E2E2E2E2
310
E2E2E2E2E2E2E2E2E2E2E2E2E2E2E2E2E2E2E2E2E2E2E2E2E2E2E2E2E2E2E2E2E2E2E2E2E2E2E2E2E2E2E2E2E2E2E2E2E2E2E2E2E2E2E2E2E2E2E2E2E2E2E2E2E2E2E2E2E2E2E2E2E2E2E2E2E2E2E2E2E2E2E2E2E2E2E2E2E2E2E2E2E2E2E2E2E2E2E2E2E2E2E2E2E2E2E2E2E2E2E2E2E2E2E2E2E2E2E2E2E2E2E2E2E2E2E2
310
E2E2E2E2E2E2E2E2E2E2E2E2E2E2E2E2E2E2E2E2E2E2E2E2E2E2E2E2E2E2E2E2E2E2E2E2E2E2E2E2E2E2E2E2E2E2E2E2E2E2E2E2E2E2E2E2E2E2E2E2E2E2E2E2E2E2E2E2E2E2E2E2E2E2E2E2E2E2E2E2E2E2E2E2F5F5E2E2F5E2E2F5F5E2E2E2E2E2E2E2E2E2E2E2E2E2E2E2E2E2E2E2E2E2E2E2E2E2E2E2E2E2E2E2E2E2E2
310
E2E2E2E2E2E2E2E2E2E2E2E2E2E2E2E2E2E2E2E2E2E2E2E2E2E2E2E2E2E2E2E2E2E2E2E2E2E2E2E2E2E2E2E2E2E2E2E2E2E2E2E2E2E2E2E2E2E2E2E2E2E2E2E2E2E2E2E2E2E2E2E2E2E2E2E2E2E2E2E2E2E2E2E2E2E2E2E2E2E2E2E2E2E2E2E2E2E2E2E2E2E2E2E2E2E2E2E2E2E2E2E2E2E2E2E2E2E2E2E2E2E2E2E2E2E2E2
310
E2E2E2E2E2E2E2E2E2E2E2E2E2E2E2E2E2E2E2E2E2E2E2E2E2E2E2E2E2E2E2E2E2E2E2E2E2E2E2E2E2E2E2E2E2E2E2E2E2E2E2E2E2E2E2E2E2E2E2E2E2E2E2E2E2E2E2E2E2E2E2E2E2E2E2E2E2E2E2E2E2E2E2E2E2E2F5F5E2E2F5E2E2F5F5E2E2E2E2E2E2E2E2E2E2E2E2E2E2E2E2E2E2E2E2E2E2E2E2E2E2E2E2E2E2E2E2
310
E2E2E2E2E2E2E2E2E2E2E2E2E2E2E2E2E2E2E2E2E2E2E2E2E2E2E2E2E2E2E2E2E2E2E2E2E2E2E2E2E2E2E2E2E2E2E2E2E2E2E2E2E2E2E2E2E2E2E2E2E2E2E2E2E2E2E2E2E2E2E2E2E2E2E2E2E2E2E2E2E2E2E2E2E2E2E2E2E2E2E2E2E2E2E2E2E2E2E2E2E2E2E2E2E2E2E2E2E2E2E2E2E2E2E2E2E2E2E2E2E2E2E2E2E2E2E2
310
E2E2E2E2E2E2E2E2E2E2E2E2E2E2E2E2E2E2E2E2E2E2E2E2E2E2E2E2E2E2E2E2E2E2E2E2E2E2E2E2E2E2E2E2E2E2E2E2E2E2E2E2E2E2E2E2E2E2E2E2E2E2E2E2E2E2E2E2E2E2E2E2E2E2E2E2E2E2E2E2E2F5E2E2E2E2E2E2F5F5E2E2F5E2E2F5F5E2E2E2E2E2E2F5F5E2E2E2E2E2E2E2E2E2E2E2E2E2E2E2E2E2E2E2E2E2E2
310
E2E2E2E2E2E2E2E2E2E2E2E2E2E2E2E2E2E2E2E2E2E2E2E2E2E2E2E2E2E2E2E2E2E2E2E2E2E2E2E2E2E2E2E2E2E2E2E2E2E2E2E2E2E2E2E2E2E2E2E2E2E2E2E2E2E2E2E2E2E2E2E2E2E2E2E2E2E2E2E2E2E2E2E2E2E2E2E2E2E2E2E2E2E2E2E2E2E2E2E2E2E2E2E2E2E2E2E2E2E2E2E2E2E2E2E2E2E2E2E2E2E2E2E2E2E2E2
310
E2E2E2E2E2E2E2E2E2E2E2E2E2E2E2E2E2E2E2E2E2E2E2E2E2E2E2E2E2E2E2E2E2E2E2E2E2E2E2E2E2E2E2E2E2E2E2E2E2E2E2E2E2E2E2E2E2E2E2E2E2E2E2E2E2E2E2E2E2E2E2E2E2E2E2E2E2E2E2E2E2E2E2F5F5F5F5F5F5F5E2F5E2E2F5E2E2F5E2F5F5F5F5F5F5F5F5E2E2E2E2E2E2E2E2E2E2E2E2E2E2E2E2E2E2E2E2
310
E2E2E2E2E2E2E2E2E2E2E2E2E2E2E2E2E2E2E2E2E2E2E2E2E2E2E2E2E2E2E2E2E2E2E2E2E2E2E2E2E2E2E2E2E2E2E2E2E2E2E2E2E2E2E2E2E2E2E2E2E2E2E2E2E2E2E2E2E2E2E2E2E2E2E2E2E2E2E2E2E2E2E2E2E2E2E2E2E2E2E2E2E2E2E2E2E2E2E2E2E2E2E2E2E2E2E2E2E2E2E2E2E2E2E2E2E2E2E2E2E2E2E2E2E2E2E2
310
E2E2E2E2E2E2E2E2E2E2E2E2E2E2E2E2E2E2E2E2E2E2E2E2E2E2E2E2E2E2E2E2E2E2E2E2E2E2E2E2E2E2E2E2E2E2E2E2E2E2E2E2E2E2E2E2E2E2E2E2E2E2E2E2E2E2E2E2E2E2E2E2E2E2E2E2E2E2E2E2E2E2E2F5F5F5F5F5F5F5F5F5F5F5F5F5F5F5F5F5F5F5F5F5F5F5F5F5F5F5F5F5F5F5F5E2E2E2E2E2E2E2E2E2E2E2E2
310
E2E2E2E2E2E2E2E2E2E2E2E2E2E2E2E2E2E2E2E2E2E2E2E2E2E2E2E2E2E2E2E2E2E2E2E2E2E2E2E2E2E2E2E2E2E2E2E2E2E2E2E2E2E2E2E2E2E2E2E2E2E2E2E2E2E2E2E2E2E2E2E2E2E2E2E2E2E2E2E2E2E2E2E2E2E2E2E2E2E2E2E2E2E2E2E2E2E2E2E2E2E2E2E2E2E2E2E2E2E2E2E2E2E2E2E2E2E2E2E2E2E2E2E2E2E2E2
310
E2E2E2E2E2E2E2E2E2E2E2E2E2E2E2E2E2E2E2E2E2E2E2E2E2E2E2E2E2E2E2E2E2E2E2E2E2E2E2E2E2E2E2E2E2E2E2E2E2E2E2E2E2E2E2E2E2E2E2E2E2E2E2E2E2E2E2E2E2E2E2E2E2E2E2E2E2E2E2E2E2E2E2F5F5F5F5F5F5F5F5F5F5F5F5F5F5F5F5F5F5F5F5F5F5F5F5F5F5F5F5F5F5F5F5F5F5F5E2E2E2E2E2E2E2E2E2
310
E2E2E2E2E2E2E2E2E2E2E2E2E2E2E2E2E2E2E2E2E2E2E2E2E2E2E2E2E2E2E2E2E2E2E2E2E2E2E2E2E2E2E2E2E2E2E2E2E2E2E2E2E2E2E2E2E2E2E2E2E2E2E2E2E2E2E2E2E2E2E2E2E2E2E2E2E2E2E2E2E2E2E2E2E2E2E2E2E2E2E2E2E2E2E2E2E2E2E2E2E2E2E2E2E2E2E2E2E2E2E2E2E2E2E2E2E2E2E2E2E2E2E2E2E2E2E2
310
E2E2E2E2E2E2E2E2E2E2E2E2E2E2E2E2E2E2E2E2E2E2E2E2E2E2E2E2E2E2E2E2E2E2E2E2E2E2E2E2E2E2E2E2E2E2E2E2E2E2E2E2E2E2E2E2E2E2E2E2E2E2E2E2E2E2E2E2E2E2E2E2E2E2E2E2E2E2E2E2E2E2E2F5F5F5F5F5F5E2E2E2E2E2F5F5E2E2E2E2F5E2E2E2E2F5F5E2E2E2E2E2E2E2E2E2E2F5F5F5F5F5E2E2E2E2E2
310
E2E2E2E2E2E2E2E2E2E2E2E2E2E2E2E2E2E2E2E2E2E2E2E2E2E2E2E2E2E2E2E2E2E2E2E2E2E2E2E2E2E2E2E2E2E2E2E2E2E2E2E2E2E2E2E2E2E2E2E2E2E2E2E2E2E2E2E2E2E2E2E2E2E2E2E2E2E2E2E2E2E2E2E2E2E2E2E2E2E2E2E2E2E2E2E2E2E2E2E2E2E2E2E2E2E2E2E2E2E2E2E2E2E2E2E2E2E2E2E2E2E2E2E2E2E2E2
310
E2E2E2E2E2E2E2E2E2E2E2E2E2E2E2E2E2E2E2E2E2E2E2E2E2E2E2E2E2E2E2E2E2E2E2E2E2E2E2E2E2E2E2E2E2E2E2E2E2E2E2E2E2E2E2E2E2E2E2E2E2E2E2E2E2E2E2E2E2E2E2E2E2E2E2E2E2E2E2E2E2E2E2E2E2F5F5F5F5F5F5E2E2E2E2E2F5F5F5E2E2E2F5E2E2E2E2F5F5F5E2E2E2E2E2E2E2E2E2F5F5F5F5F5F5E2E2
310
E2E2E2E2E2E2E2E2E2E2E2E2E2E2E2E2E2E2E2E2E2E2E2E2E2E2E2E2E2E2E2E2E2E2E2E2E2E2E2E2E2E2E2E2E2E2E2E2E2E2E2E2E2E2E2E2E2E2E2E2E2E2E2E2E2E2E2E2E2E2E2E2E2E2E2E2E2E2E2E2E2E2E2E2E2E2E2E2E2E2E2E2E2E2E2E2E2E2E2E2E2E2E2E2E2E2E2E2E2E2E2E2E2E2E2E2E2E2E2E2E2E2E2E2E2E2E2
310
E2E2E2E2E2E2E2E2E2E2E2E2E2E2E2E2E2E2E2E2E2E2E2E2E2E2E2E2E2E2E2E2E2E2E2E2E2E2E2E2E2E2E2E2E2E2E2E2E2E2E2E2E2E2E2E2E2E2E2E2E2E2E2E2E2E2E2E2E2E2E2E2E2E2E2E2E2E2E2E2E2E2E2E2E2E2E2F5F5F5F5F5F5F5F5F5F5F5F5F5F5F5F5F5F5F5F5F5F5F5F5F5F5F5F5F5F5F5F5F5F5F5F5F5F5F5F5
310
E2E2E2E2E2E2E2E2E2E2E2E2E2E2E2E2E2E2E2E2E2E2E2E2E2E2E2E2E2E2E2E2E2E2E2E2E2E2E2E2E2E2E2E2E2E2E2E2E2E2E2E2E2E2E2E2E2E2E2E2E2E2E2E2E2E2E2E2E2E2E2E2E2E2E2E2E2E2E2E2E2E2E2E2E2E2E2E2E2E2E2E2E2E2E2E2E2E2E2E2E2E2E2E2E2E2E2E2E2E2E2E2E2E2E2E2E2E2E2E2E2E2E2E2E2E2E2
310
E2E2E2E2E2E2E2E2E2E2E2E2E2E2E2E2E2E2E2E2E2E2E2E2E2E2E2E2E2E2E2E2E2E2E2E2E2E2E2E2E2E2E2E2E2E2E2E2E2E2E2E2E2E2E2E2E2E2E2E2E2E2E2E2E2E2E2E2E2E2E2E2E2E2E2E2E2E2E2E2E2E2E2E2E2E2E2E2E2F5F5F5F5F5F5E2E2E2E2E2E2E2E2F5F5E2F5E2F5F5E2E2E2E2E2E2E2E2E2E2E2E2E2F5F5F5F5
310
F5F5E2E2E2E2E2E2E2E2E2E2E2E2E2E2E2E2E2E2E2E2E2E2E2E2E2E2E2E2E2E2E2E2E2E2E2E2E2E2E2E2E2E2E2E2E2E2E2E2E2E2E2E2E2E2E2E2E2E2E2E2E2E2E2E2E2E2E2E2E2E2E2E2E2E2E2E2E2E2E2E2E2E2E2E2E2E2E2E2E2E2E2E2E2E2E2E2E2E2E2E2E2E2E2E2E2E2E2E2E2E2E2E2E2E2E2E2E2E2E2E2E2E2E2E2E2
310
E2E2E2E2E2E2E2E2E2E2E2E2E2E2E2E2E2E2E2E2E2E2E2E2E2E2E2E2E2E2E2E2E2E2E2E2E2E2E2E2E2E2E2E2E2E2E2E2E2E2E2E2E2E2E2E2E2E2E2E2E2E2E2E2E2E2E2E2E2E2E2E2E2E2E2E2E2E2E2E2E2E2E2E2E2E2E2E2E2E2E2E2E2E2E2F5F5E2E2E2E2E2E2F5F5E2E2E2F5E2E2E2F5F5E2E2E2E2E2E2E2E2E2E2E2F5F5
310
E2E2E2E2E2E2E2E2E2E2E2E2E2E2E2E2E2E2E2E2E2E2E2E2E2E2E2E2E2E2E2E2E2E2E2E2E2E2E2E2E2E2E2E2E2E2E2E2E2E2E2E2E2E2E2E2E2E2E2E2E2E2E2E2E2E2E2E2E2E2E2E2E2E2E2E2E2E2E2E2E2E2E2E2E2E2E2E2E2E2E2E2E2E2E2E2E2E2E2E2E2E2E2E2E2E2E2E2E2E2E2E2E2E2E2E2E2E2E2E2E2E2E2E2E2E2E2
310
E2E2E2E2E2E2E2E2E2E2E2E2E2E2E2E2E2E2E2E2E2E2E2E2E2E2E2E2E2E2E2E2E2E2E2E2E2E2E2E2E2E2E2E2E2E2E2E2E2E2E2E2E2E2E2E2E2E2E2E2E2E2E2E2E2E2E2E2E2E2E2E2E2E2E2E2E2E2E2E2E2E2E2E2E2E2E2E2E2E2E2E2E2E2E2E2E2F5F5E2E2E2E2F5F5E2E2E2E2F5F5F5E2E2E2E2F5F5E2E2E2E2E2E2E2E2E2
310
F5F5E2E2E2E2E2E2E2E2E2E2E2E2E2E2E2E2E2E2E2E2E2E2E2E2E2E2E2E2E2E2E2E2E2E2E2E2E2E2E2E2E2E2E2E2E2E2E2E2E2E2E2E2E2E2E2E2E2E2E2E2E2E2E2E2E2E2E2E2E2E2E2E2E2E2E2E2E2E2E2E2E2E2E2E2E2E2E2E2E2E2E2E2E2E2E2E2E2E2E2E2E2E2E2E2E2E2E2E2E2E2E2E2E2E2E2E2E2E2E2E2E2E2E2E2E2
310
E2E2E2E2E2E2E2E2E2E2E2E2E2E2E2E2E2E2E2E2E2E2E2E2E2E2E2E2E2E2E2E2E2E2E2E2E2E2E2E2E2E2E2E2E2E2E2E2E2E2E2E2E2E2E2E2E2E2E2E2E2E2E2E2E2E2E2E2E2E2E2E2E2E2E2E2E2E2E2E2E2E2E2E2E2E2E2E2E2E2E2E2E2E2E2E2E2E2F5F5F5F5F5F5F5F5F5F5F5F5F5F5F5F5F5F5F5F5F5F5F5F5F5F5F5F5F5
310
F5F5F5F5F5E2E2E2E2E2E2E2E2E2E2E2E2E2E2E2E2E2E2E2E2E2E2E2E2E2E2E2E2E2E2E2E2E2E2E2E2E2E2E2E2E2E2E2E2E2E2E2E2E2E2E2E2E2E2E2E2E2E2E2E2E2E2E2E2E2E2E2E2E2E2E2E2E2E2E2E2E2E2E2E2E2E2E2E2E2E2E2E2E2E2E2E2E2E2E2E2E2E2E2E2E2E2E2E2E2E2E2E2E2E2E2E2E2E2E2E2E2E2E2E2E2E2
310
E2E2E2E2E2E2E2E2E2E2E2E2E2E2E2E2E2E2E2E2E2E2E2E2E2E2E2E2E2E2E2E2E2E2E2E2E2E2E2E2E2E2E2E2E2E2E2E2E2E2E2E2E2E2E2E2E2E2E2E2E2E2E2E2E2E2E2E2E2E2E2E2E2E2E2E2E2E2E2E2E2E2E2E2E2E2E2E2E2E2E2E2E2E2E2E2E2E2E2E2E2F5F5E2E2F5F5E2E2E2E2E2E2F5F5F5E2E2E2E2E2E2F5F5E2E2E2
310
E2E2E2E2F5F5E2E2E2E2E2E2E2E2E2E2E2E2E2E2E2E2E2E2E2E2E2E2E2E2E2E2E2E2E2E2E2E2E2E2E2E2E2E2E2E2E2E2E2E2E2E2E2E2E2E2E2E2E2E2E2E2E2E2E2E2E2E2E2E2E2E2E2E2E2E2E2E2E2E2E2E2E2E2E2E2E2E2E2E2E2E2E2E2E2E2E2E2E2E2E2E2E2E2E2E2E2E2E2E2E2E2E2E2E2E2E2E2E2E2E2E2E2E2E2E2E2
310
E2E2E2E2E2E2E2E2E2E2E2E2E2E2E2E2E2E2E2E2E2E2E2E2E2E2E2E2E2E2E2E2E2E2E2E2E2E2E2E2E2E2E2E2E2E2E2E2E2E2E2E2E2E2E2E2E2E2E2E2E2E2E2E2E2E2E2E2E2E2E2E2E2E2E2E2E2E2E2E2E2E2E2E2E2E2E2E2E2E2E2E2E2E2E2E2E2E2E2E2E2E2E2F5F5E2E2E2E2F5F5F5E2E2E2E2F5E2E2E2E2F5F5F5E2E2E2
310
E2E2E2E2E2E2F5F5E2E2E2E2E2E2E2E2E2E2E2E2E2E2E2E2E2E2E2E2E2E2E2E2E2E2E2E2E2E2E2E2E2E2E2E2E2E2E2E2E2E2E2E2E2E2E2E2E2E2E2E2E2E2E2E2E2E2E2E2E2E2E2E2E2E2E2E2E2E2E2E2E2E2E2E2E2E2E2E2E2E2E2E2E2E2E2E2E2E2E2E2E2E2E2E2E2E2E2E2E2E2E2E2E2E2E2E2E2E2E2E2E2E2E2E2E2E2E2
310
E2E2E2E2E2E2E2E2E2E2E2E2E2E2E2E2E2E2E2E2E2E2E2E2E2E2E2E2E2E2E2E2E2E2E2E2E2E2E2E2E2E2E2E2E2E2E2E2E2E2E2E2E2E2E2E2E2E2E2E2E2E2E2E2E2E2E2E2E2E2E2E2E2E2E2E2E2E2E2E2E2E2E2E2E2E2E2E2E2E2E2E2E2E2E2E2E2E2E2E2E2E2E2E2E2F5F5E2E2E2E2E2E2E2F5F5F5E2F5E2F5F5F5E2E2E2E2
310
E2E2E2E2E2E2E2E2F5F5E2E2E2E2E2E2E2E2E2E2E2E2E2E2E2E2E2E2E2E2E2E2E2E2E2E2E2E2E2E2E2E2E2E2E2E2E2E2E2E2E2E2E2E2E2E2E2E2E2E2E2E2E2E2E2E2E2E2E2E2E2E2E2E2E2E2E2E2E2E2E2E2E2E2E2E2E2E2E2E2E2E2E2E2E2E2E2E2E2E2E2E2E2E2E2E2E2E2E2E2E2E2E2E2E2E2E2E2E2E2E2E2E2E2E2E2E2
310
E2E2E2E2E2E2E2E2E2E2E2E2E2E2E2E2E2E2E2E2E2E2E2E2E2E2E2E2E2E2E2E2E2E2E2E2E2E2E2E2E2E2E2E2E2E2E2E2E2E2E2E2E2E2E2E2E2E2E2E2E2E2E2E2E2E2E2E2E2E2E2E2E2E2E2E2E2E2E2E2E2E2E2E2E2E2E2E2E2E2E2E2E2E2E2E2E2E2E2E2E2E2E2E2E2E2F5F5F5F5F5F5F5F5F5F5F5F5F5F5F5F5F5F5F5F5F5
310
F5F5F5F5F5F5F5F5F5F5F5F5E2E2E2E2E2E2E2E2E2E2E2E2E2E2E2E2E2E2E2E2E2E2E2E2E2E2E2E2E2E2E2E2E2E2E2E2E2E2E2E2E2E2E2E2E2E2E2E2E2E2E2E2E2E2E2E2E2E2E2E2E2E2E2E2E2E2E2E2E2E2E2E2E2E2E2E2E2E2E2E2E2E2E2E2E2E2E2E2E2E2E2E2E2E2E2E2E2E2E2E2E2E2E2E2E2E2E2E2E2E2E2E2E2E2E2
310
E2E2E2E2E2E2E2E2E2E2E2E2E2E2E2E2E2E2E2E2E2E2E2E2E2E2E2E2E2E2E2E2E2E2E2E2E2E2E2E2E2E2E2E2E2E2E2E2E2E2E2E2E2E2E2E2E2E2E2E2E2E2E2E2E2E2E2E2E2E2E2E2E2E2E2E2E2E2E2E2E2E2E2E2E2E2E2E2E2E2E2E2E2E2E2E2E2E2E2E2E2E2E2E2E2E2E2F5F5F5F5E2E2E2E2E2F5F5E2E2E2E2F5E2E2E2E2
310
F5F5E2E2E2E2E2E2E2E2E2E2F5F5F5E2E2E2E2E2E2E2E2E2E2E2E2E2E2E2E2E2E2E2E2E2E2E2E2E2E2E2E2E2E2E2E2E2E2E2E2E2E2E2E2E2E2E2E2E2E2E2E2E2E2E2E2E2E2E2E2E2E2E2E2E2E2E2E2E2E2E2E2E2E2E2E2E2E2E2E2E2E2E2E2E2E2E2E2E2E2E2E2E2E2E2E2E2E2E2E2E2E2E2E2E2E2E2E2E2E2E2E2E2E2E2E2
310
E2E2E2E2E2E2E2E2E2E2E2E2E2E2E2E2E2E2E2E2E2E2E2E2E2E2E2E2E2E2E2E2E2E2E2E2E2E2E2E2E2E2E2E2E2E2E2E2E2E2E2E2E2E2E2E2E2E2E2E2E2E2E2E2E2E2E2E2E2E2E2E2E2E2E2E2E2E2E2E2E2E2E2E2E2E2E2E2E2E2E2E2E2E2E2E2E2E2E2E2E2E2E2E2E2E2E2E2E2F5F5F5F5E2E2E2E2E2F5F5F5E2E2E2F5E2E2
310
E2E2F5F5F5E2E2E2E2E2E2E2E2E2F5F5F5E2E2E2E2E2E2E2E2E2E2E2E2E2E2E2E2E2E2E2E2E2E2E2E2E2E2E2E2E2E2E2E2E2E2E2E2E2E2E2E2E2E2E2E2E2E2E2E2E2E2E2E2E2E2E2E2E2E2E2E2E2E2E2E2E2E2E2E2E2E2E2E2E2E2E2E2E2E2E2E2E2E2E2E2E2E2E2E2E2E2E2E2E2E2E2E2E2E2E2E2E2E2E2E2E2E2E2E2E2E2
310
E2E2E2E2E2E2E2E2E2E2E2E2E2E2E2E2E2E2E2E2E2E2E2E2E2E2E2E2E2E2E2E2E2E2E2E2E2E2E2E2E2E2E2E2E2E2E2E2E2E2E2E2E2E2E2E2E2E2E2E2E2E2E2E2E2E2E2E2E2E2E2E2E2E2E2E2E2E2E2E2E2E2E2E2E2E2E2E2E2E2E2E2E2E2E2E2E2E2E2E2E2E2E2E2E2E2E2E2E2E2E2F5F5F5F5F5F5F5F5F5F5F5F5F5F5F5F5
310
F5F5F5F5F5F5F5F5F5F5F5F5F5F5F5F5F5F5F5E2E2E2E2E2E2E2E2E2E2E2E2E2E2E2E2E2E2E2E2E2E2E2E2E2E2E2E2E2E2E2E2E2E2E2E2E2E2E2E2E2E2E2E2E2E2E2E2E2E2E2E2E2E2E2E2E2E2E2E2E2E2E2E2E2E2E2E2E2E2E2E2E2E2E2E2E2E2E2E2E2E2E2E2E2E2E2E2E2E2E2E2E2E2E2E2E2E2E2E2E2E2E2E2E2E2E2E2
310
E2E2E2E2E2E2E2E2E2E2E2E2E2E2E2E2E2E2E2E2E2E2E2E2E2E2E2E2E2E2E2E2E2E2E2E2E2E2E2E2E2E2E2E2E2E2E2E2E2E2E2E2E2E2E2E2E2E2E2E2E2E2E2E2E2E2E2E2E2E2E2E2E2E2E2E2E2E2E2E2E2E2E2E2E2E2E2E2E2E2E2E2E2E2E2E2E2E2E2E2E2E2E2E2E2E2E2E2E2E2E2E2E2E2E2F5F5F5F5F5F5F5F5F5F5F5F5
310
F5F5F5F5F5F5F5F5F5F5F5F5F5F5F5F5F5F5F5F5E2E2E2E2E2E2E2E2E2E2E2E2E2E2E2E2E2E2E2E2E2E2E2E2E2E2E2E2E2E2E2E2E2E2E2E2E2E2E2E2E2E2E2E2E2E2E2E2E2E2E2E2E2E2E2E2E2E2E2E2E2E2E2E2E2E2E2E2E2E2E2E2E2E2E2E2E2E2E2E2E2E2E2E2E2E2E2E2E2E2E2E2E2E2E2E2E2E2E2E2E2E2E2E2E2E2E2
310
E2E2E2E2E2E2E2E2E2E2E2E2E2E2E2E2E2E2E2E2E2E2E2E2E2E2E2E2E2E2E2E2E2E2E2E2E2E2E2E2E2E2E2E2E2E2E2E2E2E2E2E2E2E2E2E2E2E2E2E2E2E2E2E2E2E2E2E2E2E2E2E2E2E2E2E2E2E2E2E2E2E2E2E2E2E2E2E2E2E2E2E2E2E2E2E2E2E2E2E2E2E2E2E2E2E2E2E2E2E2E2E2E2E2E2E2E2E2E2F5F5F5F5F5F5F5E2
310
F5E2E2F5E2E2F5E2F5F5F5F5F5F5F5F5E2E2E2E2E2E2E2E2E2E2E2E2E2E2E2E2E2E2E2E2E2E2E2E2E2E2E2E2E2E2E2E2E2E2E2E2E2E2E2E2E2E2E2E2E2E2E2E2E2E2E2E2E2E2E2E2E2E2E2E2E2E2E2E2E2E2E2E2E2E2E2E2E2E2E2E2E2E2E2E2E2E2E2E2E2E2E2E2E2E2E2E2E2E2E2E2E2E2E2E2E2E2E2E2E2E2E2E2E2E2E2
310
E2E2E2E2E2E2E2E2E2E2E2E2E2E2E2E2E2E2E2E2E2E2E2E2E2E2E2E2E2E2E2E2E2E2E2E2E2E2E2E2E2E2E2E2E2E2E2E2E2E2E2E2E2E2E2E2E2E2E2E2E2E2E2E2E2E2E2E2E2E2E2E2E2E2E2E2E2E2E2E2E2E2E2E2E2E2E2E2E2E2E2E2E2E2E2E2E2E2E2E2E2E2E2E2E2E2E2E2E2E2E2E2E2E2E2E2E2E2E2E2E2F5F5E2E2E2E2
310
E2F5F5E2E2F5E2E2F5F5E2E2E2E2E2E2F5F5E2E2E2E2E2E2E2E2E2E2E2E2E2E2E2E2E2E2E2E2E2E2E2E2E2E2E2E2E2E2E2E2E2E2E2E2E2E2E2E2E2E2E2E2E2E2E2E2E2E2E2E2E2E2E2E2E2E2E2E2E2E2E2E2E2E2E2E2E2E2E2E2E2E2E2E2E2E2E2E2E2E2E2E2E2E2E2E2E2E2E2E2E2E2E2E2E2E2E2E2E2E2E2E2E2E2E2E2E2
310
E2E2E2E2E2E2E2E2E2E2E2E2E2E2E2E2E2E2E2E2E2E2E2E2E2E2E2E2E2E2E2E2E2E2E2E2E2E2E2E2E2E2E2E2E2E2E2E2E2E2E2E2E2E2E2E2E2E2E2E2E2E2E2E2E2E2E2E2E2E2E2E2E2E2E2E2E2E2E2E2E2E2E2E2E2E2E2E2E2E2E2E2E2E2E2E2E2E2E2E2E2E2E2E2E2E2E2E2E2E2E2E2E2E2E2E2E2E2E2E2E2E2E2F5E2E2E2
310
E2E2E2F5F5E2E2F5E2E2F5F5E2E2E2E2E2E2F5F5E2E2E2E2E2E2E2E2E2E2E2E2E2E2E2E2E2E2E2E2E2E2E2E2E2E2E2E2E2E2E2E2E2E2E2E2E2E2E2E2E2E2E2E2E2E2E2E2E2E2E2E2E2E2E2E2E2E2E2E2E2E2E2E2E2E2E2E2E2E2E2E2E2E2E2E2E2E2E2E2E2E2E2E2E2E2E2E2E2E2E2E2E2E2E2E2E2E2E2E2E2E2E2E2E2E2E2
310
E2E2E2E2E2E2E2E2E2E2E2E2E2E2E2E2E2E2E2E2E2E2E2E2E2E2E2E2E2E2E2E2E2E2E2E2E2E2E2E2E2E2E2E2E2E2E2E2E2E2E2E2E2E2E2E2E2E2E2E2E2E2E2E2E2E2E2E2E2E2E2E2E2E2E2E2E2E2E2E2E2E2E2E2E2E2E2E2E2E2E2E2E2E2E2E2E2E2E2E2E2E2E2E2E2E2E2E2E2E2E2E2E2E2E2E2E2E2E2E2E2E2E2E2E2E2E2
310
E2E2E2E2E2F5F5E2E2F5E2E2F5F5E2E2E2E2E2E2E2E2E2E2E2E2E2E2E2E2E2E2E2E2E2E2E2E2E2E2E2E2E2E2E2E2E2E2E2E2E2E2E2E2E2E2E2E2E2E2E2E2E2E2E2E2E2E2E2E2E2E2E2E2E2E2E2E2E2E2E2E2E2E2E2E2E2E2E2E2E2E2E2E2E2E2E2E2E2E2E2E2E2E2E2E2E2E2E2E2E2E2E2E2E2E2E2E2E2E2E2E2E2E2E2E2E2
310
E2E2E2E2E2E2E2E2E2E2E2E2E2E2E2E2E2E2E2E2E2E2E2E2E2E2E2E2E2E2E2E2E2E2E2E2E2E2E2E2E2E2E2E2E2E2E2E2E2E2E2E2E2E2E2E2E2E2E2E2E2E2E2E2E2E2E2E2E2E2E2E2E2E2E2E2E2E2E2E2E2E2E2E2E2E2E2E2E2E2E2E2E2E2E2E2E2E2E2E2E2E2E2E2E2E2E2E2E2E2E2E2E2E2E2E2E2E2E2E2E2E2E2E2E2E2E2
310
E2E2E2E2E2E2E2F5F5F5F5F5F5F5F5F5E2E2E2E2E2E2E2E2E2E2E2E2E2E2E2E2E2E2E2E2E2E2E2E2E2E2E2E2E2E2E2E2E2E2E2E2E2E2E2E2E2E2E2E2E2E2E2E2E2E2E2E2E2E2E2E2E2E2E2E2E2E2E2E2E2E2E2E2E2E2E2E2E2E2E2E2E2E2E2E2E2E2E2E2E2E2E2E2E2E2E2E2E2E2E2E2E2E2E2E2E2E2E2E2E2E2E2E2E2E2E2
310
E2E2E2E2E2E2E2E2E2E2E2E2E2E2E2E2E2E2E2E2E2E2E2E2E2E2E2E2E2E2E2E2E2E2E2E2E2E2E2E2E2E2E2E2E2E2E2E2E2E2E2E2E2E2E2E2E2E2E2E2E2E2E2E2E2E2E2E2E2E2E2E2E2E2E2E2E2E2E2E2E2E2E2E2E2E2E2E2E2E2E2E2E2E2E2E2E2E2E2E2E2E2E2E2E2E2E2E2E2E2E2E2E2E2E2E2E2E2E2E2E2E2E2E2E2E2E2
310
E2E2E2E2E2E2E2E2E2E2E2E2E2F5E2E2E2E2E2E2E2E2E2E2E2E2E2E2E2E2E2E2E2E2E2E2E2E2E2E2E2E2E2E2E2E2E2E2E2E2E2E2E2E2E2E2E2E2E2E2E2E2E2E2E2E2E2E2E2E2E2E2E2E2E2E2E2E2E2E2E2E2E2E2E2E2E2E2E2E2E2E2E2E2E2E2E2E2E2E2E2E2E2E2E2E2E2E2E2E2E2E2E2E2E2E2E2E2E2E2E2E2E2E2E2E2E2
310
E2E2E2E2E2E2E2E2E2E2E2E2E2E2E2E2E2E2E2E2E2E2E2E2E2E2E2E2E2E2E2E2E2E2E2E2E2E2E2E2E2E2E2E2E2E2E2E2E2E2E2E2E2E2E2E2E2E2E2E2E2E2E2E2E2E2E2E2E2E2E2E2E2E2E2E2E2E2E2E2E2E2E2E2E2E2E2E2E2E2E2E2E2E2E2E2E2E2E2E2E2E2E2E2E2E2E2E2E2E2E2E2E2E2E2E2E2E2E2E2E2E2E2E2E2E2E2
310
E2E2E2E2E2E2E2E2E2E2E2E2E2E2E2F5E2E2E2E2E2E2E2E2E2E2E2E2E2E2E2E2E2E2E2E2E2E2E2E2E2E2E2E2E2E2E2E2E2E2E2E2E2E2E2E2E2E2E2E2E2E2E2E2E2E2E2E2E2E2E2E2E2E2E2E2E2E2E2E2E2E2E2E2E2E2E2E2E2E2E2E2E2E2E2E2E2E2E2E2E2E2E2E2E2E2E2E2E2E2E2E2E2E2E2E2E2E2E2E2E2E2E2E2E2E2E2
310
E2E2E2E2E2E2E2E2E2E2E2E2E2E2E2E2E2E2E2E2E2E2E2E2E2E2E2E2E2E2E2E2E2E2E2E2E2E2E2E2E2E2E2E2E2E2E2E2E2E2E2E2E2E2E2E2E2E2E2E2E2E2E2E2E2E2E2E2E2E2E2E2E2E2E2E2E2E2E2E2E2E2E2E2E2E2E2E2E2E2E2E2E2E2E2E2E2E2E2E2E2E2E2E2E2E2E2E2E2E2E2E2E2E2E2E2E2E2E2E2E2E2E2E2E2E2E2
310
E2E2E2E2E2E2E2E2E2E2E2E2E2E2E2E2E2F5E2E2E2E2E2E2E2E2E2E2E2E2E2E2E2E2E2E2E2E2E2E2E2E2E2E2E2E2E2E2E2E2E2E2E2E2E2E2E2E2E2E2E2E2E2E2E2E2E2E2E2E2E2E2E2E2E2E2E2E2E2E2E2E2E2E2E2E2E2E2E2E2E2E2E2E2E2E2E2E2E2E2E2E2E2E2E2E2E2E2E2E2E2E2E2E2E2E2E2E2E2E2E2E2E2E2E2E2E2
310
E2E2E2E2E2E2E2E2E2E2E2E2E2E2E2E2E2E2E2E2E2E2E2E2E2E2E2E2E2E2E2E2E2E2E2E2E2E2E2E2E2E2E2E2E2E2E2E2E2E2E2E2E2E2E2E2E2E2E2E2E2E2E2E2E2E2E2E2E2E2E2E2E2E2E2E2E2E2E2E2E2E2E2E2E2E2E2E2E2E2E2E2E2E2E2E2E2E2E2E2E2E2E2E2E2E2E2E2E2E2E2E2E2E2E2E2E2E2E2E2E2E2E2E2E2E2E2
310
E2E2E2E2E2E2E2E2E2E2E2E2E2E2E2E2E2E2E2F5E2E2E2E2E2E2E2E2E2E2E2E2E2E2E2E2E2E2E2E2E2E2E2E2E2E2E2E2E2E2E2E2E2E2E2E2E2E2E2E2E2E2E2E2E2E2E2E2E2E2E2E2E2E2E2E2E2E2E2E2E2E2E2E2E2E2E2E2E2E2E2E2E2E2E2E2E2E2E2E2E2E2E2E2E2E2E2E2E2E2E2E2E2E2E2E2E2E2E2E2E2E2E2E2E2E2E2
310
E2E2E2E2E2E2E2E2E2E2E2E2E2E2E2E2E2E2E2E2E2E2E2E2E2E2E2E2E2E2E2E2E2E2E2E2E2E2E2E2E2E2E2E2E2E2E2E2E2E2E2E2E2E2E2E2E2E2E2E2E2E2E2E2E2E2E2E2E2E2E2E2E2E2E2E2E2E2E2E2E2E2E2E2E2E2E2E2E2E2E2E2E2E2E2E2E2E2E2E2E2E2E2E2E2E2E2E2E2E2E2E2E2E2E2E2E2E2E2E2E2E2E2E2E2E2E2
310
E2E2E2E2E2E2E2E2E2E2E2E2E2E2E2E2E2E2E2E2E2E2E2E2E2E2E2E2E2E2E2E2E2E2E2E2E2E2E2E2E2E2E2E2E2E2E2E2E2E2E2E2E2E2E2E2E2E2E2E2E2E2E2E2E2E2E2E2E2E2E2E2E2E2E2E2E2E2E2E2E2E2E2E2E2E2E2E2E2E2E2E2E2E2E2E2E2E2E2E2E2E2E2E2E2E2E2E2E2E2E2E2E2E2E2E2E2E2E2E2E2E2E2E2E2E2E2
310
E2E2E2E2E2E2E2E2E2E2E2E2E2E2E2E2E2E2E2E2E2E2E2E2E2E2E2E2E2E2E2E2E2E2E2E2E2E2E2E2E2E2E2E2E2E2E2E2E2E2E2E2E2E2E2E2E2E2E2E2E2E2E2E2E2E2E2E2E2E2E2E2E2E2E2E2E2E2E2E2E2E2E2E2E2E2E2E2E2E2E2E2E2E2E2E2E2E2E2E2E2E2E2E2E2E2E2E2E2E2E2E2E2E2E2E2E2E2E2E2E2E2E2E2E2E2E2
310
E2E2E2E2E2E2E2E2E2E2E2E2E2E2E2E2E2E2E2E2E2E2E2E2E2E2E2E2E2E2E2E2E2E2E2E2E2E2E2E2E2E2E2E2E2E2E2E2E2E2E2E2E2E2E2E2E2E2E2E2E2E2E2E2E2E2E2E2E2E2E2E2E2E2E2E2E2E2E2E2E2E2E2E2E2E2E2E2E2E2E2E2E2E2E2E2E2E2E2E2E2E2E2E2E2E2E2E2E2E2E2E2E2E2E2E2E2E2E2E2E2E2E2E2E2E2E2
310
E2E2E2E2E2E2E2E2E2E2E2E2E2E2E2E2E2E2E2E2E2E2E2E2E2E2E2E2E2E2E2E2E2E2E2E2E2E2E2E2E2E2E2E2E2E2E2E2E2E2E2E2E2E2E2E2E2E2E2E2E2E2E2E2E2E2E2E2E2E2E2E2E2E2E2E2E2E2E2E2E2E2E2E2E2E2E2E2E2E2E2E2E2E2E2E2E2E2E2E2E2E2E2E2E2E2E2E2E2E2E2E2E2E2E2E2E2E2E2E2E2E2E2E2E2E2E2
310
E2E2E2E2E2E2E2E2E2E2E2E2E2E2E2E2E2E2E2E2E2E2E2E2E2E2E2E2E2E2E2E2E2E2E2E2E2E2E2E2E2E2E2E2E2E2E2E2E2E2E2E2E2E2E2E2E2E2E2E2E2E2E2E2E2E2E2E2E2E2E2E2E2E2E2E2E2E2E2E2E2E2E2E2E2E2E2E2E2E2E2E2E2E2E2E2E2E2E2E2E2E2E2E2E2E2E2E2E2E2E2E2E2E2E2E2E2E2E2E2E2E2E2E2E2E2E2
310
E2E2E2E2E2E2E2E2E2E2E2E2E2E2E2E2E2E2E2E2E2E2E2E2E2E2E2E2E2E2E2E2E2E2E2E2E2E2E2E2E2E2E2E2E2E2E2E2E2E2E2E2E2E2E2E2E2E2E2E2E2E2E2E2E2E2E2E2E2E2E2E2E2E2E2E2E2E2E2E2E2E2E2E2E2E2E2E2E2E2E2E2E2E2E2E2E2E2E2E2E2E2E2E2E2E2E2E2E2E2E2E2E2E2E2E2E2E2E2E2E2E2E2E2E2E2E2
310
E2E2E2E2E2E2E2E2E2E2E2E2E2E2E2E2E2E2E2E2E2E2E2E2E2E2E2E2E2E2E2E2E2E2E2E2E2E2E2E2E2E2E2E2E2E2E2E2E2E2E2E2E2E2E2E2E2E2E2E2E2E2E2E2E2E2E2E2E2E2E2E2E2E2E2E2E2E2E2E2E2E2E2E2E2E2E2E2E2E2E2E2E2E2E2E2E2E2E2E2E2E2E2E2E2E2E2E2E2E2E2E2E2E2E2E2E2E2E2E2E2E2E2E2E2E2E2
310
E2E2E2E2E2E2E2E2E2E2E2E2E2E2E2E2E2E2E2E2E2E2E2E2E2E2E2E2E2E2E2E2E2E2E2E2E2E2E2E2E2E2E2E2E2E2E2E2E2E2E2E2E2E2E2E2E2E2E2E2E2E2E2E2E2E2E2E2E2E2E2E2E2E2E2E2E2E2E2E2E2E2E2E2E2E2E2E2E2E2E2E2E2E2E2E2E2E2E2E2E2E2E2E2E2E2E2E2E2E2E2E2E2E2E2E2E2F5F5F5F5F5F5F5F5F5E2
310
E2E2F5F5F5F5F5F5F5F5F5E2E2E2E2E2E2E2E2E2E2E2E2E2E2E2E2E2E2E2E2E2E2E2E2E2E2E2E2E2E2E2E2E2E2E2E2E2E2E2E2E2E2E2E2E2E2E2E2E2E2E2E2E2E2E2E2E2E2E2E2E2E2E2E2E2E2E2E2E2E2E2E2E2E2E2E2E2E2E2E2E2E2E2E2E2E2E2E2E2E2E2E2E2E2E2E2E2E2E2E2E2E2E2E2E2E2E2E2E2E2E2E2E2E2E2E2
310
E2E2E2E2E2E2E2E2E2E2E2E2E2E2E2E2E2E2E2E2E2E2E2E2E2E2E2E2E2E2E2E2E2E2E2E2E2E2E2E2E2E2E2E2E2E2E2E2E2E2E2E2E2E2E2E2E2E2E2E2E2E2E2E2E2E2E2E2E2E2E2E2E2E2E2E2E2E2E2E2E2E2E2E2E2E2E2E2E2E2E2E2E2E2E2E2E2E2E2E2E2E2E2E2E2E2E2E2E2E2E2E2E2E2E2E2E2E2E2E2E2E2E2E2E2E2E2
310
E2E2E2E2E2E2E2E2E2E2E2E2E2E2E2E2E2E2E2E2E2E2E2E2E2E2E2E2E2E2E2E2E2E2E2E2E2E2E2E2E2E2E2E2E2E2E2E2E2E2E2E2E2E2E2E2E2E2E2E2E2E2E2E2E2E2E2E2E2E2E2E2E2E2E2E2E2E2E2E2E2E2E2E2E2E2E2E2E2E2E2E2E2E2E2E2E2E2E2E2E2E2E2E2E2E2E2E2E2E2E2E2E2E2E2E2E2E2E2E2E2E2E2E2E2E2E2
310
E2E2E2E2E2E2E2E2E2E2E2E2E2E2E2E2E2E2E2E2E2E2E2E2E2E2E2E2E2E2E2E2E2E2E2E2E2E2E2E2E2E2E2E2E2E2E2E2E2E2E2E2E2E2E2E2E2E2E2E2E2E2E2E2E2E2E2E2E2E2E2E2E2E2E2E2E2E2E2E2E2E2F5F5F5F5F5F5F5F5F5E2E2E2E2E2E2E2E2E2F5E2E2E2E2E2E2E2E2E2F5F5F5F5F5F5E2E2E2E2E2E2E2E2E2E2E2
310
E2E2E2E2E2E2E2E2E2E2E2E2E2E2E2E2E2E2E2E2E2E2F5E2E2E2E2E2E2F5F5F5F5F5F5F5F5F5E2E2E2E2E2F5F5F5E2E2E2E2E2E2E2F5F5F5E2E2E2E2E2E2F5F5F5E2E2E2E2E2E2E2F5F5F5E2E2E2E2E2E2E2E2E2E2E2E2E2E2E2E2E2E2F5F5F5F5F5E2E2E2E2E2E2E2F5F5F5F5F5E2E2E2E2E2E2E2E2E2E2E2E2E2E2E2E2E2
310
E2E2E2E2E2E2E2E2E2E2E2E2E2E2E2E2E2E2E2E2E2E2E2E2E2E2E2E2E2E2E2E2E2E2E2E2E2E2E2E2E2E2E2E2E2E2E2E2E2E2E2E2E2E2E2E2E2E2E2E2E2E2E2E2E2E2E2E2E2E2E2E2E2E2E2E2E2E2E2E2E2E2E2E2F5E2E2E2E2E2E2E2E2E2E2E2E2E2E2E2E2E2F5F5E2E2E2E2E2E2E2E2E2E2F5E2E2E2F5E2E2E2E2E2E2E2E2
310
E2E2E2E2E2E2E2E2E2E2E2E2E2E2E2E2E2E2E2E2E2E2E2E2F5E2E2E2E2E2E2F5E2E2E2E2E2E2E2E2E2E2E2E2F5E2E2E2F5E2E2E2E2E2F5E2E2E2F5E2E2E2E2F5E2E2E2F5E2E2E2E2E2F5E2E2E2F5E2E2E2E2E2E2E2E2E2E2E2E2E2E2E2E2F5E2E2E2E2E2F5E2E2E2E2E2F5E2E2E2E2E2F5E2E2E2E2E2E2E2E2E2E2E2E2E2E2
310
E2E2E2E2E2E2E2E2E2E2E2E2E2E2E2E2E2E2E2E2E2E2E2E2E2E2E2E2E2E2E2E2E2E2E2E2E2E2E2E2E2E2E2E2E2E2E2E2E2E2E2E2E2E2E2E2E2E2E2E2E2E2E2E2E2E2E2E2E2E2E2E2E2E2E2E2E2E2E2E2E2E2E2E2E2E2F5E2E2E2E2E2E2E2E2E2E2E2E2E2E2E2E2F5E2F5E2E2E2E2E2E2E2E2E2E2F5E2E2E2E2F5E2E2E2E2E2
310
E2E2E2E2E2E2E2E2E2E2E2E2E2E2E2E2E2E2E2E2E2E2E2E2E2E2F5E2E2E2E2E2E2F5E2E2E2E2E2E2E2E2E2E2E2F5E2E2E2E2E2F5E2E2E2F5E2E2E2E2F5E2E2E2F5E2E2E2E2E2F5E2E2E2F5E2E2E2E2E2F5E2E2E2E2E2E2E2E2E2E2E2E2E2E2F5E2E2E2E2E2E2E2F5E2E2E2F5E2E2E2E2E2E2E2F5E2E2E2E2E2E2E2E2E2E2E2
310
E2E2E2E2E2E2E2E2E2E2E2E2E2E2E2E2E2E2E2E2E2E2E2E2E2E2E2E2E2E2E2E2E2E2E2E2E2E2E2E2E2E2E2E2E2E2E2E2E2E2E2E2E2E2E2E2E2E2E2E2E2E2E2E2E2E2E2E2E2E2E2E2E2E2E2E2E2E2E2E2E2E2E2E2E2E2E2E2F5E2E2E2E2E2E2E2E2E2E2E2E2E2E2E2E2F5E2E2F5E2E2E2E2E2E2E2E2E2F5E2E2E2E2F5E2E2E2
310
E2E2E2E2E2E2E2E2E2E2E2E2E2E2E2E2E2E2E2E2E2E2E2E2E2E2E2E2F5E2E2E2E2E2E2F5E2E2E2E2E2E2E2E2E2E2E2F5E2E2E2E2E2F5E2E2E2F5E2E2E2E2F5E2E2E2F5E2E2E2E2E2F5E2E2E2F5E2E2E2E2E2F5E2E2E2E2E2E2E2E2E2E2E2E2E2E2E2E2E2E2E2E2E2E2F5E2E2E2E2E2E2E2E2E2E2F5E2E2E2E2E2E2E2E2E2E2
310
E2E2E2E2E2E2E2E2E2E2E2E2E2E2E2E2E2E2E2E2E2E2E2E2E2E2E2E2E2E2E2E2E2E2E2E2E2E2E2E2E2E2E2E2E2E2E2E2E2E2E2E2E2E2E2E2E2E2E2E2E2E2E2E2E2E2E2E2E2E2E2E2E2E2E2E2E2E2E2E2E2E2E2E2E2E2E2E2E2E2F5E2E2E2E2E2E2E2E2E2E2E2E2E2E2E2F5E2E2E2F5E2E2E2E2E2E2E2E2E2F5E2E2E2E2F5E2
310
E2E2E2E2E2E2E2E2E2E2E2E2E2E2E2E2E2E2E2E2E2E2E2E2E2E2E2E2E2E2F5E2E2E2E2E2E2F5E2E2E2E2E2E2E2E2E2E2E2F5E2E2E2E2E2F5E2E2E2F5E2E2E2E2F5E2E2E2F5E2E2E2E2E2F5E2E2E2F5E2E2E2E2E2F5E2E2E2E2E2E2E2E2E2E2E2E2E2E2E2E2E2E2E2E2E2E2F5E2E2E2E2E2E2E2E2E2F5E2E2E2E2E2E2E2E2E2
310
E2E2E2E2E2E2E2E2E2E2E2E2E2E2E2E2E2E2E2E2E2E2E2E2E2E2E2E2E2E2E2E2E2E2E2E2E2E2E2E2E2E2E2E2E2E2E2E2E2E2E2E2E2E2E2E2E2E2E2E2E2E2E2E2E2E2E2E2E2E2E2E2E2E2E2E2E2E2E2E2E2E2E2E2E2E2E2E2E2E2E2E2F5E2E2E2E2E2E2E2E2E2E2E2E2E2E2E2F5E2E2E2E2F5E2E2E2E2E2E2E2E2F5E2E2E2F5
310
E2E2E2E2E2E2E2E2E2E2E2E2E2E2E2E2E2E2E2E2E2E2E2E2E2E2E2E2E2E2E2E2F5E2E2E2E2E2E2E2F5E2E2E2E2E2E2E2E2E2E2F5E2E2E2E2E2F5E2E2E2F5E2E2E2E2F5E2E2E2F5E2E2E2E2E2F5E2E2E2F5E2E2E2E2E2F5E2E2E2E2E2E2E2E2E2E2E2E2E2E2E2E2E2E2E2E2E2F5E2E2E2E2E2E2E2E2E2F5E2E2E2E2E2E2E2E2
310
E2E2E2E2E2E2E2E2E2E2E2E2E2E2E2E2E2E2E2E2E2E2E2E2E2E2E2E2E2E2E2E2E2E2E2E2E2E2E2E2E2E2E2E2E2E2E2E2E2E2E2E2E2E2E2E2E2E2E2E2E2E2E2E2E2E2E2E2E2E2E2E2E2E2E2E2E2E2E2E2E2E2E2E2E2E2E2E2E2E2E2E2E2E2F5E2E2E2E2E2E2E2E2E2E2E2E2E2E2F5E2E2E2E2E2F5E2E2E2E2E2E2E2E2F5F5F5
310
F5E2E2E2E2E2E2E2E2E2E2E2E2E2E2E2E2E2E2E2E2E2E2E2E2E2E2E2E2E2E2E2E2E2F5E2E2E2E2E2E2E2E2F5F5F5F5F5E2E2E2E2E2F5E2E2E2E2E2F5E2E2E2F5E2E2E2E2F5E2E2E2F5E2E2E2E2E2F5E2E2E2F5E2E2E2E2E2F5E2E2E2E2E2E2E2E2E2E2E2E2E2E2E2E2E2E2F5F5F5E2E2E2E2E2E2E2E2E2F5E2E2E2E2E2E2E2
310
E2E2E2E2E2E2E2E2E2E2E2E2E2E2E2E2E2E2E2E2E2E2E2E2E2E2E2E2E2E2E2E2E2E2E2E2E2E2E2E2E2E2E2E2E2E2E2E2E2E2E2E2E2E2E2E2E2E2E2E2E2E2E2E2E2E2E2E2E2E2E2E2E2E2E2E2E2E2E2E2E2E2E2E2E2E2E2E2E2E2E2E2E2E2E2E2F5E2E2E2E2E2E2E2E2E2E2E2E2E2E2F5E2E2E2E2E2E2F5E2E2E2E2E2E2E2F5
310
E2E2E2F5E2E2E2E2E2E2E2E2E2E2E2E2E2E2E2E2E2E2E2E2E2E2E2E2E2E2E2E2E2E2E2E2F5E2E2E2E2E2E2E2E2E2E2E2E2E2F5E2E2E2E2F5E2E2E2E2E2F5E2E2E2F5E2E2E2E2F5E2E2E2F5E2E2E2E2E2F5E2E2E2F5E2E2E2E2E2F5E2E2E2E2E2E2E2E2E2E2E2E2E2E2E2E2E2E2E2E2E2F5E2E2E2E2E2E2E2F5E2E2E2E2E2E2
310
E2E2E2E2E2E2E2E2E2E2E2E2E2E2E2E2E2E2E2E2E2E2E2E2E2E2E2E2E2E2E2E2E2E2E2E2E2E2E2E2E2E2E2E2E2E2E2E2E2E2E2E2E2E2E2E2E2E2E2E2E2E2E2E2E2E2E2E2E2E2E2E2E2E2E2E2E2E2E2E2E2E2E2E2E2E2E2E2E2E2E2E2E2E2E2E2E2E2F5E2E2E2E2E2E2E2E2E2E2E2E2E2F5E2E2E2E2E2E2E2F5E2E2E2E2E2E2
310
E2F5E2E2E2E2F5E2E2E2E2E2E2E2E2E2E2E2E2E2E2E2E2E2E2E2E2E2E2E2E2E2E2E2E2E2E2E2F5E2E2E2E2E2E2E2E2E2E2E2E2E2E2F5E2E2E2F5E2E2E2E2E2F5E2E2E2F5E2E2E2E2F5E2E2E2F5E2E2E2E2E2F5E2E2E2F5E2E2E2E2E2F5E2E2E2E2E2E2E2E2E2E2E2E2E2E2E2E2E2E2E2E2E2E2F5E2E2E2E2E2F5E2E2E2E2E2
310
E2E2E2E2E2E2E2E2E2E2E2E2E2E2E2E2E2E2E2E2E2E2E2E2E2E2E2E2E2E2E2E2E2E2E2E2E2E2E2E2E2E2E2E2E2E2E2E2E2E2E2E2E2E2E2E2E2E2E2E2E2E2E2E2E2E2E2E2E2E2E2E2E2E2E2E2E2E2E2E2E2E2E2E2E2E2E2E2E2E2E2E2E2E2E2E2E2E2E2E2F5E2E2E2E2E2E2E2E2E2E2E2E2E2F5E2E2E2E2E2E2E2E2F5E2E2E2
310
E2E2E2F5E2E2E2E2F5E2E2E2E2E2E2E2E2E2E2E2E2E2E2E2E2E2E2E2E2E2E2E2E2E2E2E2E2E2E2E2F5E2E2E2E2E2E2E2E2E2E2E2E2E2E2F5E2E2E2F5E2E2E2E2E2F5E2E2E2F5E2E2E2E2F5E2E2E2F5E2E2E2E2E2F5E2E2E2F5E2E2E2E2E2F5E2E2E2E2E2E2E2E2E2E2E2E2E2E2E2E2E2E2E2E2E2E2F5E2E2E2E2F5E2E2E2E2
310
E2E2E2E2E2E2E2E2E2E2E2E2E2E2E2E2E2E2E2E2E2E2E2E2E2E2E2E2E2E2E2E2E2E2E2E2E2E2E2E2E2E2E2E2E2E2E2E2E2E2E2E2E2E2E2E2E2E2E2E2E2E2E2E2E2E2E2E2E2E2E2E2E2E2E2E2E2E2E2E2E2E2E2E2E2E2E2E2E2E2E2E2E2E2E2E2E2E2E2E2E2E2F5E2E2E2E2E2E2E2E2E2E2E2E2F5E2E2E2E2E2E2E2E2E2F5E2
310
E2E2E2E2E2F5E2E2E2E2F5E2E2E2E2E2E2E2E2E2E2E2E2E2E2E2E2E2E2E2E2E2E2E2E2E2E2E2E2E2E2E2F5E2E2E2E2E2E2F5E2E2E2E2E2E2E2F5E2E2E2F5E2E2E2E2E2F5E2E2E2F5E2E2E2E2F5E2E2E2F5E2E2E2E2E2F5E2E2E2F5E2E2E2E2E2F5E2E2E2E2E2E2E2E2E2E2E2E2E2E2F5E2E2E2E2E2E2E2F5E2E2E2F5E2E2E2
310
E2E2E2E2F5E2E2E2E2E2E2E2E2E2E2E2E2E2E2E2E2E2E2E2E2E2E2E2E2E2E2E2E2E2E2E2E2E2E2E2E2E2E2E2E2E2E2E2E2E2E2E2E2E2E2E2E2E2E2E2E2E2E2E2E2E2E2E2E2E2E2E2E2E2E2E2E2E2E2E2E2E2E2E2E2E2E2E2E2E2E2E2E2E2E2E2E2E2E2E2E2E2E2E2F5E2E2E2E2E2E2E2E2E2E2E2E2F5E2E2E2E2E2E2E2E2E2
310
E2F5E2E2E2E2E2F5E2E2E2F5E2E2E2E2E2E2E2E2E2E2E2E2E2E2E2E2E2E2E2E2E2E2E2E2E2E2E2E2E2E2E2E2F5E2E2E2E2E2E2E2F5E2E2E2E2E2F5E2E2E2E2E2F5E2E2E2F5E2E2E2E2E2F5E2E2E2F5E2E2E2E2F5E2E2E2F5E2E2E2E2E2F5E2E2E2F5E2E2E2E2E2E2E2E2E2E2E2E2E2E2E2E2F5E2E2E2E2E2F5E2E2E2E2E2F5
310
E2E2E2E2E2F5E2E2E2E2E2E2E2E2E2E2E2E2E2E2E2E2E2E2E2E2E2E2E2E2E2E2E2E2E2E2E2E2E2E2E2E2E2E2E2E2E2E2E2E2E2E2E2E2E2E2E2E2E2E2E2E2E2E2E2E2E2E2E2E2E2E2E2E2E2E2E2E2E2E2E2E2E2E2E2E2E2E2E2E2E2E2E2E2E2E2E2E2E2E2E2E2E2E2E2E2F5E2E2E2E2E2E2E2E2E2E2E2F5E2E2E2E2E2E2E2E2
310
E2E2E2F5E2E2E2F5F5F5F5F5F5E2E2E2E2E2E2E2E2E2E2E2E2E2E2E2E2E2E2E2E2E2E2E2E2E2E2E2E2E2F5F5F5F5F5F5F5F5E2E2E2E2E2F5F5F5F5F5E2E2E2E2E2E2E2F5F5F5E2E2E2E2E2E2E2F5F5F5E2E2E2E2E2E2F5F5F5E2E2E2E2E2E2E2F5F5F5E2E2E2E2E2E2E2E2E2E2E2E2E2E2E2E2E2E2F5F5F5F5F5E2E2E2E2E2
310
E2E2F5F5F5F5F5E2E2E2E2E2E2E2E2E2E2E2E2E2E2E2E2E2E2E2E2E2E2E2E2E2E2E2E2E2E2E2E2E2E2E2E2E2E2E2E2E2E2E2E2E2E2E2E2E2E2E2E2E2E2E2E2E2E2E2E2E2E2E2E2E2E2E2E2E2E2E2E2E2E2E2E2E2E2E2E2E2E2E2E2E2E2E2E2E2E2E2E2E2E2E2E2E2E2E2E2E2E2E2E2E2E2E2E2E2E2E2E2E2E2E2E2E2E2E2E2
310
E2E2E2E2E2E2E2E2E2E2E2E2E2E2E2E2E2E2E2E2E2E2E2E2E2E2E2E2E2E2E2E2E2E2E2E2E2E2E2E2E2E2E2E2E2E2E2E2E2E2E2E2E2E2E2E2E2E2E2E2E2E2E2E2E2E2E2E2E2E2E2E2E2E2E2E2E2E2E2E2E2E2E2E2E2E2E2E2E2E2E2E2E2E2E2E2E2E2E2E2E2E2E2E2E2E2E2E2E2E2E2E2E2E2E2E2E2E2E2E2E2E2E2E2E2E2E2
310
E2E2E2E2E2E2E2E2E2E2E2E2E2E2E2E2E2E2E2E2E2E2E2E2E2E2E2E2E2E2E2E2E2E2E2E2E2E2E2E2E2E2E2E2E2E2E2E2E2E2E2E2E2E2E2E2E2E2E2E2E2E2E2E2E2E2E2E2E2E2E2E2E2E2E2E2E2E2E2E2E2E2E2E2E2E2E2E2E2E2E2E2E2E2E2E2E2E2E2E2E2E2E2E2E2E2E2E2E2E2E2E2E2E2E2E2E2E2E2E2E2E2E2E2E2E2E2
310
E2E2E2E2E2E2E2E2E2E2E2E2E2E2E2E2E2E2E2E2E2E2E2E2E2E2E2E2E2E2E2E2E2E2E2E2E2E2E2E2E2E2E2E2E2E2E2E2E2E2E2E2E2E2E2E2E2E2E2E2E2E2E2E2E2E2E2E2E2E2E2E2E2E2E2E2E2E2E2E2E2E2E2E2E2E2E2E2E2E2E2E2E2E2E2E2E2E2E2E2E2E2E2E2E2E2E2E2E2E2E2E2E2E2E2E2E2E2E2E2E2E2E2E2E2E2E2
310
E2E2E2E2E2E2E2E2E2E2E2E2E2E2E2E2E2E2E2E2E2E2E2E2E2E2E2E2E2E2E2E2E2E2E2E2E2E2E2E2E2E2E2E2E2E2E2E2E2E2E2E2E2E2E2E2E2E2E2E2E2E2E2E2E2E2E2E2E2E2E2E2E2E2E2E2E2E2E2E2E2E2E2E2E2E2E2E2E2E2E2E2E2E2E2E2E2E2E2E2E2E2E2E2E2E2E2E2E2E2E2E2E2E2E2E2E2E2E2E2E2E2E2E2E2E2E2
310
E2E2E2E2E2E2E2E2E2E2E2E2E2E2E2E2E2E2E2E2E2E2E2E2E2E2E2E2E2E2E2E2E2E2E2E2E2E2E2E2E2E2E2E2E2E2E2E2E2E2E2E2E2E2E2E2E2E2E2E2E2E2E2E2E2E2E2E2E2E2E2E2E2E2E2E2E2E2E2E2E2E2E2E2E2E2E2E2E2E2E2E2E2E2E2E2E2E2E2E2E2E2E2E2E2E2E2E2E2E2E2E2E2E2E2E2E2E2E2E2E2E2E2E2E2E2E2
310
E2E2E2E2E2E2E2E2E2E2E2E2E2E2E2E2E2E2E2E2E2E2E2E2E2E2E2E2E2E2E2E2E2E2E2E2E2E2E2E2E2E2E2E2E2E2E2E2E2E2E2E2E2E2E2E2E2E2E2E2E2E2E2E2E2E2E2E2E2E2E2E2E2E2E2E2E2E2E2E2E2E2E2E2E2E2E2E2E2E2E2E2E2E2E2E2E2E2E2E2E2E2E2E2E2E2E2E2E2E2E2E2E2E2E2E2E2E2E2E2E2E2E2E2E2E2E2
310
E2E2E2E2E2E2E2E2E2E2E2E2E2E2E2E2E2E2E2E2E2E2E2E2E2E2E2E2E2E2E2E2E2E2E2E2E2E2E2E2E2E2E2E2E2E2E2E2E2E2E2E2E2E2E2E2E2E2E2E2E2E2E2E2E2E2E2E2E2E2E2E2E2E2E2E2E2E2E2E2E2E2E2E2E2E2E2E2E2E2E2E2E2E2E2E2E2E2E2E2E2E2E2E2E2E2E2E2E2E2E2E2E2E2E2E2E2E2E2E2E2E2E2E2E2E2E2
310
E2E2E2E2E2E2E2E2E2E2E2E2E2E2E2E2E2E2E2E2E2E2E2E2E2E2E2E2E2E2E2E2E2E2E2E2E2E2E2E2E2E2E2E2E2E2E2E2E2E2E2E2E2E2E2E2E2E2E2E2E2E2E2E2E2E2E2E2E2E2E2E2E2E2E2E2E2E2E2E2E2E2E2E2E2E2E2E2E2E2E2E2E2E2E2E2E2E2E2E2E2E2E2E2E2E2E2E2E2E2E2E2E2E2E2E2E2E2E2E2E2E2E2E2E2E2E2
310
E2E2E2E2E2E2E2E2E2E2E2E2E2E2E2E2E2E2E2E2E2E2E2E2E2E2E2E2E2E2E2E2E2E2E2E2E2E2E2E2E2E2E2E2E2E2E2E2E2E2E2E2E2E2E2E2E2E2E2E2E2E2E2E2E2E2E2E2E2E2E2E2E2E2E2E2E2E2E2E2E2E2E2E2E2E2E2E2E2E2E2E2E2E2E2E2E2E2E2E2E2E2E2E2E2E2E2E2E2E2E2E2E2E2E2E2E2E2E2E2E2E2E2E2E2E2E2
310
E2E2E2E2E2E2E2E2E2E2E2E2E2E2E2E2E2E2E2E2E2E2E2E2E2E2E2E2E2E2E2E2E2E2E2E2E2E2E2E2E2E2E2E2E2E2E2E2E2E2E2E2E2E2E2E2E2E2E2E2E2E2E2E2E2E2E2E2E2E2E2E2E2E2E2E2E2E2E2E2E2E2E2E2E2E2E2E2E2E2E2E2E2E2E2E2E2E2E2E2E2E2E2E2E2E2E2E2E2E2E2E2E2E2E2E2E2E2E2E2E2E2E2E2E2E2E2
310
E2E2E2E2E2E2E2E2E2E2E2E2E2E2E2E2E2E2E2E2E2E2E2E2E2E2E2E2E2E2E2E2E2E2E2E2E2E2E2E2E2E2E2E2E2E2E2E2E2E2E2E2E2E2E2E2E2E2E2E2E2E2E2E2E2E2E2E2E2E2E2E2E2E2E2E2E2E2E2E2E2E2E2E2E2E2E2E2E2E2E2E2E2E2E2E2E2E2E2E2E2E2E2E2E2E2E2E2E2E2E2E2E2E2E2E2E2E2E2E2E2E2E2E2E2E2E2
310
E2E2E2E2E2E2E2E2E2E2E2E2E2E2E2E2E2E2E2E2E2E2E2E2E2E2E2E2E2E2E2E2E2E2E2E2E2E2E2E2E2E2E2E2E2E2E2E2E2E2E2E2E2E2E2E2E2E2E2E2E2E2E2E2E2E2E2E2E2E2E2E2E2E2E2E2E2E2E2E2E2E2E2E2E2E2E2E2E2E2E2E2E2E2E2E2E2E2E2E2E2E2E2E2E2E2E2E2E2E2E2E2E2E2E2E2E2E2E2E2E2E2E2E2E2E2E2
310
E2E2E2E2E2E2E2E2E2E2E2E2E2E2E2E2E2E2E2E2E2E2E2E2E2E2E2E2E2E2E2E2E2E2E2E2E2E2E2E2E2E2E2E2E2E2E2E2E2E2E2E2E2E2E2E2E2E2E2E2E2E2E2E2E2E2E2E2E2E2E2E2E2E2E2E2E2E2E2E2E2E2E2E2E2E2E2E2E2E2E2E2E2E2E2E2E2E2E2E2E2E2E2E2E2E2E2E2E2E2E2E2E2E2E2E2E2E2E2E2E2E2E2E2E2E2E2
310
E2E2E2E2E2E2E2E2E2E2E2E2E2E2E2E2E2E2E2E2E2E2E2E2E2E2E2E2E2E2E2E2E2E2E2E2E2E2E2E2E2E2E2E2E2E2E2E2E2E2E2E2E2E2E2E2E2E2E2E2E2E2E2E2E2E2E2E2E2E2E2E2E2E2E2E2E2E2E2E2E2E2E2E2E2E2E2E2E2E2E2E2E2E2E2E2E2E2E2E2E2E2E2E2E2E2E2E2E2E2E2E2E2E2E2E2E2E2E2E2E2E2E2E2E2E2E2
310
E2E2E2E2E2E2E2E2E2E2E2E2E2E2E2E2E2E2E2E2E2E2E2E2E2E2E2E2E2E2E2E2E2E2E2E2E2E2E2E2E2E2E2E2E2E2E2E2E2E2E2E2E2E2E2E2E2E2E2E2E2E2E2E2E2E2E2E2E2E2E2E2E2E2E2E2E2E2E2E2E2E2E2E2E2E2E2E2E2E2E2E2E2E2E2E2E2E2E2E2E2E2E2E2E2E2E2E2E2E2E2E2E2E2E2E2E2E2E2E2E2E2E2E2E2E2E2
310
E2E2E2E2E2E2E2E2E2E2E2E2E2E2E2E2E2E2E2E2E2E2E2E2E2E2E2E2E2E2E2E2E2E2E2E2E2E2E2E2E2E2E2E2E2E2E2E2E2E2E2E2E2E2E2E2E2E2E2E2E2E2E2E2E2E2E2E2E2E2E2E2E2E2E2E2E2E2E2E2E2E2E2E2E2E2E2E2E2E2E2E2E2E2E2E2E2E2E2E2E2E2E2E2E2E2E2E2E2E2E2E2E2E2E2E2E2E2E2E2E2E2E2E2E2E2E2
310
E2E2E2E2E2E2E2E2E2E2E2E2E2E2E2E2E2E2E2E2E2E2E2E2E2E2E2E2E2E2E2E2E2E2E2E2E2E2E2E2E2E2E2E2E2E2E2E2E2E2E2E2E2E2E2E2E2E2E2E2E2E2E2E2E2E2E2E2E2E2E2E2E2E2E2E2E2E2E2E2E2E2E2E2E2E2E2E2E2E2E2E2E2E2E2E2E2E2E2E2E2E2E2E2E2E2E2E2E2E2E2E2E2E2E2E2E2E2E2E2E2E2E2E2E2E2E2
310
E2E2E2E2E2E2E2E2E2E2E2E2E2E2E2E2E2E2E2E2E2E2E2E2E2E2E2E2E2E2E2E2E2E2E2E2E2E2E2E2E2E2E2E2E2E2E2E2E2E2E2E2E2E2E2E2E2E2E2E2E2E2E2E2E2E2E2E2E2E2E2E2E2E2E2E2E2E2E2E2E2E2E2E2E2E2E2E2E2E2E2E2E2E2E2E2E2E2E2E2E2E2E2E2E2E2E2E2E2E2E2E2E2E2E2E2E2E2E2E2E2E2E2E2E2E2E2
310
E2E2E2E2E2E2E2E2E2E2E2E2E2E2E2E2E2E2E2E2E2E2E2E2E2E2E2E2E2E2E2E2E2E2E2E2E2E2E2E2E2E2E2E2E2E2E2E2E2E2E2E2E2E2E2E2E2E2E2E2E2E2E2E2E2E2E2E2E2E2E2E2E2E2E2E2E2E2E2E2E2E2E2E2E2E2E2E2E2E2E2E2E2E2E2E2E2E2E2E2E2E2E2E2E2E2E2E2E2E2E2E2E2E2E2E2E2E2E2E2E2E2E2E2E2E2E2
310
E2E2E2E2E2E2E2E2E2E2E2E2E2E2E2E2E2E2E2E2E2E2E2E2E2E2E2E2E2E2E2E2E2E2E2E2E2E2E2E2E2E2E2E2E2E2E2E2E2E2E2E2E2E2E2E2E2E2E2E2E2E2E2E2E2E2E2E2E2E2E2E2E2E2E2E2E2E2E2E2E2E2E2E2E2E2E2E2E2E2E2E2E2E2E2E2E2E2E2E2E2E2E2E2E2E2E2E2E2E2E2E2E2E2E2E2E2E2E2E2E2E2E2E2E2E2E2
310
E2E2E2E2E2E2E2E2E2E2E2E2E2E2E2E2E2E2E2E2E2E2E2E2E2E2E2E2E2E2E2E2E2E2E2E2E2E2E2E2E2E2E2E2E2E2E2E2E2E2E2E2E2E2E2E2E2E2E2E2E2E2E2E2E2E2E2E2E2E2E2E2E2E2E2E2E2E2E2E2E2E2E2E2E2E2E2E2E2E2E2E2E2E2E2E2E2E2E2E2E2E2E2E2E2E2E2E2E2E2E2E2E2E2E2E2E2E2E2E2E2E2E2E2E2E2E2
310
E2E2E2E2E2E2E2E2E2E2E2E2E2E2E2E2E2E2E2E2E2E2E2E2E2E2E2E2E2E2E2E2E2E2E2E2E2E2E2E2E2E2E2E2E2E2E2E2E2E2E2E2E2E2E2E2E2E2E2E2E2E2E2E2E2E2E2E2E2E2E2E2E2E2E2E2E2E2E2E2E2E2E2E2E2E2E2E2E2E2E2E2E2E2E2E2E2E2E2E2E2E2E2E2E2E2E2E2E2E2E2E2E2E2E2E2E2E2E2E2E2E2E2E2E2E2E2
310
E2E2E2E2E2E2E2E2E2E2E2E2E2E2E2E2E2E2E2E2E2E2E2E2E2E2E2E2E2E2E2E2E2E2E2E2E2E2E2E2E2E2E2E2E2E2E2E2E2E2E2E2E2E2E2E2E2E2E2E2E2E2E2E2E2E2E2E2E2E2E2E2E2E2E2E2E2E2E2E2E2E2E2E2E2E2E2E2E2E2E2E2E2E2E2E2E2E2E2E2E2E2E2E2E2E2E2E2E2E2E2E2E2E2E2E2E2E2E2E2E2E2E2E2E2E2E2
310
E2E2E2E2E2E2E2E2E2E2E2E2E2E2E2E2E2E2E2E2E2E2E2E2E2E2E2E2E2E2E2E2E2E2E2E2E2E2E2E2E2E2E2E2E2E2E2E2E2E2E2E2E2E2E2E2E2E2E2E2E2E2E2E2E2E2E2E2E2E2E2E2E2E2E2E2E2E2E2E2E2E2E2E2E2E2E2E2E2E2E2E2E2E2E2E2E2E2E2E2E2E2E2E2E2E2E2E2E2E2E2E2E2E2E2E2E2E2E2E2E2E2E2E2E2E2E2
310
E2E2E2E2E2E2E2E2E2E2E2E2E2E2E2E2E2E2E2E2E2E2E2E2E2E2E2E2E2E2E2E2E2E2E2E2E2E2E2E2E2E2E2E2E2E2E2E2E2E2E2E2E2E2E2E2E2E2E2E2E2E2E2E2E2E2E2E2E2E2E2E2E2E2E2E2E2E2E2E2E2E2E2E2E2E2E2E2E2E2E2E2E2E2E2E2E2E2E2E2E2E2E2E2E2E2E2E2E2E2E2E2E2E2E2E2E2E2E2E2E2E2E2E2E2E2E2
310
E2E2E2E2E2E2E2E2E2E2E2E2E2E2E2E2E2E2E2E2E2E2E2E2E2E2E2E2E2E2E2E2E2E2E2E2E2E2E2E2E2E2E2E2E2E2E2E2E2E2E2E2E2E2E2E2E2E2E2E2E2E2E2E2E2E2E2E2E2E2E2E2E2E2E2E2E2E2E2E2E2E2E2E2E2E2E2E2E2E2E2E2E2E2E2E2E2E2E2E2E2E2E2E2
  0
XRECORD
  5
1D13
102
{ACAD_REACTORS
330
100B
102
}
330
100B
100
AcDbXrecord
280
     1
102
MATERIAL
148
0.0
149
0.0
149
0.0
 93
        0
 94
      127
282
     0
 72
     0
 77
     0
171
     0
175
     0
179
     0
273
     0
  0
XRECORD
  5
100D
102
{ACAD_REACTORS
330
100B
102
}
330
100B
100
AcDbXrecord
280
     1
270
     1
271
     1
  0
XRECORD
  5
100C
102
{ACAD_REACTORS
330
100B
102
}
330
100B
100
AcDbXrecord
280
     1
270
     1
271
     1
  0
XRECORD
  5
1010
102
{ACAD_REACTORS
330
100B
102
}
330
100B
100
AcDbXrecord
280
     1
270
     1
271
     1
  0
XRECORD
  5
100F
102
{ACAD_REACTORS
330
100B
102
}
330
100B
100
AcDbXrecord
280
     1
270
     1
271
     1
  0
XRECORD
  5
1011
102
{ACAD_REACTORS
330
100B
102
}
330
100B
100
AcDbXrecord
280
     1
270
     1
271
     1
  0
XRECORD
  5
100E
102
{ACAD_REACTORS
330
100B
102
}
330
100B
100
AcDbXrecord
280
     1
270
     1
271
     1
  0
XRECORD
  5
1D12
102
{ACAD_REACTORS
330
1003
102
}
330
1003
100
AcDbXrecord
280
     1
102
MATERIAL
148
0.0
149
0.0
149
0.0
 93
        0
 94
      127
282
     0
 72
     0
 77
     0
171
     0
175
     0
179
     0
273
     0
  0
XRECORD
  5
1005
102
{ACAD_REACTORS
330
1003
102
}
330
1003
100
AcDbXrecord
280
     1
270
     1
271
     1
  0
XRECORD
  5
1004
102
{ACAD_REACTORS
330
1003
102
}
330
1003
100
AcDbXrecord
280
     1
270
     1
271
     1
  0
XRECORD
  5
1008
102
{ACAD_REACTORS
330
1003
102
}
330
1003
100
AcDbXrecord
280
     1
270
     1
271
     1
  0
XRECORD
  5
1007
102
{ACAD_REACTORS
330
1003
102
}
330
1003
100
AcDbXrecord
280
     1
270
     1
271
     1
  0
XRECORD
  5
1009
102
{ACAD_REACTORS
330
1003
102
}
330
1003
100
AcDbXrecord
280
     1
270
     1
271
     1
  0
XRECORD
  5
1006
102
{ACAD_REACTORS
330
1003
102
}
330
1003
100
AcDbXrecord
280
     1
270
     1
271
     1
  0
XRECORD
  5
1D14
102
{ACAD_REACTORS
330
1013
102
}
330
1013
100
AcDbXrecord
280
     1
102
MATERIAL
148
0.0
149
0.0
149
0.0
 93
        0
 94
      127
282
     0
 72
     0
 77
     0
171
     0
175
     0
179
     0
273
     0
  0
XRECORD
  5
1015
102
{ACAD_REACTORS
330
1013
102
}
330
1013
100
AcDbXrecord
280
     1
270
     1
271
     1
  0
XRECORD
  5
1014
102
{ACAD_REACTORS
330
1013
102
}
330
1013
100
AcDbXrecord
280
     1
270
     1
271
     1
  0
XRECORD
  5
1018
102
{ACAD_REACTORS
330
1013
102
}
330
1013
100
AcDbXrecord
280
     1
270
     1
271
     1
  0
XRECORD
  5
1017
102
{ACAD_REACTORS
330
1013
102
}
330
1013
100
AcDbXrecord
280
     1
270
     1
271
     1
  0
XRECORD
  5
1019
102
{ACAD_REACTORS
330
1013
102
}
330
1013
100
AcDbXrecord
280
     1
270
     1
271
     1
  0
XRECORD
  5
1016
102
{ACAD_REACTORS
330
1013
102
}
330
1013
100
AcDbXrecord
280
     1
270
     1
271
     1
  0
CELLSTYLEMAP
  5
1D0B
102
{ACAD_REACTORS
330
122A
102
}
330
122A
100
AcDbCellStyleMap
 90
        3
300
CELLSTYLE
  1
TABLEFORMAT_BEGIN
 90
        5
170
     1
 91
        0
 92
    32768
 62
   257
 93
        1
300
CONTENTFORMAT
  1
CONTENTFORMAT_BEGIN
 90
        0
 91
        0
 92
      512
 93
        0
300

 40
0.0
140
1.0
 94
        5
 62
     0
340
1046
144
0.25
309
CONTENTFORMAT_END
171
     0
 94
        0
309
TABLEFORMAT_END
  1
CELLSTYLE_BEGIN
 90
        1
 91
        1
300
_TITLE
309
CELLSTYLE_END
300
CELLSTYLE
  1
TABLEFORMAT_BEGIN
 90
        5
170
     1
 91
        0
 92
        0
 62
   257
 93
        1
300
CONTENTFORMAT
  1
CONTENTFORMAT_BEGIN
 90
        0
 91
        0
 92
      512
 93
        0
300

 40
0.0
140
1.0
 94
        5
 62
     0
340
1046
144
0.18
309
CONTENTFORMAT_END
171
     0
 94
        0
309
TABLEFORMAT_END
  1
CELLSTYLE_BEGIN
 90
        2
 91
        1
300
_HEADER
309
CELLSTYLE_END
300
CELLSTYLE
  1
TABLEFORMAT_BEGIN
 90
        5
170
     1
 91
        0
 92
        0
 62
   257
 93
        1
300
CONTENTFORMAT
  1
CONTENTFORMAT_BEGIN
 90
        0
 91
        0
 92
      512
 93
        0
300

 40
0.0
140
1.0
 94
        2
 62
     0
340
1046
144
0.18
309
CONTENTFORMAT_END
171
     0
 94
        0
309
TABLEFORMAT_END
  1
CELLSTYLE_BEGIN
 90
        3
 91
        2
300
_DATA
309
CELLSTYLE_END
  0
XRECORD
  5
1D15
102
{ACAD_REACTORS
330
122A
102
}
330
122A
100
AcDbXrecord
280
     1
102
ACAD_ROUNDTRIP_PRE2007_TABLESTYLE
 90
      512
 91
        0
  1

 92
      512
 93
        0
  2

 94
      512
 95
        0
  3

  0
XRECORD
  5
1CBD
102
{ACAD_REACTORS
330
1CBC
102
}
330
1CBC
100
AcDbXrecord
280
     1
102
RTVSPropertyOp28
 70
     1
102
RTVSPropertyOp29
 70
     1
102
RTVSPropertyOp30
 70
     1
102
RTVSPropertyOp31
 70
     1
102
RTVSPropertyOp32
 70
     1
102
RTVSPropertyOp0
 70
     1
102
RTVSPropertyOp1
 70
     1
102
RTVSPropertyOp2
 70
     1
102
RTVSPropertyOp3
 70
     1
102
RTVSPropertyOp4
 70
     1
102
RTVSPropertyOp5
 70
     1
102
RTVSPropertyOp6
 70
     1
102
RTVSPropertyOp7
 70
     1
102
RTVSPropertyOp8
 70
     1
102
RTVSPropertyOp9
 70
     1
102
RTVSPropertyOp10
 70
     1
102
RTVSPropertyOp11
 70
     1
102
RTVSPropertyOp12
 70
     1
102
RTVSPropertyOp13
 70
     1
102
RTVSPropertyOp14
 70
     1
102
RTVSPropertyOp15
 70
     1
102
RTVSPropertyOp16
 70
     1
102
RTVSPropertyOp17
 70
     1
102
RTVSPropertyOp18
 70
     1
102
RTVSPropertyOp19
 70
     1
102
RTVSPropertyOp20
 70
     1
102
RTVSPropertyOp21
 70
     1
102
RTVSPropertyOp22
 70
     1
102
RTVSPropertyOp23
 70
     1
102
RTVSPropertyOp24
 70
     1
102
RTVSPropertyOp25
 70
     1
102
RTVSPropertyOp26
 70
     1
102
RTVSPropertyOp27
 70
     1
  0
XRECORD
  5
1CE9
102
{ACAD_REACTORS
330
1CE8
102
}
330
1CE8
100
AcDbXrecord
280
     1
102
RTVSPropertyOp28
 70
     1
102
RTVSPropertyOp29
 70
     1
102
RTVSPropertyOp30
 70
     1
102
RTVSPropertyOp31
 70
     1
102
RTVSPropertyOp32
 70
     1
102
RTVSPropertyOp0
 70
     1
102
RTVSPropertyOp1
 70
     1
102
RTVSPropertyOp2
 70
     1
102
RTVSPropertyOp3
 70
     1
102
RTVSPropertyOp4
 70
     1
102
RTVSPropertyOp5
 70
     1
102
RTVSPropertyOp6
 70
     1
102
RTVSPropertyOp7
 70
     1
102
RTVSPropertyOp8
 70
     1
102
RTVSPropertyOp9
 70
     1
102
RTVSPropertyOp10
 70
     1
102
RTVSPropertyOp11
 70
     1
102
RTVSPropertyOp12
 70
     1
102
RTVSPropertyOp13
 70
     1
102
RTVSPropertyOp14
 70
     1
102
RTVSPropertyOp15
 70
     1
102
RTVSPropertyOp16
 70
     1
102
RTVSPropertyOp17
 70
     1
102
RTVSPropertyOp18
 70
     1
102
RTVSPropertyOp19
 70
     1
102
RTVSPropertyOp20
 70
     1
102
RTVSPropertyOp21
 70
     1
102
RTVSPropertyOp22
 70
     1
102
RTVSPropertyOp23
 70
     1
102
RTVSPropertyOp24
 70
     1
102
RTVSPropertyOp25
 70
     1
102
RTVSPropertyOp26
 70
     1
102
RTVSPropertyOp27
 70
     1
  0
XRECORD
  5
1CE7
102
{ACAD_REACTORS
330
1CE6
102
}
330
1CE6
100
AcDbXrecord
280
     1
102
RTVSPropertyOp28
 70
     1
102
RTVSPropertyOp29
 70
     1
102
RTVSPropertyOp30
 70
     1
102
RTVSPropertyOp31
 70
     1
102
RTVSPropertyOp32
 70
     1
102
RTVSPropertyOp0
 70
     1
102
RTVSPropertyOp1
 70
     1
102
RTVSPropertyOp2
 70
     1
102
RTVSPropertyOp3
 70
     1
102
RTVSPropertyOp4
 70
     1
102
RTVSPropertyOp5
 70
     1
102
RTVSPropertyOp6
 70
     1
102
RTVSPropertyOp7
 70
     1
102
RTVSPropertyOp8
 70
     1
102
RTVSPropertyOp9
 70
     1
102
RTVSPropertyOp10
 70
     1
102
RTVSPropertyOp11
 70
     1
102
RTVSPropertyOp12
 70
     1
102
RTVSPropertyOp13
 70
     1
102
RTVSPropertyOp14
 70
     1
102
RTVSPropertyOp15
 70
     1
102
RTVSPropertyOp16
 70
     1
102
RTVSPropertyOp17
 70
     1
102
RTVSPropertyOp18
 70
     1
102
RTVSPropertyOp19
 70
     1
102
RTVSPropertyOp20
 70
     1
102
RTVSPropertyOp21
 70
     1
102
RTVSPropertyOp22
 70
     1
102
RTVSPropertyOp23
 70
     1
102
RTVSPropertyOp24
 70
     1
102
RTVSPropertyOp25
 70
     1
102
RTVSPropertyOp26
 70
     1
102
RTVSPropertyOp27
 70
     1
  0
XRECORD
  5
1CBB
102
{ACAD_REACTORS
330
1CBA
102
}
330
1CBA
100
AcDbXrecord
280
     1
102
RTVSPropertyOp28
 70
     1
102
RTVSPropertyOp29
 70
     1
102
RTVSPropertyOp30
 70
     1
102
RTVSPropertyOp31
 70
     1
102
RTVSPropertyOp32
 70
     1
102
RTVSPropertyOp0
 70
     1
102
RTVSPropertyOp1
 70
     1
102
RTVSPropertyOp2
 70
     1
102
RTVSPropertyOp3
 70
     1
102
RTVSPropertyOp4
 70
     1
102
RTVSPropertyOp5
 70
     1
102
RTVSPropertyOp6
 70
     1
102
RTVSPropertyOp7
 70
     1
102
RTVSPropertyOp8
 70
     1
102
RTVSPropertyOp9
 70
     1
102
RTVSPropertyOp10
 70
     1
102
RTVSPropertyOp11
 70
     1
102
RTVSPropertyOp12
 70
     1
102
RTVSPropertyOp13
 70
     1
102
RTVSPropertyOp14
 70
     1
102
RTVSPropertyOp15
 70
     1
102
RTVSPropertyOp16
 70
     1
102
RTVSPropertyOp17
 70
     1
102
RTVSPropertyOp18
 70
     1
102
RTVSPropertyOp19
 70
     1
102
RTVSPropertyOp20
 70
     1
102
RTVSPropertyOp21
 70
     1
102
RTVSPropertyOp22
 70
     1
102
RTVSPropertyOp23
 70
     1
102
RTVSPropertyOp24
 70
     1
102
RTVSPropertyOp25
 70
     1
102
RTVSPropertyOp26
 70
     1
102
RTVSPropertyOp27
 70
     1
  0
XRECORD
  5
1CC9
102
{ACAD_REACTORS
330
1CC8
102
}
330
1CC8
100
AcDbXrecord
280
     1
102
RTVSPropertyOp28
 70
     1
102
RTVSPropertyOp29
 70
     1
102
RTVSPropertyOp30
 70
     1
102
RTVSPropertyOp31
 70
     1
102
RTVSPropertyOp32
 70
     1
102
RTVSPropertyOp0
 70
     1
102
RTVSPropertyOp1
 70
     1
102
RTVSPropertyOp2
 70
     1
102
RTVSPropertyOp3
 70
     1
102
RTVSPropertyOp4
 70
     1
102
RTVSPropertyOp5
 70
     1
102
RTVSPropertyOp6
 70
     1
102
RTVSPropertyOp7
 70
     1
102
RTVSPropertyOp8
 70
     1
102
RTVSPropertyOp9
 70
     1
102
RTVSPropertyOp10
 70
     1
102
RTVSPropertyOp11
 70
     1
102
RTVSPropertyOp12
 70
     1
102
RTVSPropertyOp13
 70
     1
102
RTVSPropertyOp14
 70
     1
102
RTVSPropertyOp15
 70
     1
102
RTVSPropertyOp16
 70
     1
102
RTVSPropertyOp17
 70
     1
102
RTVSPropertyOp18
 70
     1
102
RTVSPropertyOp19
 70
     1
102
RTVSPropertyOp20
 70
     1
102
RTVSPropertyOp21
 70
     1
102
RTVSPropertyOp22
 70
     1
102
RTVSPropertyOp23
 70
     1
102
RTVSPropertyOp24
 70
     1
102
RTVSPropertyOp25
 70
     1
102
RTVSPropertyOp26
 70
     1
102
RTVSPropertyOp27
 70
     1
  0
XRECORD
  5
1CD1
102
{ACAD_REACTORS
330
1CD0
102
}
330
1CD0
100
AcDbXrecord
280
     1
102
RTVSPropertyOp28
 70
     1
102
RTVSPropertyOp29
 70
     1
102
RTVSPropertyOp30
 70
     1
102
RTVSPropertyOp31
 70
     1
102
RTVSPropertyOp32
 70
     1
102
RTVSPropertyOp0
 70
     1
102
RTVSPropertyOp1
 70
     1
102
RTVSPropertyOp2
 70
     1
102
RTVSPropertyOp3
 70
     1
102
RTVSPropertyOp4
 70
     1
102
RTVSPropertyOp5
 70
     1
102
RTVSPropertyOp6
 70
     1
102
RTVSPropertyOp7
 70
     1
102
RTVSPropertyOp8
 70
     1
102
RTVSPropertyOp9
 70
     1
102
RTVSPropertyOp10
 70
     1
102
RTVSPropertyOp11
 70
     1
102
RTVSPropertyOp12
 70
     1
102
RTVSPropertyOp13
 70
     1
102
RTVSPropertyOp14
 70
     1
102
RTVSPropertyOp15
 70
     1
102
RTVSPropertyOp16
 70
     1
102
RTVSPropertyOp17
 70
     1
102
RTVSPropertyOp18
 70
     1
102
RTVSPropertyOp19
 70
     1
102
RTVSPropertyOp20
 70
     1
102
RTVSPropertyOp21
 70
     1
102
RTVSPropertyOp22
 70
     1
102
RTVSPropertyOp23
 70
     1
102
RTVSPropertyOp24
 70
     1
102
RTVSPropertyOp25
 70
     1
102
RTVSPropertyOp26
 70
     1
102
RTVSPropertyOp27
 70
     1
  0
XRECORD
  5
1CC3
102
{ACAD_REACTORS
330
1CC2
102
}
330
1CC2
100
AcDbXrecord
280
     1
102
RTVSPropertyOp28
 70
     1
102
RTVSPropertyOp29
 70
     1
102
RTVSPropertyOp30
 70
     1
102
RTVSPropertyOp31
 70
     1
102
RTVSPropertyOp32
 70
     1
102
RTVSPropertyOp0
 70
     1
102
RTVSPropertyOp1
 70
     1
102
RTVSPropertyOp2
 70
     1
102
RTVSPropertyOp3
 70
     1
102
RTVSPropertyOp4
 70
     1
102
RTVSPropertyOp5
 70
     1
102
RTVSPropertyOp6
 70
     1
102
RTVSPropertyOp7
 70
     1
102
RTVSPropertyOp8
 70
     1
102
RTVSPropertyOp9
 70
     1
102
RTVSPropertyOp10
 70
     1
102
RTVSPropertyOp11
 70
     1
102
RTVSPropertyOp12
 70
     1
102
RTVSPropertyOp13
 70
     1
102
RTVSPropertyOp14
 70
     1
102
RTVSPropertyOp15
 70
     1
102
RTVSPropertyOp16
 70
     1
102
RTVSPropertyOp17
 70
     1
102
RTVSPropertyOp18
 70
     1
102
RTVSPropertyOp19
 70
     1
102
RTVSPropertyOp20
 70
     1
102
RTVSPropertyOp21
 70
     1
102
RTVSPropertyOp22
 70
     1
102
RTVSPropertyOp23
 70
     1
102
RTVSPropertyOp24
 70
     1
102
RTVSPropertyOp25
 70
     1
102
RTVSPropertyOp26
 70
     1
102
RTVSPropertyOp27
 70
     1
  0
XRECORD
  5
1CC7
102
{ACAD_REACTORS
330
1CC6
102
}
330
1CC6
100
AcDbXrecord
280
     1
102
RTVSPropertyOp28
 70
     1
102
RTVSPropertyOp29
 70
     1
102
RTVSPropertyOp30
 70
     1
102
RTVSPropertyOp31
 70
     1
102
RTVSPropertyOp32
 70
     1
102
RTVSPropertyOp0
 70
     1
102
RTVSPropertyOp1
 70
     1
102
RTVSPropertyOp2
 70
     1
102
RTVSPropertyOp3
 70
     1
102
RTVSPropertyOp4
 70
     1
102
RTVSPropertyOp5
 70
     1
102
RTVSPropertyOp6
 70
     1
102
RTVSPropertyOp7
 70
     1
102
RTVSPropertyOp8
 70
     1
102
RTVSPropertyOp9
 70
     1
102
RTVSPropertyOp10
 70
     1
102
RTVSPropertyOp11
 70
     1
102
RTVSPropertyOp12
 70
     1
102
RTVSPropertyOp13
 70
     1
102
RTVSPropertyOp14
 70
     1
102
RTVSPropertyOp15
 70
     1
102
RTVSPropertyOp16
 70
     1
102
RTVSPropertyOp17
 70
     1
102
RTVSPropertyOp18
 70
     1
102
RTVSPropertyOp19
 70
     1
102
RTVSPropertyOp20
 70
     1
102
RTVSPropertyOp21
 70
     1
102
RTVSPropertyOp22
 70
     1
102
RTVSPropertyOp23
 70
     1
102
RTVSPropertyOp24
 70
     1
102
RTVSPropertyOp25
 70
     1
102
RTVSPropertyOp26
 70
     1
102
RTVSPropertyOp27
 70
     1
  0
XRECORD
  5
1CE1
102
{ACAD_REACTORS
330
1CE0
102
}
330
1CE0
100
AcDbXrecord
280
     1
102
RTVSPropertyOp28
 70
     1
102
RTVSPropertyOp29
 70
     1
102
RTVSPropertyOp30
 70
     1
102
RTVSPropertyOp31
 70
     1
102
RTVSPropertyOp32
 70
     1
102
RTVSPropertyOp0
 70
     0
102
RTVSPropertyOp1
 70
     0
102
RTVSPropertyOp2
 70
     0
102
RTVSPropertyOp3
 70
     0
102
RTVSPropertyOp4
 70
     0
102
RTVSPropertyOp5
 70
     0
102
RTVSPropertyOp6
 70
     0
102
RTVSPropertyOp7
 70
     0
102
RTVSPropertyOp8
 70
     0
102
RTVSPropertyOp9
 70
     0
102
RTVSPropertyOp10
 70
     0
102
RTVSPropertyOp11
 70
     0
102
RTVSPropertyOp12
 70
     0
102
RTVSPropertyOp13
 70
     0
102
RTVSPropertyOp14
 70
     2
102
RTVSPropertyOp15
 70
     0
102
RTVSPropertyOp16
 70
     0
102
RTVSPropertyOp17
 70
     0
102
RTVSPropertyOp18
 70
     0
102
RTVSPropertyOp19
 70
     0
102
RTVSPropertyOp20
 70
     0
102
RTVSPropertyOp21
 70
     0
102
RTVSPropertyOp22
 70
     0
102
RTVSPropertyOp23
 70
     0
102
RTVSPropertyOp24
 70
     0
102
RTVSPropertyOp25
 70
     0
102
RTVSPropertyOp26
 70
     0
102
RTVSPropertyOp27
 70
     0
  0
XRECORD
  5
1CCF
102
{ACAD_REACTORS
330
1CCE
102
}
330
1CCE
100
AcDbXrecord
280
     1
102
RTVSPropertyOp28
 70
     1
102
RTVSPropertyOp29
 70
     1
102
RTVSPropertyOp30
 70
     1
102
RTVSPropertyOp31
 70
     1
102
RTVSPropertyOp32
 70
     1
102
RTVSPropertyOp0
 70
     1
102
RTVSPropertyOp1
 70
     1
102
RTVSPropertyOp2
 70
     1
102
RTVSPropertyOp3
 70
     1
102
RTVSPropertyOp4
 70
     1
102
RTVSPropertyOp5
 70
     1
102
RTVSPropertyOp6
 70
     1
102
RTVSPropertyOp7
 70
     1
102
RTVSPropertyOp8
 70
     1
102
RTVSPropertyOp9
 70
     1
102
RTVSPropertyOp10
 70
     1
102
RTVSPropertyOp11
 70
     1
102
RTVSPropertyOp12
 70
     1
102
RTVSPropertyOp13
 70
     1
102
RTVSPropertyOp14
 70
     1
102
RTVSPropertyOp15
 70
     1
102
RTVSPropertyOp16
 70
     1
102
RTVSPropertyOp17
 70
     1
102
RTVSPropertyOp18
 70
     1
102
RTVSPropertyOp19
 70
     1
102
RTVSPropertyOp20
 70
     1
102
RTVSPropertyOp21
 70
     1
102
RTVSPropertyOp22
 70
     1
102
RTVSPropertyOp23
 70
     1
102
RTVSPropertyOp24
 70
     1
102
RTVSPropertyOp25
 70
     1
102
RTVSPropertyOp26
 70
     1
102
RTVSPropertyOp27
 70
     1
  0
XRECORD
  5
1CB3
102
{ACAD_REACTORS
330
1CB2
102
}
330
1CB2
100
AcDbXrecord
280
     1
102
RTVSPropertyOp28
 70
     1
102
RTVSPropertyOp29
 70
     1
102
RTVSPropertyOp30
 70
     1
102
RTVSPropertyOp31
 70
     1
102
RTVSPropertyOp32
 70
     1
102
RTVSPropertyOp0
 70
     1
102
RTVSPropertyOp1
 70
     1
102
RTVSPropertyOp2
 70
     1
102
RTVSPropertyOp3
 70
     1
102
RTVSPropertyOp4
 70
     1
102
RTVSPropertyOp5
 70
     1
102
RTVSPropertyOp6
 70
     1
102
RTVSPropertyOp7
 70
     1
102
RTVSPropertyOp8
 70
     1
102
RTVSPropertyOp9
 70
     1
102
RTVSPropertyOp10
 70
     1
102
RTVSPropertyOp11
 70
     1
102
RTVSPropertyOp12
 70
     1
102
RTVSPropertyOp13
 70
     1
102
RTVSPropertyOp14
 70
     1
102
RTVSPropertyOp15
 70
     1
102
RTVSPropertyOp16
 70
     1
102
RTVSPropertyOp17
 70
     1
102
RTVSPropertyOp18
 70
     1
102
RTVSPropertyOp19
 70
     1
102
RTVSPropertyOp20
 70
     1
102
RTVSPropertyOp21
 70
     1
102
RTVSPropertyOp22
 70
     1
102
RTVSPropertyOp23
 70
     1
102
RTVSPropertyOp24
 70
     1
102
RTVSPropertyOp25
 70
     1
102
RTVSPropertyOp26
 70
     1
102
RTVSPropertyOp27
 70
     1
  0
XRECORD
  5
1CB5
102
{ACAD_REACTORS
330
1CB4
102
}
330
1CB4
100
AcDbXrecord
280
     1
102
RTVSPropertyOp28
 70
     1
102
RTVSPropertyOp29
 70
     1
102
RTVSPropertyOp30
 70
     1
102
RTVSPropertyOp31
 70
     1
102
RTVSPropertyOp32
 70
     1
102
RTVSPropertyOp0
 70
     1
102
RTVSPropertyOp1
 70
     1
102
RTVSPropertyOp2
 70
     1
102
RTVSPropertyOp3
 70
     1
102
RTVSPropertyOp4
 70
     1
102
RTVSPropertyOp5
 70
     1
102
RTVSPropertyOp6
 70
     1
102
RTVSPropertyOp7
 70
     1
102
RTVSPropertyOp8
 70
     1
102
RTVSPropertyOp9
 70
     1
102
RTVSPropertyOp10
 70
     1
102
RTVSPropertyOp11
 70
     1
102
RTVSPropertyOp12
 70
     1
102
RTVSPropertyOp13
 70
     1
102
RTVSPropertyOp14
 70
     1
102
RTVSPropertyOp15
 70
     1
102
RTVSPropertyOp16
 70
     1
102
RTVSPropertyOp17
 70
     1
102
RTVSPropertyOp18
 70
     1
102
RTVSPropertyOp19
 70
     1
102
RTVSPropertyOp20
 70
     1
102
RTVSPropertyOp21
 70
     1
102
RTVSPropertyOp22
 70
     1
102
RTVSPropertyOp23
 70
     1
102
RTVSPropertyOp24
 70
     1
102
RTVSPropertyOp25
 70
     1
102
RTVSPropertyOp26
 70
     1
102
RTVSPropertyOp27
 70
     1
  0
XRECORD
  5
1CB7
102
{ACAD_REACTORS
330
1CB6
102
}
330
1CB6
100
AcDbXrecord
280
     1
102
RTVSPropertyOp28
 70
     1
102
RTVSPropertyOp29
 70
     1
102
RTVSPropertyOp30
 70
     1
102
RTVSPropertyOp31
 70
     1
102
RTVSPropertyOp32
 70
     1
102
RTVSPropertyOp0
 70
     1
102
RTVSPropertyOp1
 70
     1
102
RTVSPropertyOp2
 70
     1
102
RTVSPropertyOp3
 70
     1
102
RTVSPropertyOp4
 70
     1
102
RTVSPropertyOp5
 70
     1
102
RTVSPropertyOp6
 70
     1
102
RTVSPropertyOp7
 70
     1
102
RTVSPropertyOp8
 70
     1
102
RTVSPropertyOp9
 70
     1
102
RTVSPropertyOp10
 70
     1
102
RTVSPropertyOp11
 70
     1
102
RTVSPropertyOp12
 70
     1
102
RTVSPropertyOp13
 70
     1
102
RTVSPropertyOp14
 70
     1
102
RTVSPropertyOp15
 70
     1
102
RTVSPropertyOp16
 70
     1
102
RTVSPropertyOp17
 70
     1
102
RTVSPropertyOp18
 70
     1
102
RTVSPropertyOp19
 70
     1
102
RTVSPropertyOp20
 70
     1
102
RTVSPropertyOp21
 70
     1
102
RTVSPropertyOp22
 70
     1
102
RTVSPropertyOp23
 70
     1
102
RTVSPropertyOp24
 70
     1
102
RTVSPropertyOp25
 70
     1
102
RTVSPropertyOp26
 70
     1
102
RTVSPropertyOp27
 70
     1
  0
XRECORD
  5
1CB9
102
{ACAD_REACTORS
330
1CB8
102
}
330
1CB8
100
AcDbXrecord
280
     1
102
RTVSPropertyOp28
 70
     1
102
RTVSPropertyOp29
 70
     1
102
RTVSPropertyOp30
 70
     1
102
RTVSPropertyOp31
 70
     1
102
RTVSPropertyOp32
 70
     1
102
RTVSPropertyOp0
 70
     1
102
RTVSPropertyOp1
 70
     1
102
RTVSPropertyOp2
 70
     1
102
RTVSPropertyOp3
 70
     1
102
RTVSPropertyOp4
 70
     1
102
RTVSPropertyOp5
 70
     1
102
RTVSPropertyOp6
 70
     1
102
RTVSPropertyOp7
 70
     1
102
RTVSPropertyOp8
 70
     1
102
RTVSPropertyOp9
 70
     1
102
RTVSPropertyOp10
 70
     1
102
RTVSPropertyOp11
 70
     1
102
RTVSPropertyOp12
 70
     1
102
RTVSPropertyOp13
 70
     1
102
RTVSPropertyOp14
 70
     1
102
RTVSPropertyOp15
 70
     1
102
RTVSPropertyOp16
 70
     1
102
RTVSPropertyOp17
 70
     1
102
RTVSPropertyOp18
 70
     1
102
RTVSPropertyOp19
 70
     1
102
RTVSPropertyOp20
 70
     1
102
RTVSPropertyOp21
 70
     1
102
RTVSPropertyOp22
 70
     1
102
RTVSPropertyOp23
 70
     1
102
RTVSPropertyOp24
 70
     1
102
RTVSPropertyOp25
 70
     1
102
RTVSPropertyOp26
 70
     1
102
RTVSPropertyOp27
 70
     1
  0
XRECORD
  5
1CC1
102
{ACAD_REACTORS
330
1CC0
102
}
330
1CC0
100
AcDbXrecord
280
     1
102
RTVSPropertyOp28
 70
     1
102
RTVSPropertyOp29
 70
     1
102
RTVSPropertyOp30
 70
     1
102
RTVSPropertyOp31
 70
     1
102
RTVSPropertyOp32
 70
     1
102
RTVSPropertyOp0
 70
     1
102
RTVSPropertyOp1
 70
     1
102
RTVSPropertyOp2
 70
     1
102
RTVSPropertyOp3
 70
     1
102
RTVSPropertyOp4
 70
     1
102
RTVSPropertyOp5
 70
     1
102
RTVSPropertyOp6
 70
     1
102
RTVSPropertyOp7
 70
     1
102
RTVSPropertyOp8
 70
     1
102
RTVSPropertyOp9
 70
     1
102
RTVSPropertyOp10
 70
     1
102
RTVSPropertyOp11
 70
     1
102
RTVSPropertyOp12
 70
     1
102
RTVSPropertyOp13
 70
     1
102
RTVSPropertyOp14
 70
     1
102
RTVSPropertyOp15
 70
     1
102
RTVSPropertyOp16
 70
     1
102
RTVSPropertyOp17
 70
     1
102
RTVSPropertyOp18
 70
     1
102
RTVSPropertyOp19
 70
     1
102
RTVSPropertyOp20
 70
     1
102
RTVSPropertyOp21
 70
     1
102
RTVSPropertyOp22
 70
     1
102
RTVSPropertyOp23
 70
     1
102
RTVSPropertyOp24
 70
     1
102
RTVSPropertyOp25
 70
     1
102
RTVSPropertyOp26
 70
     1
102
RTVSPropertyOp27
 70
     1
  0
XRECORD
  5
1CDD
102
{ACAD_REACTORS
330
1CDC
102
}
330
1CDC
100
AcDbXrecord
280
     1
102
RTVSPropertyOp28
 70
     1
102
RTVSPropertyOp29
 70
     1
102
RTVSPropertyOp30
 70
     1
102
RTVSPropertyOp31
 70
     1
102
RTVSPropertyOp32
 70
     1
102
RTVSPropertyOp0
 70
     0
102
RTVSPropertyOp1
 70
     0
102
RTVSPropertyOp2
 70
     0
102
RTVSPropertyOp3
 70
     0
102
RTVSPropertyOp4
 70
     0
102
RTVSPropertyOp5
 70
     0
102
RTVSPropertyOp6
 70
     0
102
RTVSPropertyOp7
 70
     0
102
RTVSPropertyOp8
 70
     0
102
RTVSPropertyOp9
 70
     0
102
RTVSPropertyOp10
 70
     0
102
RTVSPropertyOp11
 70
     0
102
RTVSPropertyOp12
 70
     0
102
RTVSPropertyOp13
 70
     0
102
RTVSPropertyOp14
 70
     2
102
RTVSPropertyOp15
 70
     0
102
RTVSPropertyOp16
 70
     0
102
RTVSPropertyOp17
 70
     0
102
RTVSPropertyOp18
 70
     0
102
RTVSPropertyOp19
 70
     0
102
RTVSPropertyOp20
 70
     0
102
RTVSPropertyOp21
 70
     0
102
RTVSPropertyOp22
 70
     0
102
RTVSPropertyOp23
 70
     0
102
RTVSPropertyOp24
 70
     0
102
RTVSPropertyOp25
 70
     0
102
RTVSPropertyOp26
 70
     0
102
RTVSPropertyOp27
 70
     0
  0
XRECORD
  5
1CCD
102
{ACAD_REACTORS
330
1CCC
102
}
330
1CCC
100
AcDbXrecord
280
     1
102
RTVSPropertyOp28
 70
     1
102
RTVSPropertyOp29
 70
     1
102
RTVSPropertyOp30
 70
     1
102
RTVSPropertyOp31
 70
     1
102
RTVSPropertyOp32
 70
     1
102
RTVSPropertyOp0
 70
     1
102
RTVSPropertyOp1
 70
     1
102
RTVSPropertyOp2
 70
     1
102
RTVSPropertyOp3
 70
     1
102
RTVSPropertyOp4
 70
     1
102
RTVSPropertyOp5
 70
     1
102
RTVSPropertyOp6
 70
     1
102
RTVSPropertyOp7
 70
     1
102
RTVSPropertyOp8
 70
     1
102
RTVSPropertyOp9
 70
     1
102
RTVSPropertyOp10
 70
     1
102
RTVSPropertyOp11
 70
     1
102
RTVSPropertyOp12
 70
     1
102
RTVSPropertyOp13
 70
     1
102
RTVSPropertyOp14
 70
     1
102
RTVSPropertyOp15
 70
     1
102
RTVSPropertyOp16
 70
     1
102
RTVSPropertyOp17
 70
     1
102
RTVSPropertyOp18
 70
     1
102
RTVSPropertyOp19
 70
     1
102
RTVSPropertyOp20
 70
     1
102
RTVSPropertyOp21
 70
     1
102
RTVSPropertyOp22
 70
     1
102
RTVSPropertyOp23
 70
     1
102
RTVSPropertyOp24
 70
     1
102
RTVSPropertyOp25
 70
     1
102
RTVSPropertyOp26
 70
     1
102
RTVSPropertyOp27
 70
     1
  0
XRECORD
  5
1CDF
102
{ACAD_REACTORS
330
1CDE
102
}
330
1CDE
100
AcDbXrecord
280
     1
102
RTVSPropertyOp28
 70
     1
102
RTVSPropertyOp29
 70
     1
102
RTVSPropertyOp30
 70
     1
102
RTVSPropertyOp31
 70
     1
102
RTVSPropertyOp32
 70
     1
102
RTVSPropertyOp0
 70
     0
102
RTVSPropertyOp1
 70
     0
102
RTVSPropertyOp2
 70
     0
102
RTVSPropertyOp3
 70
     0
102
RTVSPropertyOp4
 70
     0
102
RTVSPropertyOp5
 70
     0
102
RTVSPropertyOp6
 70
     0
102
RTVSPropertyOp7
 70
     0
102
RTVSPropertyOp8
 70
     0
102
RTVSPropertyOp9
 70
     0
102
RTVSPropertyOp10
 70
     0
102
RTVSPropertyOp11
 70
     0
102
RTVSPropertyOp12
 70
     0
102
RTVSPropertyOp13
 70
     0
102
RTVSPropertyOp14
 70
     2
102
RTVSPropertyOp15
 70
     0
102
RTVSPropertyOp16
 70
     0
102
RTVSPropertyOp17
 70
     0
102
RTVSPropertyOp18
 70
     0
102
RTVSPropertyOp19
 70
     0
102
RTVSPropertyOp20
 70
     0
102
RTVSPropertyOp21
 70
     0
102
RTVSPropertyOp22
 70
     0
102
RTVSPropertyOp23
 70
     0
102
RTVSPropertyOp24
 70
     0
102
RTVSPropertyOp25
 70
     0
102
RTVSPropertyOp26
 70
     0
102
RTVSPropertyOp27
 70
     0
  0
XRECORD
  5
1CC5
102
{ACAD_REACTORS
330
1CC4
102
}
330
1CC4
100
AcDbXrecord
280
     1
102
RTVSPropertyOp28
 70
     1
102
RTVSPropertyOp29
 70
     1
102
RTVSPropertyOp30
 70
     1
102
RTVSPropertyOp31
 70
     1
102
RTVSPropertyOp32
 70
     1
102
RTVSPropertyOp0
 70
     1
102
RTVSPropertyOp1
 70
     1
102
RTVSPropertyOp2
 70
     1
102
RTVSPropertyOp3
 70
     1
102
RTVSPropertyOp4
 70
     1
102
RTVSPropertyOp5
 70
     1
102
RTVSPropertyOp6
 70
     1
102
RTVSPropertyOp7
 70
     1
102
RTVSPropertyOp8
 70
     1
102
RTVSPropertyOp9
 70
     1
102
RTVSPropertyOp10
 70
     1
102
RTVSPropertyOp11
 70
     1
102
RTVSPropertyOp12
 70
     1
102
RTVSPropertyOp13
 70
     1
102
RTVSPropertyOp14
 70
     1
102
RTVSPropertyOp15
 70
     1
102
RTVSPropertyOp16
 70
     1
102
RTVSPropertyOp17
 70
     1
102
RTVSPropertyOp18
 70
     1
102
RTVSPropertyOp19
 70
     1
102
RTVSPropertyOp20
 70
     1
102
RTVSPropertyOp21
 70
     1
102
RTVSPropertyOp22
 70
     1
102
RTVSPropertyOp23
 70
     1
102
RTVSPropertyOp24
 70
     1
102
RTVSPropertyOp25
 70
     1
102
RTVSPropertyOp26
 70
     1
102
RTVSPropertyOp27
 70
     1
  0
XRECORD
  5
1CDB
102
{ACAD_REACTORS
330
1CDA
102
}
330
1CDA
100
AcDbXrecord
280
     1
102
RTVSPropertyOp28
 70
     1
102
RTVSPropertyOp29
 70
     1
102
RTVSPropertyOp30
 70
     1
102
RTVSPropertyOp31
 70
     1
102
RTVSPropertyOp32
 70
     1
102
RTVSPropertyOp0
 70
     1
102
RTVSPropertyOp1
 70
     1
102
RTVSPropertyOp2
 70
     1
102
RTVSPropertyOp3
 70
     1
102
RTVSPropertyOp4
 70
     1
102
RTVSPropertyOp5
 70
     1
102
RTVSPropertyOp6
 70
     1
102
RTVSPropertyOp7
 70
     1
102
RTVSPropertyOp8
 70
     1
102
RTVSPropertyOp9
 70
     1
102
RTVSPropertyOp10
 70
     1
102
RTVSPropertyOp11
 70
     1
102
RTVSPropertyOp12
 70
     1
102
RTVSPropertyOp13
 70
     1
102
RTVSPropertyOp14
 70
     1
102
RTVSPropertyOp15
 70
     1
102
RTVSPropertyOp16
 70
     1
102
RTVSPropertyOp17
 70
     1
102
RTVSPropertyOp18
 70
     1
102
RTVSPropertyOp19
 70
     1
102
RTVSPropertyOp20
 70
     1
102
RTVSPropertyOp21
 70
     1
102
RTVSPropertyOp22
 70
     1
102
RTVSPropertyOp23
 70
     1
102
RTVSPropertyOp24
 70
     1
102
RTVSPropertyOp25
 70
     1
102
RTVSPropertyOp26
 70
     1
102
RTVSPropertyOp27
 70
     1
  0
XRECORD
  5
1CD9
102
{ACAD_REACTORS
330
1CD8
102
}
330
1CD8
100
AcDbXrecord
280
     1
102
RTVSPropertyOp28
 70
     1
102
RTVSPropertyOp29
 70
     1
102
RTVSPropertyOp30
 70
     1
102
RTVSPropertyOp31
 70
     1
102
RTVSPropertyOp32
 70
     1
102
RTVSPropertyOp0
 70
     1
102
RTVSPropertyOp1
 70
     1
102
RTVSPropertyOp2
 70
     1
102
RTVSPropertyOp3
 70
     1
102
RTVSPropertyOp4
 70
     1
102
RTVSPropertyOp5
 70
     1
102
RTVSPropertyOp6
 70
     1
102
RTVSPropertyOp7
 70
     1
102
RTVSPropertyOp8
 70
     1
102
RTVSPropertyOp9
 70
     1
102
RTVSPropertyOp10
 70
     1
102
RTVSPropertyOp11
 70
     1
102
RTVSPropertyOp12
 70
     1
102
RTVSPropertyOp13
 70
     1
102
RTVSPropertyOp14
 70
     1
102
RTVSPropertyOp15
 70
     1
102
RTVSPropertyOp16
 70
     1
102
RTVSPropertyOp17
 70
     1
102
RTVSPropertyOp18
 70
     1
102
RTVSPropertyOp19
 70
     1
102
RTVSPropertyOp20
 70
     1
102
RTVSPropertyOp21
 70
     1
102
RTVSPropertyOp22
 70
     1
102
RTVSPropertyOp23
 70
     1
102
RTVSPropertyOp24
 70
     1
102
RTVSPropertyOp25
 70
     1
102
RTVSPropertyOp26
 70
     1
102
RTVSPropertyOp27
 70
     1
  0
XRECORD
  5
1CD3
102
{ACAD_REACTORS
330
1CD2
102
}
330
1CD2
100
AcDbXrecord
280
     1
102
RTVSPropertyOp28
 70
     1
102
RTVSPropertyOp29
 70
     1
102
RTVSPropertyOp30
 70
     1
102
RTVSPropertyOp31
 70
     1
102
RTVSPropertyOp32
 70
     1
102
RTVSPropertyOp0
 70
     1
102
RTVSPropertyOp1
 70
     1
102
RTVSPropertyOp2
 70
     1
102
RTVSPropertyOp3
 70
     1
102
RTVSPropertyOp4
 70
     1
102
RTVSPropertyOp5
 70
     1
102
RTVSPropertyOp6
 70
     1
102
RTVSPropertyOp7
 70
     1
102
RTVSPropertyOp8
 70
     1
102
RTVSPropertyOp9
 70
     1
102
RTVSPropertyOp10
 70
     1
102
RTVSPropertyOp11
 70
     1
102
RTVSPropertyOp12
 70
     1
102
RTVSPropertyOp13
 70
     1
102
RTVSPropertyOp14
 70
     1
102
RTVSPropertyOp15
 70
     1
102
RTVSPropertyOp16
 70
     1
102
RTVSPropertyOp17
 70
     1
102
RTVSPropertyOp18
 70
     1
102
RTVSPropertyOp19
 70
     1
102
RTVSPropertyOp20
 70
     1
102
RTVSPropertyOp21
 70
     1
102
RTVSPropertyOp22
 70
     1
102
RTVSPropertyOp23
 70
     1
102
RTVSPropertyOp24
 70
     1
102
RTVSPropertyOp25
 70
     1
102
RTVSPropertyOp26
 70
     1
102
RTVSPropertyOp27
 70
     1
  0
XRECORD
  5
1CD5
102
{ACAD_REACTORS
330
1CD4
102
}
330
1CD4
100
AcDbXrecord
280
     1
102
RTVSPropertyOp28
 70
     1
102
RTVSPropertyOp29
 70
     1
102
RTVSPropertyOp30
 70
     1
102
RTVSPropertyOp31
 70
     1
102
RTVSPropertyOp32
 70
     1
102
RTVSPropertyOp0
 70
     1
102
RTVSPropertyOp1
 70
     1
102
RTVSPropertyOp2
 70
     1
102
RTVSPropertyOp3
 70
     1
102
RTVSPropertyOp4
 70
     1
102
RTVSPropertyOp5
 70
     1
102
RTVSPropertyOp6
 70
     1
102
RTVSPropertyOp7
 70
     1
102
RTVSPropertyOp8
 70
     1
102
RTVSPropertyOp9
 70
     1
102
RTVSPropertyOp10
 70
     1
102
RTVSPropertyOp11
 70
     1
102
RTVSPropertyOp12
 70
     1
102
RTVSPropertyOp13
 70
     1
102
RTVSPropertyOp14
 70
     1
102
RTVSPropertyOp15
 70
     1
102
RTVSPropertyOp16
 70
     1
102
RTVSPropertyOp17
 70
     1
102
RTVSPropertyOp18
 70
     1
102
RTVSPropertyOp19
 70
     1
102
RTVSPropertyOp20
 70
     1
102
RTVSPropertyOp21
 70
     1
102
RTVSPropertyOp22
 70
     1
102
RTVSPropertyOp23
 70
     1
102
RTVSPropertyOp24
 70
     1
102
RTVSPropertyOp25
 70
     1
102
RTVSPropertyOp26
 70
     1
102
RTVSPropertyOp27
 70
     1
  0
XRECORD
  5
1CCB
102
{ACAD_REACTORS
330
1CCA
102
}
330
1CCA
100
AcDbXrecord
280
     1
102
RTVSPropertyOp28
 70
     1
102
RTVSPropertyOp29
 70
     1
102
RTVSPropertyOp30
 70
     1
102
RTVSPropertyOp31
 70
     1
102
RTVSPropertyOp32
 70
     1
102
RTVSPropertyOp0
 70
     1
102
RTVSPropertyOp1
 70
     1
102
RTVSPropertyOp2
 70
     1
102
RTVSPropertyOp3
 70
     1
102
RTVSPropertyOp4
 70
     1
102
RTVSPropertyOp5
 70
     1
102
RTVSPropertyOp6
 70
     1
102
RTVSPropertyOp7
 70
     1
102
RTVSPropertyOp8
 70
     1
102
RTVSPropertyOp9
 70
     1
102
RTVSPropertyOp10
 70
     1
102
RTVSPropertyOp11
 70
     1
102
RTVSPropertyOp12
 70
     1
102
RTVSPropertyOp13
 70
     1
102
RTVSPropertyOp14
 70
     1
102
RTVSPropertyOp15
 70
     1
102
RTVSPropertyOp16
 70
     1
102
RTVSPropertyOp17
 70
     1
102
RTVSPropertyOp18
 70
     1
102
RTVSPropertyOp19
 70
     1
102
RTVSPropertyOp20
 70
     1
102
RTVSPropertyOp21
 70
     1
102
RTVSPropertyOp22
 70
     1
102
RTVSPropertyOp23
 70
     1
102
RTVSPropertyOp24
 70
     1
102
RTVSPropertyOp25
 70
     1
102
RTVSPropertyOp26
 70
     1
102
RTVSPropertyOp27
 70
     1
  0
XRECORD
  5
1CBF
102
{ACAD_REACTORS
330
1CBE
102
}
330
1CBE
100
AcDbXrecord
280
     1
102
RTVSPropertyOp28
 70
     1
102
RTVSPropertyOp29
 70
     1
102
RTVSPropertyOp30
 70
     1
102
RTVSPropertyOp31
 70
     1
102
RTVSPropertyOp32
 70
     1
102
RTVSPropertyOp0
 70
     1
102
RTVSPropertyOp1
 70
     1
102
RTVSPropertyOp2
 70
     1
102
RTVSPropertyOp3
 70
     1
102
RTVSPropertyOp4
 70
     1
102
RTVSPropertyOp5
 70
     1
102
RTVSPropertyOp6
 70
     1
102
RTVSPropertyOp7
 70
     1
102
RTVSPropertyOp8
 70
     1
102
RTVSPropertyOp9
 70
     1
102
RTVSPropertyOp10
 70
     1
102
RTVSPropertyOp11
 70
     1
102
RTVSPropertyOp12
 70
     1
102
RTVSPropertyOp13
 70
     1
102
RTVSPropertyOp14
 70
     1
102
RTVSPropertyOp15
 70
     1
102
RTVSPropertyOp16
 70
     1
102
RTVSPropertyOp17
 70
     1
102
RTVSPropertyOp18
 70
     1
102
RTVSPropertyOp19
 70
     1
102
RTVSPropertyOp20
 70
     1
102
RTVSPropertyOp21
 70
     1
102
RTVSPropertyOp22
 70
     1
102
RTVSPropertyOp23
 70
     1
102
RTVSPropertyOp24
 70
     1
102
RTVSPropertyOp25
 70
     1
102
RTVSPropertyOp26
 70
     1
102
RTVSPropertyOp27
 70
     1
  0
XRECORD
  5
1CD7
102
{ACAD_REACTORS
330
1CD6
102
}
330
1CD6
100
AcDbXrecord
280
     1
102
RTVSPropertyOp28
 70
     1
102
RTVSPropertyOp29
 70
     1
102
RTVSPropertyOp30
 70
     1
102
RTVSPropertyOp31
 70
     1
102
RTVSPropertyOp32
 70
     1
102
RTVSPropertyOp0
 70
     1
102
RTVSPropertyOp1
 70
     1
102
RTVSPropertyOp2
 70
     1
102
RTVSPropertyOp3
 70
     1
102
RTVSPropertyOp4
 70
     1
102
RTVSPropertyOp5
 70
     1
102
RTVSPropertyOp6
 70
     1
102
RTVSPropertyOp7
 70
     1
102
RTVSPropertyOp8
 70
     1
102
RTVSPropertyOp9
 70
     1
102
RTVSPropertyOp10
 70
     1
102
RTVSPropertyOp11
 70
     1
102
RTVSPropertyOp12
 70
     1
102
RTVSPropertyOp13
 70
     1
102
RTVSPropertyOp14
 70
     1
102
RTVSPropertyOp15
 70
     1
102
RTVSPropertyOp16
 70
     1
102
RTVSPropertyOp17
 70
     1
102
RTVSPropertyOp18
 70
     1
102
RTVSPropertyOp19
 70
     1
102
RTVSPropertyOp20
 70
     1
102
RTVSPropertyOp21
 70
     1
102
RTVSPropertyOp22
 70
     1
102
RTVSPropertyOp23
 70
     1
102
RTVSPropertyOp24
 70
     1
102
RTVSPropertyOp25
 70
     1
102
RTVSPropertyOp26
 70
     1
102
RTVSPropertyOp27
 70
     1
  0
ENDSEC
  0
EOF
