  0
SECTION
  2
HEADER
  9
$ACADVER
  1
AC1015
  9
$ACADMAINTVER
 70
    14
  9
$DWGCODEPAGE
  3
ANSI_932
  9
$INSBASE
 10
0.0
 20
0.0
 30
0.0
  9
$EXTMIN
 10
342.9381132735747
 20
110.4926624111608
 30
-0.0000000000112498
  9
$EXTMAX
 10
1268.772269503867
 20
1081.86396072631
 30
0.0000000000002956
  9
$LIMMIN
 10
0.0
 20
0.0
  9
$LIMMAX
 10
12.0
 20
9.0
  9
$ORTHOMODE
 70
     0
  9
$REGENMODE
 70
     1
  9
$FILLMODE
 70
     1
  9
$QTEXTMODE
 70
     0
  9
$MIRRTEXT
 70
     1
  9
$LTSCALE
 40
1.0
  9
$ATTMODE
 70
     1
  9
$TEXTSIZE
 40
0.2
  9
$TRACEWID
 40
0.05
  9
$TEXTSTYLE
  7
STANDARD
  9
$CLAYER
  8
0
  9
$CELTYPE
  6
CONTINUOUS
  9
$CECOLOR
 62
   256
  9
$CELTSCALE
 40
1.0
  9
$DISPSILH
 70
     0
  9
$DIMSCALE
 40
1.0
  9
$DIMASZ
 40
1.0
  9
$DIMEXO
 40
2.54
  9
$DIMDLI
 40
0.38
  9
$DIMRND
 40
0.0
  9
$DIMDLE
 40
0.0
  9
$DIMEXE
 40
2.54
  9
$DIMTP
 40
0.0
  9
$DIMTM
 40
0.0
  9
$DIMTXT
 40
3.2
  9
$DIMCEN
 40
0.09
  9
$DIMTSZ
 40
0.0
  9
$DIMTOL
 70
     0
  9
$DIMLIM
 70
     0
  9
$DIMTIH
 70
     0
  9
$DIMTOH
 70
     0
  9
$DIMSE1
 70
     0
  9
$DIMSE2
 70
     0
  9
$DIMTAD
 70
     1
  9
$DIMZIN
 70
     0
  9
$DIMBLK
  1

  9
$DIMASO
 70
     1
  9
$DIMSHO
 70
     0
  9
$DIMPOST
  1

  9
$DIMAPOST
  1

  9
$DIMALT
 70
     0
  9
$DIMALTD
 70
     2
  9
$DIMALTF
 40
25.4
  9
$DIMLFAC
 40
1.0
  9
$DIMTOFL
 70
     0
  9
$DIMTVP
 40
1.0
  9
$DIMTIX
 70
     0
  9
$DIMSOXD
 70
     0
  9
$DIMSAH
 70
     1
  9
$DIMBLK1
  1

  9
$DIMBLK2
  1

  9
$DIMSTYLE
  2
STANDARD
  9
$DIMCLRD
 70
     0
  9
$DIMCLRE
 70
     0
  9
$DIMCLRT
 70
     0
  9
$DIMTFAC
 40
1.0
  9
$DIMGAP
 40
1.6
  9
$DIMJUST
 70
     0
  9
$DIMSD1
 70
     0
  9
$DIMSD2
 70
     0
  9
$DIMTOLJ
 70
     1
  9
$DIMTZIN
 70
     0
  9
$DIMALTZ
 70
     0
  9
$DIMALTTZ
 70
     0
  9
$DIMUPT
 70
     0
  9
$DIMDEC
 70
     4
  9
$DIMTDEC
 70
     4
  9
$DIMALTU
 70
     2
  9
$DIMALTTD
 70
     2
  9
$DIMTXSTY
  7
STANDARD
  9
$DIMAUNIT
 70
     0
  9
$DIMADEC
 70
     0
  9
$DIMALTRND
 40
0.0
  9
$DIMAZIN
 70
     0
  9
$DIMDSEP
 70
    46
  9
$DIMATFIT
 70
     3
  9
$DIMFRAC
 70
     0
  9
$DIMLDRBLK
  1

  9
$DIMLUNIT
 70
     2
  9
$DIMLWD
 70
    -2
  9
$DIMLWE
 70
    -2
  9
$DIMTMOVE
 70
     0
  9
$LUNITS
 70
     2
  9
$LUPREC
 70
     4
  9
$SKETCHINC
 40
0.1
  9
$FILLETRAD
 40
0.0
  9
$AUNITS
 70
     0
  9
$AUPREC
 70
     0
  9
$MENU
  1
.
  9
$ELEVATION
 40
0.0
  9
$PELEVATION
 40
0.0
  9
$THICKNESS
 40
0.0
  9
$LIMCHECK
 70
     0
  9
$CHAMFERA
 40
0.0
  9
$CHAMFERB
 40
0.0
  9
$CHAMFERC
 40
0.0
  9
$CHAMFERD
 40
0.0
  9
$SKPOLY
 70
     0
  9
$TDCREATE
 40
2452488.423138738
  9
$TDUCREATE
 40
2452488.048138738
  9
$TDUPDATE
 40
2456899.676799849
  9
$TDUUPDATE
 40
2456899.301799849
  9
$TDINDWG
 40
0.2889163773
  9
$TDUSRTIMER
 40
0.2889161921
  9
$USRTIMER
 70
     1
  9
$ANGBASE
 50
0.0
  9
$ANGDIR
 70
     0
  9
$PDMODE
 70
     3
  9
$PDSIZE
 40
0.0
  9
$PLINEWID
 40
0.0
  9
$SPLFRAME
 70
     0
  9
$SPLINETYPE
 70
     6
  9
$SPLINESEGS
 70
     8
  9
$HANDSEED
  5
2B8B
  9
$SURFTAB1
 70
     6
  9
$SURFTAB2
 70
     6
  9
$SURFTYPE
 70
     6
  9
$SURFU
 70
     6
  9
$SURFV
 70
     6
  9
$UCSBASE
  2

  9
$UCSNAME
  2

  9
$UCSORG
 10
0.0
 20
0.0
 30
0.0
  9
$UCSXDIR
 10
1.0
 20
0.0
 30
0.0
  9
$UCSYDIR
 10
0.0
 20
1.0
 30
0.0
  9
$UCSORTHOREF
  2

  9
$UCSORTHOVIEW
 70
     0
  9
$UCSORGTOP
 10
0.0
 20
0.0
 30
0.0
  9
$UCSORGBOTTOM
 10
0.0
 20
0.0
 30
0.0
  9
$UCSORGLEFT
 10
0.0
 20
0.0
 30
0.0
  9
$UCSORGRIGHT
 10
0.0
 20
0.0
 30
0.0
  9
$UCSORGFRONT
 10
0.0
 20
0.0
 30
0.0
  9
$UCSORGBACK
 10
0.0
 20
0.0
 30
0.0
  9
$PUCSBASE
  2

  9
$PUCSNAME
  2

  9
$PUCSORG
 10
0.0
 20
0.0
 30
0.0
  9
$PUCSXDIR
 10
1.0
 20
0.0
 30
0.0
  9
$PUCSYDIR
 10
0.0
 20
1.0
 30
0.0
  9
$PUCSORTHOREF
  2

  9
$PUCSORTHOVIEW
 70
     0
  9
$PUCSORGTOP
 10
0.0
 20
0.0
 30
0.0
  9
$PUCSORGBOTTOM
 10
0.0
 20
0.0
 30
0.0
  9
$PUCSORGLEFT
 10
0.0
 20
0.0
 30
0.0
  9
$PUCSORGRIGHT
 10
0.0
 20
0.0
 30
0.0
  9
$PUCSORGFRONT
 10
0.0
 20
0.0
 30
0.0
  9
$PUCSORGBACK
 10
0.0
 20
0.0
 30
0.0
  9
$USERI1
 70
     0
  9
$USERI2
 70
     0
  9
$USERI3
 70
     0
  9
$USERI4
 70
     0
  9
$USERI5
 70
     0
  9
$USERR1
 40
0.0
  9
$USERR2
 40
0.0
  9
$USERR3
 40
0.0
  9
$USERR4
 40
0.0
  9
$USERR5
 40
0.0
  9
$WORLDVIEW
 70
     1
  9
$SHADEDGE
 70
     3
  9
$SHADEDIF
 70
    70
  9
$TILEMODE
 70
     1
  9
$MAXACTVP
 70
    48
  9
$PINSBASE
 10
0.0
 20
0.0
 30
0.0
  9
$PLIMCHECK
 70
     0
  9
$PEXTMIN
 10
1.000000000000000E+20
 20
1.000000000000000E+20
 30
1.000000000000000E+20
  9
$PEXTMAX
 10
-1.000000000000000E+20
 20
-1.000000000000000E+20
 30
-1.000000000000000E+20
  9
$PLIMMIN
 10
0.0
 20
0.0
  9
$PLIMMAX
 10
12.0
 20
9.0
  9
$UNITMODE
 70
     0
  9
$VISRETAIN
 70
     1
  9
$PLINEGEN
 70
     0
  9
$PSLTSCALE
 70
     1
  9
$TREEDEPTH
 70
  3020
  9
$CMLSTYLE
  2
Standard
  9
$CMLJUST
 70
     0
  9
$CMLSCALE
 40
1.0
  9
$PROXYGRAPHICS
 70
     1
  9
$MEASUREMENT
 70
     0
  9
$CELWEIGHT
370
    -1
  9
$ENDCAPS
280
     0
  9
$JOINSTYLE
280
     0
  9
$LWDISPLAY
290
     0
  9
$INSUNITS
 70
     0
  9
$HYPERLINKBASE
  1

  9
$STYLESHEET
  1

  9
$XEDIT
290
     1
  9
$CEPSNTYPE
380
     0
  9
$PSTYLEMODE
290
     1
  9
$FINGERPRINTGUID
  2
{FFE95C04-33D2-4560-80D0-1E2918E4EC86}
  9
$VERSIONGUID
  2
{C8B8C457-78CD-49A0-B3E0-14CF7204D0BC}
  9
$EXTNAMES
290
     1
  9
$PSVPSCALE
 40
0.0
  9
$OLESTARTUP
290
     0
  0
ENDSEC
  0
SECTION
  2
CLASSES
  0
CLASS
  1
ACDBDICTIONARYWDFLT
  2
AcDbDictionaryWithDefault
  3
AutoCAD 2000
 90
        0
280
     0
281
     0
  0
CLASS
  1
ACDBPLACEHOLDER
  2
AcDbPlaceHolder
  3
AutoCAD 2000
 90
        0
280
     0
281
     0
  0
CLASS
  1
LAYOUT
  2
AcDbLayout
  3
AutoCAD 2000
 90
        0
280
     0
281
     0
  0
CLASS
  1
DICTIONARYVAR
  2
AcDbDictionaryVar
  3
AutoCAD 2000
 90
        0
280
     0
281
     0
  0
CLASS
  1
LONG_TRANSACTION
  2
AcDbLongTransaction
  3
AutoCAD 2000
 90
    32768
280
     0
281
     0
  0
CLASS
  1
LWPOLYLINE
  2
AcDbPolyline
  3
AutoCAD 2000
 90
    32768
280
     0
281
     1
  0
CLASS
  1
HATCH
  2
AcDbHatch
  3
AutoCAD 2000
 90
    32768
280
     0
281
     1
  0
CLASS
  1
XRECORD
  2
AcDbXrecord
  3
AutoCAD 2000
 90
    32768
280
     0
281
     0
  0
CLASS
  1
LONG_TRANSACTION
  2
AcDbLongTransaction
  3
AutoCAD 2000
 90
    32768
280
     0
281
     0
  0
CLASS
  1
LWPOLYLINE
  2
AcDbPolyline
  3
AutoCAD 2000
 90
    32768
280
     0
281
     1
  0
CLASS
  1
HATCH
  2
AcDbHatch
  3
AutoCAD 2000
 90
    32768
280
     0
281
     1
  0
CLASS
  1
XRECORD
  2
AcDbXrecord
  3
AutoCAD 2000
 90
    32768
280
     0
281
     0
  0
CLASS
  1
LONG_TRANSACTION
  2
AcDbLongTransaction
  3
AutoCAD 2000
 90
    32768
280
     0
281
     0
  0
CLASS
  1
LWPOLYLINE
  2
AcDbPolyline
  3
AutoCAD 2000
 90
    32768
280
     0
281
     1
  0
CLASS
  1
HATCH
  2
AcDbHatch
  3
AutoCAD 2000
 90
    32768
280
     0
281
     1
  0
CLASS
  1
XRECORD
  2
AcDbXrecord
  3
AutoCAD 2000
 90
    32768
280
     0
281
     0
  0
CLASS
  1
LONG_TRANSACTION
  2
AcDbLongTransaction
  3
AutoCAD 2000
 90
    32768
280
     0
281
     0
  0
CLASS
  1
LWPOLYLINE
  2
AcDbPolyline
  3
AutoCAD 2000
 90
    32768
280
     0
281
     1
  0
CLASS
  1
HATCH
  2
AcDbHatch
  3
AutoCAD 2000
 90
    32768
280
     0
281
     1
  0
CLASS
  1
XRECORD
  2
AcDbXrecord
  3
AutoCAD 2000
 90
    32768
280
     0
281
     0
  0
CLASS
  1
LONG_TRANSACTION
  2
AcDbLongTransaction
  3
AutoCAD 2000
 90
    32768
280
     0
281
     0
  0
CLASS
  1
LWPOLYLINE
  2
AcDbPolyline
  3
AutoCAD 2000
 90
    32768
280
     0
281
     1
  0
CLASS
  1
HATCH
  2
AcDbHatch
  3
AutoCAD 2000
 90
    32768
280
     0
281
     1
  0
CLASS
  1
XRECORD
  2
AcDbXrecord
  3
AutoCAD 2000
 90
    32768
280
     0
281
     0
  0
CLASS
  1
LONG_TRANSACTION
  2
AcDbLongTransaction
  3
AutoCAD 2000
 90
    32768
280
     0
281
     0
  0
CLASS
  1
LWPOLYLINE
  2
AcDbPolyline
  3
AutoCAD 2000
 90
    32768
280
     0
281
     1
  0
CLASS
  1
HATCH
  2
AcDbHatch
  3
AutoCAD 2000
 90
    32768
280
     0
281
     1
  0
CLASS
  1
XRECORD
  2
AcDbXrecord
  3
AutoCAD 2000
 90
    32768
280
     0
281
     0
  0
CLASS
  1
LONG_TRANSACTION
  2
AcDbLongTransaction
  3
AutoCAD 2000
 90
    32768
280
     0
281
     0
  0
CLASS
  1
LWPOLYLINE
  2
AcDbPolyline
  3
AutoCAD 2000
 90
    32768
280
     0
281
     1
  0
CLASS
  1
HATCH
  2
AcDbHatch
  3
AutoCAD 2000
 90
    32768
280
     0
281
     1
  0
CLASS
  1
XRECORD
  2
AcDbXrecord
  3
AutoCAD 2000
 90
    32768
280
     0
281
     0
  0
CLASS
  1
LONG_TRANSACTION
  2
AcDbLongTransaction
  3
AutoCAD 2000
 90
    32768
280
     0
281
     0
  0
CLASS
  1
LWPOLYLINE
  2
AcDbPolyline
  3
AutoCAD 2000
 90
    32768
280
     0
281
     1
  0
CLASS
  1
HATCH
  2
AcDbHatch
  3
AutoCAD 2000
 90
    32768
280
     0
281
     1
  0
CLASS
  1
XRECORD
  2
AcDbXrecord
  3
AutoCAD 2000
 90
    32768
280
     0
281
     0
  0
ENDSEC
  0
SECTION
  2
TABLES
  0
TABLE
  2
VPORT
  5
21B6
330
0
100
AcDbSymbolTable
 70
     2
  0
VPORT
  5
2B8A
330
21B6
100
AcDbSymbolTableRecord
100
AcDbViewportTableRecord
  2
*Active
 70
     0
 10
0.0
 20
0.0
 11
1.0
 21
1.0
 12
805.8551913887209
 22
596.1783115687357
 13
0.0
 23
0.0
 14
1.0
 24
1.0
 15
0.0
 25
0.0
 16
0.0
 26
0.0
 36
1.0
 17
0.0
 27
0.0
 37
0.0
 40
977.5387351298492
 41
1.592161016949152
 42
50.0
 43
0.0
 44
0.0
 50
0.0
 51
0.0
 71
     0
 72
   100
 73
     1
 74
     3
 75
     0
 76
     0
 77
     0
 78
     0
281
     0
 65
     1
110
0.0
120
0.0
130
0.0
111
1.0
121
0.0
131
0.0
112
0.0
122
1.0
132
0.0
 79
     0
146
0.0
  0
ENDTAB
  0
TABLE
  2
LTYPE
  5
21B3
330
0
100
AcDbSymbolTable
 70
     2
  0
LTYPE
  5
21C1
330
21B3
100
AcDbSymbolTableRecord
100
AcDbLinetypeTableRecord
  2
ByBlock
 70
     0
  3

 72
    65
 73
     0
 40
0.0
  0
LTYPE
  5
21C2
330
21B3
100
AcDbSymbolTableRecord
100
AcDbLinetypeTableRecord
  2
ByLayer
 70
     0
  3

 72
    65
 73
     0
 40
0.0
  0
LTYPE
  5
21C3
330
21B3
100
AcDbSymbolTableRecord
100
AcDbLinetypeTableRecord
  2
CONTINUOUS
 70
     0
  3
Solid line
 72
    65
 73
     0
 40
0.0
  0
LTYPE
  5
2B17
330
21B3
100
AcDbSymbolTableRecord
100
AcDbLinetypeTableRecord
  2
CENTER
 70
     0
  3
Center ____ _ ____ _ ____ _ ____ _ ____ _ ____
 72
    65
 73
     4
 40
12.0
 49
7.5
 74
     0
 49
-1.5
 74
     0
 49
1.5
 74
     0
 49
-1.5
 74
     0
  0
ENDTAB
  0
TABLE
  2
LAYER
  5
21B0
102
{ACAD_XDICTIONARY
360
2B70
102
}
330
0
100
AcDbSymbolTable
 70
     1
  0
LAYER
  5
21BE
330
21B0
100
AcDbSymbolTableRecord
100
AcDbLayerTableRecord
  2
0
 70
     0
 62
     7
  6
CONTINUOUS
370
    -3
390
21BD
  0
ENDTAB
  0
TABLE
  2
STYLE
  5
21B1
330
0
100
AcDbSymbolTable
 70
     1
  0
STYLE
  5
21BF
330
21B1
100
AcDbSymbolTableRecord
100
AcDbTextStyleTableRecord
  2
STANDARD
 70
     0
 40
0.0
 41
1.0
 50
0.0
 71
     0
 42
0.2
  3
txt
  4
BIGFONT
  0
ENDTAB
  0
TABLE
  2
VIEW
  5
21B4
330
0
100
AcDbSymbolTable
 70
     1
  0
VIEW
  5
21DE
330
21B4
100
AcDbSymbolTableRecord
100
AcDbViewTableRecord
  2
OLE1
 70
     0
 40
3692.141019219747
 10
1914.591370701856
 20
1272.206200738182
 41
4595.022665841169
 11
0.0
 21
0.0
 31
1.0
 12
0.0
 22
0.0
 32
0.0
 42
50.0
 43
0.0
 44
0.0
 50
0.0
 71
     0
281
     0
 72
     1
110
0.0
120
0.0
130
0.0
111
1.0
121
0.0
131
0.0
112
0.0
122
1.0
132
0.0
 79
     0
146
0.0
  0
ENDTAB
  0
TABLE
  2
UCS
  5
21B5
330
0
100
AcDbSymbolTable
 70
     0
  0
ENDTAB
  0
TABLE
  2
APPID
  5
21B7
330
0
100
AcDbSymbolTable
 70
     5
  0
APPID
  5
21C0
330
21B7
100
AcDbSymbolTableRecord
100
AcDbRegAppTableRecord
  2
ACAD
 70
     0
  0
APPID
  5
21DF
330
21B7
100
AcDbSymbolTableRecord
100
AcDbRegAppTableRecord
  2
MCAD_NO_VIS
 70
     0
  0
APPID
  5
21E0
330
21B7
100
AcDbSymbolTableRecord
100
AcDbRegAppTableRecord
  2
ACAD_TEMP_GRAPHIC
 70
     0
  0
APPID
  5
21E1
330
21B7
100
AcDbSymbolTableRecord
100
AcDbRegAppTableRecord
  2
ACATTRIBSERVICES
 70
     0
  0
APPID
  5
21E2
330
21B7
100
AcDbSymbolTableRecord
100
AcDbRegAppTableRecord
  2
CONTENTBLOCKICON
 70
     0
  0
ENDTAB
  0
TABLE
  2
DIMSTYLE
  5
21B8
330
0
100
AcDbSymbolTable
 70
     1
100
AcDbDimStyleTable
 71
     0
  0
DIMSTYLE
105
21E3
330
21B8
100
AcDbSymbolTableRecord
100
AcDbDimStyleTableRecord
  2
STANDARD
 70
     0
279
     2
340
21BF
  0
ENDTAB
  0
TABLE
  2
BLOCK_RECORD
  5
21AF
330
0
100
AcDbSymbolTable
 70
     0
  0
BLOCK_RECORD
  5
21CC
102
{ACAD_XDICTIONARY
360
21F8
102
}
330
21AF
100
AcDbSymbolTableRecord
100
AcDbBlockTableRecord
  2
*Model_Space
340
21CF
  0
BLOCK_RECORD
  5
21C8
102
{ACAD_XDICTIONARY
360
21FA
102
}
330
21AF
100
AcDbSymbolTableRecord
100
AcDbBlockTableRecord
  2
*Paper_Space
340
21CB
  0
ENDTAB
  0
ENDSEC
  0
SECTION
  2
BLOCKS
  0
BLOCK
  5
21CD
330
21CC
100
AcDbEntity
  8
0
100
AcDbBlockBegin
  2
*Model_Space
 70
     0
 10
0.0
 20
0.0
 30
0.0
  3
*Model_Space
  1

  0
ENDBLK
  5
21CE
330
21CC
100
AcDbEntity
  8
0
100
AcDbBlockEnd
  0
BLOCK
  5
21C9
330
21C8
100
AcDbEntity
 67
     1
  8
0
100
AcDbBlockBegin
  2
*Paper_Space
 70
     0
 10
0.0
 20
0.0
 30
0.0
  3
*Paper_Space
  1

  0
ENDBLK
  5
21CA
330
21C8
100
AcDbEntity
 67
     1
  8
0
100
AcDbBlockEnd
  0
ENDSEC
  0
SECTION
  2
ENTITIES
  0
TEXT
  5
F6E
330
21CC
100
AcDbEntity
  8
0
  6
Continuous
100
AcDbText
 10
343.0311048002422
 20
1033.846959546983
 30
0.0
 40
48.000002
  1
KUC2T13MA_00 1.5S
 41
1.32095
100
AcDbText
  0
ARC
  5
27D0
330
21CC
100
AcDbEntity
  8
0
100
AcDbCircle
 10
737.6078442412055
 20
223.748514976629
 30
0.0
 40
35.799999
100
AcDbArc
 50
141.3690399999954
 51
218.63095000001
  0
ARC
  5
27D1
330
21CC
100
AcDbEntity
  8
0
100
AcDbCircle
 10
757.6078442412055
 20
223.748514976629
 30
0.0
 40
35.799999
100
AcDbArc
 50
321.3690499999898
 51
38.63096000000455
  0
LINE
  5
27D2
330
21CC
100
AcDbEntity
  8
0
  6
Continuous
 62
     7
100
AcDbLine
 10
652.7144597412053
 20
242.7984589766291
 30
0.0
 11
652.7144597412053
 21
204.6984619766291
 31
0.0
  0
LINE
  5
27D3
330
21CC
100
AcDbEntity
  8
0
  6
Continuous
 62
     7
100
AcDbLine
 10
647.6078442412054
 20
198.498459976629
 30
0.0
 11
647.6078442412054
 21
248.9984599766291
 31
0.0
  0
LINE
  5
27D7
330
21CC
100
AcDbEntity
  8
0
100
AcDbLine
 10
800.1078442412055
 20
201.398460976629
 30
0.0
 11
695.1078442412055
 21
201.398460976629
 31
0.0
  0
LINE
  5
27D8
330
21CC
100
AcDbEntity
  8
0
100
AcDbLine
 10
800.1078442412055
 20
184.398460976629
 30
0.0
 11
695.1078442412055
 21
184.398460976629
 31
0.0
  0
LINE
  5
27DB
330
21CC
100
AcDbEntity
  8
0
  6
Continuous
 62
     7
100
AcDbLine
 10
652.7144597412053
 20
204.6984609766292
 30
0.0
 11
707.607810282636
 21
204.6984609766292
 31
0.0
  0
LINE
  5
27DC
330
21CC
100
AcDbEntity
  8
0
  6
Continuous
 62
     7
100
AcDbLine
 10
647.6078442412054
 20
198.498459976629
 30
0.0
 11
650.4578441412051
 21
198.498459976629
 31
0.0
  0
LINE
  5
27DD
330
21CC
100
AcDbEntity
  8
0
  6
Continuous
 62
     7
100
AcDbLine
 10
650.4578439412053
 20
198.498459976629
 30
0.0
 11
652.7144602412046
 21
204.6984619766291
 31
0.0
  0
LINE
  5
27DE
330
21CC
100
AcDbEntity
  8
0
100
AcDbLine
 10
695.1078442412055
 20
201.398460976629
 30
0.0
 11
695.1078442412055
 21
184.398460976629
 31
0.0
  0
LINE
  5
27E4
330
21CC
100
AcDbEntity
  8
0
  6
Continuous
 62
     7
100
AcDbLine
 10
728.5578447412055
 20
128.8550749766288
 30
0.0
 11
728.5578447412055
 21
183.7484255180595
 31
0.0
  0
LINE
  5
27E5
330
21CC
100
AcDbEntity
  8
0
  6
Continuous
 62
     7
100
AcDbLine
 10
766.6578427412054
 20
128.8550749766288
 30
0.0
 11
766.6578427412054
 21
183.7485006930571
 31
0.0
  0
LINE
  5
27E6
330
21CC
100
AcDbEntity
  8
0
100
AcDbLine
 10
800.1078442412055
 20
201.398460976629
 30
0.0
 11
800.1078442412055
 21
184.398460976629
 31
0.0
  0
LINE
  5
27EF
330
21CC
100
AcDbEntity
  8
0
  6
Continuous
 62
     7
100
AcDbLine
 10
766.6578427412054
 20
128.8550749766288
 30
0.0
 11
728.5578457412055
 21
128.8550749766288
 31
0.0
  0
LINE
  5
27F0
330
21CC
100
AcDbEntity
  8
0
  6
Continuous
 62
     7
100
AcDbLine
 10
722.3578437412054
 20
123.748459476629
 30
0.0
 11
772.8578437412053
 21
123.748459476629
 31
0.0
  0
LINE
  5
27F1
330
21CC
100
AcDbEntity
  8
0
  6
Continuous
 62
     7
100
AcDbLine
 10
722.3578437412054
 20
123.748459476629
 30
0.0
 11
722.3578437412054
 21
126.5984593766286
 31
0.0
  0
LINE
  5
27F2
330
21CC
100
AcDbEntity
  8
0
  6
Continuous
 62
     7
100
AcDbLine
 10
722.3578437412054
 20
126.5984591766289
 30
0.0
 11
728.5578457412055
 21
128.8550754766281
 31
0.0
  0
LINE
  5
27F3
330
21CC
100
AcDbEntity
  8
0
  6
Continuous
 62
     7
100
AcDbLine
 10
772.8578437412053
 20
123.748459476629
 30
0.0
 11
772.8578437412053
 21
126.5984593766286
 31
0.0
  0
LINE
  5
27F4
330
21CC
100
AcDbEntity
  8
0
  6
Continuous
 62
     7
100
AcDbLine
 10
772.8578437412053
 20
126.5984591766289
 30
0.0
 11
766.6578417412055
 21
128.8550754766281
 31
0.0
  0
LINE
  5
27F8
330
21CC
100
AcDbEntity
  8
0
100
AcDbLine
 10
709.6078492412052
 20
404.848405476629
 30
0.0
 11
785.6078492412052
 21
404.848405476629
 31
0.0
  0
LINE
  5
27F9
330
21CC
100
AcDbEntity
  8
0
100
AcDbLine
 10
709.6078492412052
 20
390.348405476629
 30
0.0
 11
785.6078492412052
 21
390.348405476629
 31
0.0
  0
LINE
  5
27FB
330
21CC
100
AcDbEntity
  8
0
100
AcDbLine
 10
800.1078442412055
 20
246.0984659766292
 30
0.0
 11
695.1078442412055
 21
246.0984659766292
 31
0.0
  0
LINE
  5
27FC
330
21CC
100
AcDbEntity
  8
0
100
AcDbLine
 10
800.1078442412055
 20
263.098464976629
 30
0.0
 11
695.1078442412055
 21
263.098464976629
 31
0.0
  0
LINE
  5
27FE
330
21CC
100
AcDbEntity
  8
0
  6
Continuous
 62
     7
100
AcDbLine
 10
652.7144597412053
 20
242.7984589766291
 30
0.0
 11
707.6078854576336
 21
242.7984589766291
 31
0.0
  0
LINE
  5
27FF
330
21CC
100
AcDbEntity
  8
0
  6
Continuous
 62
     7
100
AcDbLine
 10
647.6078442412054
 20
248.9984599766291
 30
0.0
 11
650.4578441412051
 21
248.9984599766291
 31
0.0
  0
LINE
  5
2800
330
21CC
100
AcDbEntity
  8
0
  6
Continuous
 62
     7
100
AcDbLine
 10
650.4578439412053
 20
248.9984599766291
 30
0.0
 11
652.7144602412046
 21
242.7984579766292
 31
0.0
  0
LINE
  5
2802
330
21CC
100
AcDbEntity
  8
0
100
AcDbLine
 10
695.1078442412055
 20
263.098464976629
 30
0.0
 11
695.1078442412055
 21
246.0984659766292
 31
0.0
  0
LINE
  5
2803
330
21CC
100
AcDbEntity
  8
0
100
AcDbLine
 10
709.6078492412052
 20
404.848405476629
 30
0.0
 11
709.6078492412052
 21
390.348405476629
 31
0.0
  0
LINE
  5
2804
330
21CC
100
AcDbEntity
  8
0
100
AcDbLine
 10
720.1078492412052
 20
410.5217752973308
 30
0.0
 11
720.1078492412052
 21
404.848405476629
 31
0.0
  0
LINE
  5
2806
330
21CC
100
AcDbEntity
  8
0
100
AcDbLine
 10
800.1078442412055
 20
263.098464976629
 30
0.0
 11
800.1078442412055
 21
246.0984659766292
 31
0.0
  0
LINE
  5
280F
330
21CC
100
AcDbEntity
  8
0
100
AcDbLine
 10
775.1078492412053
 20
410.5217752973308
 30
0.0
 11
775.1078492412053
 21
404.848405476629
 31
0.0
  0
LINE
  5
2810
330
21CC
100
AcDbEntity
  8
0
100
AcDbLine
 10
785.6078492412052
 20
404.848405476629
 30
0.0
 11
785.6078492412052
 21
390.348405476629
 31
0.0
  0
CIRCLE
  5
28ED
330
21CC
100
AcDbEntity
  8
0
100
AcDbCircle
 10
747.6078202412045
 20
914.4598879906922
 30
0.0
 40
9.999999
  0
CIRCLE
  5
28EE
330
21CC
100
AcDbEntity
  8
0
100
AcDbCircle
 10
747.6078202412045
 20
914.4598879906922
 30
0.0
 40
9.999999
  0
CIRCLE
  5
28EF
330
21CC
100
AcDbEntity
  8
0
100
AcDbCircle
 10
747.6078202412045
 20
914.4598879906922
 30
0.0
 40
13.5
  0
CIRCLE
  5
28F0
330
21CC
100
AcDbEntity
  8
0
100
AcDbCircle
 10
747.6078202412045
 20
914.4598879906922
 30
0.0
 40
13.5
  0
LINE
  5
28F3
330
21CC
100
AcDbEntity
  8
0
  6
Continuous
 62
     7
100
AcDbLine
 10
842.5012047412046
 20
933.5099419906923
 30
0.0
 11
812.6244176806054
 21
933.5099419906917
 31
0.0
  0
LINE
  5
28F4
330
21CC
100
AcDbEntity
  8
0
  6
Continuous
 62
     7
100
AcDbLine
 10
842.5012047412046
 20
895.409943990692
 30
0.0
 11
812.6244499108272
 21
895.4099439906922
 31
0.0
  0
LINE
  5
28F6
330
21CC
100
AcDbEntity
  8
0
  6
Continuous
 62
     7
100
AcDbLine
 10
844.7578205412044
 20
889.2099429906924
 30
0.0
 11
842.5012042412053
 21
895.4099449906925
 31
0.0
  0
LINE
  5
28F7
330
21CC
100
AcDbEntity
  8
0
  6
Continuous
 62
     7
100
AcDbLine
 10
847.6078202412043
 20
889.2099429906924
 30
0.0
 11
844.7578203412048
 21
889.2099429906924
 31
0.0
  0
LINE
  5
28F8
330
21CC
100
AcDbEntity
  8
0
  6
Continuous
 62
     7
100
AcDbLine
 10
844.7578205412044
 20
939.7099429906925
 30
0.0
 11
842.5012042412053
 21
933.5099409906923
 31
0.0
  0
LINE
  5
28F9
330
21CC
100
AcDbEntity
  8
0
  6
Continuous
 62
     7
100
AcDbLine
 10
847.6078202412043
 20
939.7099429906925
 30
0.0
 11
844.7578203412048
 21
939.7099429906925
 31
0.0
  0
LINE
  5
28FA
330
21CC
100
AcDbEntity
  8
0
  6
Continuous
 62
     7
100
AcDbLine
 10
847.6078202412043
 20
939.7099429906925
 30
0.0
 11
847.6078202412043
 21
889.2099429906924
 31
0.0
  0
LINE
  5
28FB
330
21CC
100
AcDbEntity
  8
0
  6
Continuous
 62
     7
100
AcDbLine
 10
842.5012047412046
 20
895.409943990692
 30
0.0
 11
842.5012047412046
 21
933.5099409906923
 31
0.0
  0
LINE
  5
29C3
330
21CC
100
AcDbEntity
  8
0
  6
Continuous
 62
     7
100
AcDbLine
 10
647.6078202412045
 20
889.2098329906923
 30
0.0
 11
647.6078202412045
 21
939.7098329906922
 31
0.0
  0
LINE
  5
29C4
330
21CC
100
AcDbEntity
  8
0
  6
Continuous
 62
     7
100
AcDbLine
 10
652.7144357412043
 20
933.5098319906926
 30
0.0
 11
652.7144357412043
 21
895.4098349906924
 31
0.0
  0
LINE
  5
29C5
330
21CC
100
AcDbEntity
  8
0
  6
Continuous
 62
     7
100
AcDbLine
 10
652.7144357412043
 20
895.4098339906925
 30
0.0
 11
682.5912228018037
 21
895.4098339906929
 31
0.0
  0
LINE
  5
29C6
330
21CC
100
AcDbEntity
  8
0
  6
Continuous
 62
     7
100
AcDbLine
 10
650.4578199412044
 20
889.2098329906923
 30
0.0
 11
652.7144362412037
 21
895.4098349906924
 31
0.0
  0
LINE
  5
29C7
330
21CC
100
AcDbEntity
  8
0
  6
Continuous
 62
     7
100
AcDbLine
 10
647.6078202412045
 20
889.2098329906923
 30
0.0
 11
650.4578201412041
 21
889.2098329906923
 31
0.0
  0
LINE
  5
29C8
330
21CC
100
AcDbEntity
  8
0
  6
Continuous
 62
     7
100
AcDbLine
 10
652.7144357412043
 20
933.5098319906926
 30
0.0
 11
682.5911905715818
 21
933.5098319906922
 31
0.0
  0
LINE
  5
29C9
330
21CC
100
AcDbEntity
  8
0
  6
Continuous
 62
     7
100
AcDbLine
 10
650.4578199412044
 20
939.7098329906922
 30
0.0
 11
652.7144362412037
 21
933.5098309906923
 31
0.0
  0
LINE
  5
29CA
330
21CC
100
AcDbEntity
  8
0
  6
Continuous
 62
     7
100
AcDbLine
 10
647.6078202412045
 20
939.7098329906922
 30
0.0
 11
650.4578201412041
 21
939.7098329906922
 31
0.0
  0
CIRCLE
  5
2A67
330
21CC
100
AcDbEntity
  8
0
100
AcDbCircle
 10
747.6078202412045
 20
914.4598879906922
 30
0.0
 40
54.0
  0
CIRCLE
  5
2A68
330
21CC
100
AcDbEntity
  8
0
100
AcDbCircle
 10
747.6078202412045
 20
914.4598879906922
 30
0.0
 40
67.75
  0
LINE
  5
2A6D
330
21CC
100
AcDbEntity
  8
0
100
AcDbLine
 10
679.8578532412052
 20
410.5217752973308
 30
0.0
 11
679.8578532412052
 21
612.5217902973308
 31
0.0
  0
LINE
  5
2A6E
330
21CC
100
AcDbEntity
  8
0
100
AcDbLine
 10
815.3578452412052
 20
410.5217752973308
 30
0.0
 11
815.3578452412052
 21
612.5217902973308
 31
0.0
  0
LINE
  5
2A6F
330
21CC
100
AcDbEntity
  8
0
100
AcDbLine
 10
815.3578452412052
 20
612.5217902973308
 30
0.0
 11
679.8578532412052
 21
612.5217902973308
 31
0.0
  0
LINE
  5
2A70
330
21CC
100
AcDbEntity
  8
0
100
AcDbLine
 10
737.6078562412044
 20
773.5217902973309
 30
0.0
 11
757.6078572412048
 21
773.5217902973309
 31
0.0
  0
LINE
  5
2A71
330
21CC
100
AcDbEntity
  8
0
100
AcDbLine
 10
761.107855241205
 20
734.2308702973309
 30
0.0
 11
734.1078552412049
 21
734.2308702973309
 31
0.0
  0
LINE
  5
2A72
330
21CC
100
AcDbEntity
  8
0
100
AcDbLine
 10
761.107855241205
 20
740.5217902973308
 30
0.0
 11
734.1078552412049
 21
740.5217902973308
 31
0.0
  0
LINE
  5
2A73
330
21CC
100
AcDbEntity
  8
0
100
AcDbLine
 10
790.1078512412046
 20
612.5217902973308
 30
0.0
 11
705.107855241205
 21
612.5217902973308
 31
0.0
  0
LINE
  5
2A74
330
21CC
100
AcDbEntity
  8
0
100
AcDbLine
 10
698.1927402412052
 20
731.088710297331
 30
0.0
 11
693.607855241205
 21
665.5217912973308
 31
0.0
  0
LINE
  5
2A75
330
21CC
100
AcDbEntity
  8
0
100
AcDbLine
 10
693.6078542412055
 20
632.4403912973307
 30
0.0
 11
705.1078612412052
 21
612.5217936798945
 31
0.0
  0
LINE
  5
2A76
330
21CC
100
AcDbEntity
  8
0
100
AcDbLine
 10
693.607855241205
 20
665.5217902973308
 30
0.0
 11
693.607855241205
 21
632.4403902973308
 31
0.0
  0
LINE
  5
2A77
330
21CC
100
AcDbEntity
  8
0
100
AcDbLine
 10
734.1078552412049
 20
734.2308702973309
 30
0.0
 11
698.1927412412046
 21
731.0887002973308
 31
0.0
  0
LINE
  5
2A78
330
21CC
100
AcDbEntity
  8
0
100
AcDbLine
 10
737.6078562412044
 20
740.5217902973308
 30
0.0
 11
737.6078562412044
 21
773.5217902973309
 31
0.0
  0
LINE
  5
2A79
330
21CC
100
AcDbEntity
  8
0
100
AcDbLine
 10
734.1078552412049
 20
739.5217802973307
 30
0.0
 11
734.1078552412049
 21
738.6594002973311
 31
0.0
  0
LINE
  5
2A7A
330
21CC
100
AcDbEntity
  8
0
100
AcDbLine
 10
734.1078552412049
 20
740.5217902973308
 30
0.0
 11
734.1078552412049
 21
734.2308702973309
 31
0.0
  0
LINE
  5
2A7B
330
21CC
100
AcDbEntity
  8
0
100
AcDbLine
 10
797.0229702412048
 20
731.088710297331
 30
0.0
 11
801.607855241205
 21
665.5217912973308
 31
0.0
  0
LINE
  5
2A7C
330
21CC
100
AcDbEntity
  8
0
100
AcDbLine
 10
801.6078562412044
 20
632.4403912973307
 30
0.0
 11
790.1078502412051
 21
612.5217953317068
 31
0.0
  0
LINE
  5
2A7D
330
21CC
100
AcDbEntity
  8
0
100
AcDbLine
 10
801.607855241205
 20
665.5217902973308
 30
0.0
 11
801.607855241205
 21
632.4403902973308
 31
0.0
  0
LINE
  5
2A7E
330
21CC
100
AcDbEntity
  8
0
100
AcDbLine
 10
761.107855241205
 20
734.2308702973309
 30
0.0
 11
797.0229692412053
 21
731.0887002973308
 31
0.0
  0
LINE
  5
2A7F
330
21CC
100
AcDbEntity
  8
0
100
AcDbLine
 10
757.6078572412048
 20
740.5217902973308
 30
0.0
 11
757.6078572412048
 21
773.5217902973309
 31
0.0
  0
LINE
  5
2A80
330
21CC
100
AcDbEntity
  8
0
100
AcDbLine
 10
761.107855241205
 20
739.5217902973309
 30
0.0
 11
761.107855241205
 21
738.6594102973308
 31
0.0
  0
LINE
  5
2A81
330
21CC
100
AcDbEntity
  8
0
100
AcDbLine
 10
761.107855241205
 20
740.5217902973308
 30
0.0
 11
761.107855241205
 21
734.2308702973309
 31
0.0
  0
LINE
  5
2A82
330
21CC
100
AcDbEntity
  8
0
100
AcDbLine
 10
679.8578532412052
 20
410.5217752973308
 30
0.0
 11
815.3578452412052
 21
410.5217752973308
 31
0.0
  0
LINE
  5
2AC4
330
21CC
100
AcDbEntity
  8
0
  6
Continuous
 62
     7
100
AcDbLine
 10
766.6578427412054
 20
128.8550749766288
 30
0.0
 11
728.5578457412055
 21
128.8550749766288
 31
0.0
  0
LINE
  5
2AC5
330
21CC
100
AcDbEntity
  8
0
  6
Continuous
 62
     7
100
AcDbLine
 10
722.3578437412054
 20
123.748459476629
 30
0.0
 11
772.8578437412053
 21
123.748459476629
 31
0.0
  0
LINE
  5
2AC6
330
21CC
100
AcDbEntity
  8
0
  6
Continuous
 62
     7
100
AcDbLine
 10
728.5578447412055
 20
128.8550749766288
 30
0.0
 11
728.5578447412055
 21
183.7484255180595
 31
0.0
  0
LINE
  5
2AC7
330
21CC
100
AcDbEntity
  8
0
  6
Continuous
 62
     7
100
AcDbLine
 10
722.3578437412054
 20
123.748459476629
 30
0.0
 11
722.3578437412054
 21
126.5984593766286
 31
0.0
  0
LINE
  5
2AC8
330
21CC
100
AcDbEntity
  8
0
  6
Continuous
 62
     7
100
AcDbLine
 10
722.3578437412054
 20
126.5984591766289
 30
0.0
 11
728.5578457412055
 21
128.8550754766281
 31
0.0
  0
LINE
  5
2AC9
330
21CC
100
AcDbEntity
  8
0
  6
Continuous
 62
     7
100
AcDbLine
 10
766.6578427412054
 20
128.8550749766288
 30
0.0
 11
766.6578427412054
 21
183.7485006930571
 31
0.0
  0
LINE
  5
2ACA
330
21CC
100
AcDbEntity
  8
0
  6
Continuous
 62
     7
100
AcDbLine
 10
772.8578437412053
 20
123.748459476629
 30
0.0
 11
772.8578437412053
 21
126.5984593766286
 31
0.0
  0
LINE
  5
2ACB
330
21CC
100
AcDbEntity
  8
0
  6
Continuous
 62
     7
100
AcDbLine
 10
772.8578437412053
 20
126.5984591766289
 30
0.0
 11
766.6578417412055
 21
128.8550754766281
 31
0.0
  0
LINE
  5
2ACE
330
21CC
100
AcDbEntity
  8
0
  6
Continuous
 62
     7
100
AcDbLine
 10
847.6078442412054
 20
198.4984589766289
 30
0.0
 11
847.6078442412054
 21
248.9984589766289
 31
0.0
  0
LINE
  5
2ACF
330
21CC
100
AcDbEntity
  8
0
  6
Continuous
 62
     7
100
AcDbLine
 10
842.5012287412055
 20
242.798457976629
 30
0.0
 11
842.5012287412055
 21
204.698460976629
 31
0.0
  0
LINE
  5
2AD0
330
21CC
100
AcDbEntity
  8
0
  6
Continuous
 62
     7
100
AcDbLine
 10
842.5012287412055
 20
242.798457976629
 30
0.0
 11
842.5012287412055
 21
204.698460976629
 31
0.0
  0
LINE
  5
2AD1
330
21CC
100
AcDbEntity
  8
0
  6
Continuous
 62
     7
100
AcDbLine
 10
847.6078442412054
 20
198.4984589766289
 30
0.0
 11
847.6078442412054
 21
248.9984589766289
 31
0.0
  0
LINE
  5
2AD2
330
21CC
100
AcDbEntity
  8
0
  6
Continuous
 62
     7
100
AcDbLine
 10
842.5012287412055
 20
204.6984599766291
 30
0.0
 11
787.6078781997749
 21
204.6984599766291
 31
0.0
  0
LINE
  5
2AD3
330
21CC
100
AcDbEntity
  8
0
  6
Continuous
 62
     7
100
AcDbLine
 10
842.5012287412055
 20
204.6984599766291
 30
0.0
 11
787.6078781997749
 21
204.6984599766291
 31
0.0
  0
LINE
  5
2AD4
330
21CC
100
AcDbEntity
  8
0
  6
Continuous
 62
     7
100
AcDbLine
 10
844.7578445412055
 20
198.4984589766289
 30
0.0
 11
842.5012282412064
 21
204.698460976629
 31
0.0
  0
LINE
  5
2AD5
330
21CC
100
AcDbEntity
  8
0
  6
Continuous
 62
     7
100
AcDbLine
 10
847.6078442412054
 20
198.4984589766289
 30
0.0
 11
844.7578443412059
 21
198.4984589766289
 31
0.0
  0
LINE
  5
2AD6
330
21CC
100
AcDbEntity
  8
0
  6
Continuous
 62
     7
100
AcDbLine
 10
847.6078442412054
 20
198.4984589766289
 30
0.0
 11
844.7578443412059
 21
198.4984589766289
 31
0.0
  0
LINE
  5
2AD7
330
21CC
100
AcDbEntity
  8
0
  6
Continuous
 62
     7
100
AcDbLine
 10
844.7578445412055
 20
198.4984589766289
 30
0.0
 11
842.5012282412064
 21
204.698460976629
 31
0.0
  0
LINE
  5
2AD8
330
21CC
100
AcDbEntity
  8
0
  6
Continuous
 62
     7
100
AcDbLine
 10
842.5012287412055
 20
242.798457976629
 30
0.0
 11
787.6078030247773
 21
242.798457976629
 31
0.0
  0
LINE
  5
2AD9
330
21CC
100
AcDbEntity
  8
0
  6
Continuous
 62
     7
100
AcDbLine
 10
842.5012287412055
 20
242.798457976629
 30
0.0
 11
787.6078030247773
 21
242.798457976629
 31
0.0
  0
LINE
  5
2ADA
330
21CC
100
AcDbEntity
  8
0
  6
Continuous
 62
     7
100
AcDbLine
 10
844.7578445412055
 20
248.9984589766289
 30
0.0
 11
842.5012282412064
 21
242.7984569766291
 31
0.0
  0
LINE
  5
2ADB
330
21CC
100
AcDbEntity
  8
0
  6
Continuous
 62
     7
100
AcDbLine
 10
847.6078442412054
 20
248.9984589766289
 30
0.0
 11
844.7578443412059
 21
248.9984589766289
 31
0.0
  0
LINE
  5
2ADC
330
21CC
100
AcDbEntity
  8
0
  6
Continuous
 62
     7
100
AcDbLine
 10
847.6078442412054
 20
248.9984589766289
 30
0.0
 11
844.7578443412059
 21
248.9984589766289
 31
0.0
  0
LINE
  5
2ADD
330
21CC
100
AcDbEntity
  8
0
  6
Continuous
 62
     7
100
AcDbLine
 10
844.7578445412055
 20
248.9984589766289
 30
0.0
 11
842.5012282412064
 21
242.7984569766291
 31
0.0
  0
LINE
  5
2B2D
330
21CC
100
AcDbEntity
  8
0
  6
Continuous
 62
     7
100
AcDbLine
 10
678.6078492412052
 20
331.348405476629
 30
0.0
 11
678.6078492412052
 21
280.848405476629
 31
0.0
  0
LINE
  5
2B2E
330
21CC
100
AcDbEntity
  8
0
  6
Continuous
 62
     7
100
AcDbLine
 10
681.4578627445539
 20
331.348405476629
 30
0.0
 11
686.0256891225335
 21
318.7983954766291
 31
0.0
  0
LINE
  5
2B2F
330
21CC
100
AcDbEntity
  8
0
  6
Continuous
 62
     7
100
AcDbLine
 10
718.1078492412052
 20
263.098464976629
 30
0.0
 11
718.1078492412052
 21
390.348405476629
 31
0.0
  0
LINE
  5
2B30
330
21CC
100
AcDbEntity
  8
0
  6
Continuous
 62
     7
100
AcDbLine
 10
678.6078492412052
 20
280.848405476629
 30
0.0
 11
681.4578663842532
 21
280.848405476629
 31
0.0
  0
LINE
  5
2B31
330
21CC
100
AcDbEntity
  8
0
  6
Continuous
 62
     7
100
AcDbLine
 10
686.0256891225335
 20
318.7983954766291
 30
0.0
 11
718.1078492412052
 21
318.7983954766289
 31
0.0
  0
LINE
  5
2B32
330
21CC
100
AcDbEntity
  8
0
  6
Continuous
 62
     7
100
AcDbLine
 10
686.0256891225335
 20
293.398405476629
 30
0.0
 11
718.1078492412052
 21
293.398405476629
 31
0.0
  0
LINE
  5
2B33
330
21CC
100
AcDbEntity
  8
0
  6
Continuous
 62
     7
100
AcDbLine
 10
681.4578663842532
 20
280.848405476629
 30
0.0
 11
686.0256891225335
 21
293.398405476629
 31
0.0
  0
LINE
  5
2B34
330
21CC
100
AcDbEntity
  8
0
  6
Continuous
 62
     7
100
AcDbLine
 10
678.6078492412052
 20
331.348405476629
 30
0.0
 11
681.4578627445539
 21
331.348405476629
 31
0.0
  0
LINE
  5
2B35
330
21CC
100
AcDbEntity
  8
0
  6
Continuous
 62
     7
100
AcDbLine
 10
777.1078392412055
 20
263.098464976629
 30
0.0
 11
777.1078392412053
 21
390.348405476629
 31
0.0
  0
LINE
  5
2B36
330
21CC
100
AcDbEntity
  8
0
  6
Continuous
100
AcDbLine
 10
686.0256891225335
 20
318.7983954766291
 30
0.0
 11
686.0256891225335
 21
293.398405476629
 31
0.0
  0
LINE
  5
2B7A
330
21CC
100
AcDbEntity
  8
0
  6
CENTER
100
AcDbLine
 10
747.6078202412045
 20
842.599305928579
 30
0.0
 11
747.6078202412045
 21
986.3204700528056
 31
0.0
  0
LINE
  5
2B7B
330
21CC
100
AcDbEntity
  8
0
  6
CENTER
100
AcDbLine
 10
635.9633427052674
 20
914.4598879906922
 30
0.0
 11
859.2522977771418
 21
914.4598879906922
 31
0.0
  0
LINE
  5
2B7C
330
21CC
100
AcDbEntity
  8
0
  6
CENTER
100
AcDbLine
 10
747.6078167412046
 20
110.5529303358304
 30
0.0
 11
747.6078167412047
 21
797.1997975585818
 31
0.0
  0
LINE
  5
2B7D
330
21CC
100
AcDbEntity
  8
0
  6
CENTER
100
AcDbLine
 10
627.0515779031905
 20
223.748459976629
 30
0.0
 11
868.1640555792187
 21
223.748459976629
 31
0.0
  0
LINE
  5
2B7F
330
21CC
100
AcDbEntity
  8
0
  6
CENTER
100
AcDbLine
 10
658.0515829031902
 20
306.098405476629
 30
0.0
 11
747.6078167412046
 21
306.098405476629
 31
0.0
  0
ENDSEC
  0
SECTION
  2
OBJECTS
  0
DICTIONARY
  5
21BA
330
0
100
AcDbDictionary
281
     1
  3
ACAD_GROUP
350
21BB
  3
ACAD_LAYOUT
350
21C7
  3
ACAD_MLINESTYLE
350
21C4
  3
ACAD_PLOTSETTINGS
350
21C6
  3
ACAD_PLOTSTYLENAME
350
21BC
  3
AcDbVariableDictionary
350
2238
  3
DWGPROPS
350
2A05
  0
DICTIONARY
  5
2B70
330
21B0
100
AcDbDictionary
280
     1
281
     1
  3
ACAD_LAYERSTATES
360
2B71
  0
DICTIONARY
  5
21F8
330
21CC
100
AcDbDictionary
280
     1
281
     1
  3
ACAD_LAYOUTSELFREF
360
2B67
  0
DICTIONARY
  5
21FA
330
21C8
100
AcDbDictionary
280
     1
281
     1
  3
ACAD_LAYOUTSELFREF
360
2B66
  0
DICTIONARY
  5
21BB
102
{ACAD_REACTORS
330
21BA
102
}
330
21BA
100
AcDbDictionary
281
     1
  0
DICTIONARY
  5
21C7
102
{ACAD_REACTORS
330
21BA
102
}
330
21BA
100
AcDbDictionary
281
     1
  3
Model
350
21CF
  3
ﾚｲｱｳﾄ1
350
21CB
  0
DICTIONARY
  5
21C4
102
{ACAD_REACTORS
330
21BA
102
}
330
21BA
100
AcDbDictionary
281
     1
  3
Standard
350
21C5
  0
DICTIONARY
  5
21C6
102
{ACAD_REACTORS
330
21BA
102
}
330
21BA
100
AcDbDictionary
281
     1
  0
ACDBDICTIONARYWDFLT
  5
21BC
102
{ACAD_REACTORS
330
21BA
102
}
330
21BA
100
AcDbDictionary
281
     1
  3
Normal
350
21BD
100
AcDbDictionaryWithDefault
340
21BD
  0
DICTIONARY
  5
2238
102
{ACAD_REACTORS
330
21BA
102
}
330
21BA
100
AcDbDictionary
281
     1
  3
DIMASSOC
350
2239
  0
XRECORD
  5
2A05
102
{ACAD_REACTORS
330
21BA
102
}
330
21BA
100
AcDbXrecord
280
     1
  1
DWGPROPS COOKIE
  2

  3

  4

  6

  7

  8
mg
  9

300
=
301
=
302
=
303
=
304
=
305
=
306
=
307
=
308
=
309
=
 40
0.282609224537037
 41
2452488.423138738
 42
2452754.728097511
  1

 90
        0
  0
DICTIONARY
  5
2B71
102
{ACAD_REACTORS
330
2B70
102
}
330
2B70
100
AcDbDictionary
281
     1
  0
XRECORD
  5
2B67
102
{ACAD_REACTORS
330
21F8
102
}
330
21F8
100
AcDbXrecord
280
     1
340
21CC
  0
XRECORD
  5
2B66
102
{ACAD_REACTORS
330
21FA
102
}
330
21FA
100
AcDbXrecord
280
     1
340
21C8
  0
LAYOUT
  5
21CF
102
{ACAD_REACTORS
330
21C7
102
}
330
21C7
100
AcDbPlotSettings
  1

  2
SII LP-2150 (D-SCAN C2)
  4

  6

 40
0.0
 41
0.0
 42
0.0
 43
0.0
 44
0.0
 45
0.0
 46
0.0
 47
0.0
 48
0.0
 49
0.0
140
0.0
141
0.0
142
1.0
143
1.0
 70
  1712
 72
     0
 73
     0
 74
     0
  7

 75
     0
147
1.0
148
0.0
149
0.0
100
AcDbLayout
  1
Model
 70
     1
 71
     0
 10
0.0
 20
0.0
 11
12.0
 21
9.0
 12
0.0
 22
0.0
 32
0.0
 14
0.0
 24
0.0
 34
0.0
 15
0.0
 25
0.0
 35
0.0
146
0.0
 13
0.0
 23
0.0
 33
0.0
 16
1.0
 26
0.0
 36
0.0
 17
0.0
 27
1.0
 37
0.0
 76
     0
330
21CC
  0
LAYOUT
  5
21CB
102
{ACAD_REACTORS
330
21C7
102
}
330
21C7
100
AcDbPlotSettings
  1

  2
SII LP-2150 (D-SCAN C2)
  4

  6

 40
0.0
 41
0.0
 42
0.0
 43
0.0
 44
0.0
 45
0.0
 46
0.0
 47
0.0
 48
0.0
 49
0.0
140
0.0
141
0.0
142
1.0
143
1.0
 70
   688
 72
     0
 73
     0
 74
     5
  7

 75
    16
147
1.0
148
0.0
149
0.0
100
AcDbLayout
  1
ﾚｲｱｳﾄ1
 70
     1
 71
     1
 10
0.0
 20
0.0
 11
12.0
 21
9.0
 12
0.0
 22
0.0
 32
0.0
 14
1.000000000000000E+20
 24
1.000000000000000E+20
 34
1.000000000000000E+20
 15
-1.000000000000000E+20
 25
-1.000000000000000E+20
 35
-1.000000000000000E+20
146
0.0
 13
0.0
 23
0.0
 33
0.0
 16
1.0
 26
0.0
 36
0.0
 17
0.0
 27
1.0
 37
0.0
 76
     0
330
21C8
  0
MLINESTYLE
  5
21C5
102
{ACAD_REACTORS
330
21C4
102
}
330
21C4
100
AcDbMlineStyle
  2
STANDARD
 70
     0
  3

 62
   256
 51
90.0
 52
90.0
 71
     2
 49
0.5
 62
   256
  6
BYLAYER
 49
-0.5
 62
   256
  6
BYLAYER
  0
ACDBPLACEHOLDER
  5
21BD
102
{ACAD_REACTORS
330
21BC
102
}
330
21BC
  0
DICTIONARYVAR
  5
2239
102
{ACAD_REACTORS
330
2238
102
}
330
2238
100
DictionaryVariables
280
     0
  1
1
  0
ENDSEC
  0
EOF
