  0
SECTION
  2
HEADER
  9
$ACADVER
  1
AC1009
  9
$INSBASE
 10
0.0
 20
0.0
 30
0.0
  9
$EXTMIN
 10
-354.1666666666665719
 20
-637.7352732935169115
 30
0.0
  9
$EXTMAX
 10
354.1666666666665719
 20
225.0
 30
0.0
  9
$LIMMIN
 10
0.0
 20
0.0
  9
$LIMMAX
 10
420.0
 20
297.0
  9
$ORTHOMODE
 70
     0
  9
$REGENMODE
 70
     1
  9
$FILLMODE
 70
     1
  9
$QTEXTMODE
 70
     0
  9
$MIRRTEXT
 70
     0
  9
$DRAGMODE
 70
     2
  9
$LTSCALE
 40
1.0
  9
$OSMODE
 70
  2751
  9
$ATTMODE
 70
     1
  9
$TEXTSIZE
 40
2.5
  9
$TRACEWID
 40
1.0
  9
$TEXTSTYLE
  7
STANDARD
  9
$CLAYER
  8
0
  9
$CELTYPE
  6
BYLAYER
  9
$CECOLOR
 62
     7
  9
$DIMSCALE
 40
1.0
  9
$DIMASZ
 40
0.18
  9
$DIMEXO
 40
0.0625
  9
$DIMDLI
 40
0.38
  9
$DIMRND
 40
0.0
  9
$DIMDLE
 40
0.0
  9
$DIMEXE
 40
0.18
  9
$DIMTP
 40
0.0
  9
$DIMTM
 40
0.0
  9
$DIMTXT
 40
0.18
  9
$DIMCEN
 40
0.09
  9
$DIMTSZ
 40
0.0
  9
$DIMTOL
 70
     0
  9
$DIMLIM
 70
     0
  9
$DIMTIH
 70
     1
  9
$DIMTOH
 70
     1
  9
$DIMSE1
 70
     0
  9
$DIMSE2
 70
     0
  9
$DIMTAD
 70
     0
  9
$DIMZIN
 70
     0
  9
$DIMBLK
  1

  9
$DIMASO
 70
     1
  9
$DIMSHO
 70
     1
  9
$DIMPOST
  1

  9
$DIMAPOST
  1

  9
$DIMALT
 70
     0
  9
$DIMALTD
 70
     2
  9
$DIMALTF
 40
25.3999999999999986
  9
$DIMLFAC
 40
1.0
  9
$DIMTOFL
 70
     0
  9
$DIMTVP
 40
0.0
  9
$DIMTIX
 70
     0
  9
$DIMSOXD
 70
     0
  9
$DIMSAH
 70
     0
  9
$DIMBLK1
  1

  9
$DIMBLK2
  1

  9
$DIMSTYLE
  2
STANDARD
  9
$DIMCLRD
 70
     0
  9
$DIMCLRE
 70
     0
  9
$DIMCLRT
 70
     0
  9
$DIMTFAC
 40
1.0
  9
$DIMGAP
 40
0.09
  9
$LUNITS
 70
     2
  9
$LUPREC
 70
     8
  9
$SKETCHINC
 40
1.0
  9
$FILLETRAD
 40
0.0
  9
$AUNITS
 70
     0
  9
$AUPREC
 70
     0
  9
$MENU
  1
.
  9
$ELEVATION
 40
0.0
  9
$PELEVATION
 40
0.0
  9
$THICKNESS
 40
0.0
  9
$LIMCHECK
 70
     0
  9
$BLIPMODE
 70
     0
  9
$CHAMFERA
 40
0.0
  9
$CHAMFERB
 40
0.0
  9
$SKPOLY
 70
     0
  9
$TDCREATE
 40
2455533.587210648227483
  9
$TDUPDATE
 40
2459951.6479282411746681
  9
$TDINDWG
 40
9.4027184027999997
  9
$TDUSRTIMER
 40
9.4027182176000004
  9
$USRTIMER
 70
     1
  9
$ANGBASE
 50
0.0
  9
$ANGDIR
 70
     0
  9
$PDMODE
 70
     0
  9
$PDSIZE
 40
0.0
  9
$PLINEWID
 40
0.0
  9
$COORDS
 70
     1
  9
$SPLFRAME
 70
     0
  9
$SPLINETYPE
 70
     6
  9
$SPLINESEGS
 70
     8
  9
$ATTDIA
 70
     1
  9
$ATTREQ
 70
     1
  9
$HANDLING
 70
     1
  9
$HANDSEED
  5
14F90
  9
$SURFTAB1
 70
     6
  9
$SURFTAB2
 70
     6
  9
$SURFTYPE
 70
     6
  9
$SURFU
 70
     6
  9
$SURFV
 70
     6
  9
$UCSNAME
  2

  9
$UCSORG
 10
0.0
 20
0.0
 30
0.0
  9
$UCSXDIR
 10
1.0
 20
0.0
 30
0.0
  9
$UCSYDIR
 10
0.0
 20
1.0
 30
0.0
  9
$PUCSNAME
  2

  9
$PUCSORG
 10
0.0
 20
0.0
 30
0.0
  9
$PUCSXDIR
 10
1.0
 20
0.0
 30
0.0
  9
$PUCSYDIR
 10
0.0
 20
1.0
 30
0.0
  9
$USERI1
 70
     0
  9
$USERI2
 70
     0
  9
$USERI3
 70
     0
  9
$USERI4
 70
     0
  9
$USERI5
 70
     0
  9
$USERR1
 40
0.0
  9
$USERR2
 40
0.0
  9
$USERR3
 40
0.0
  9
$USERR4
 40
0.0
  9
$USERR5
 40
0.0
  9
$WORLDVIEW
 70
     1
  9
$SHADEDGE
 70
     3
  9
$SHADEDIF
 70
    70
  9
$TILEMODE
 70
     1
  9
$MAXACTVP
 70
    64
  9
$PLIMCHECK
 70
     0
  9
$PEXTMIN
 10
0.0
 20
0.0
 30
0.0
  9
$PEXTMAX
 10
0.0
 20
0.0
 30
0.0
  9
$PLIMMIN
 10
0.0
 20
0.0
  9
$PLIMMAX
 10
12.0
 20
9.0
  9
$UNITMODE
 70
     0
  9
$VISRETAIN
 70
     1
  9
$PLINEGEN
 70
     0
  9
$PSLTSCALE
 70
     1
  0
ENDSEC
  0
SECTION
  2
TABLES
  0
TABLE
  2
VPORT
 70
     1
  0
VPORT
  2
*ACTIVE
 70
     0
 10
0.0
 20
0.0
 11
1.0
 21
1.0
 12
-18.1616105771747698
 22
-100.2363309861408993
 13
0.0
 23
0.0
 14
10.0
 24
10.0
 15
10.0
 25
10.0
 16
0.0
 26
0.0
 36
1.0
 17
0.0
 27
0.0
 37
0.0
 40
1471.6323176480059374
 41
2.198717948717948
 42
50.0
 43
0.0
 44
0.0
 50
0.0
 51
0.0
 71
     0
 72
  1000
 73
     1
 74
     3
 75
     0
 76
     0
 77
     0
 78
     0
  0
ENDTAB
  0
TABLE
  2
LTYPE
 70
     2
  0
LTYPE
  2
CONTINUOUS
 70
     0
  3
Solid line
 72
    65
 73
     0
 40
0.0
  0
LTYPE
  2
CENTER
 70
     0
  3
Center ____ _ ____ _ ____ _ ____ _ ____ _ ____
 72
    65
 73
     4
 40
50.7999999999999972
 49
31.75
 49
-6.3499999999999988
 49
6.3499999999999988
 49
-6.3499999999999988
  0
ENDTAB
  0
TABLE
  2
LAYER
 70
     3
  0
LAYER
  2
0
 70
     0
 62
     7
  6
CONTINUOUS
  0
LAYER
  2
画層1
 70
     0
 62
     2
  6
CONTINUOUS
  0
LAYER
  2
DEFPOINTS
 70
     0
 62
     7
  6
CONTINUOUS
  0
ENDTAB
  0
TABLE
  2
STYLE
 70
     2
  0
STYLE
  2
STANDARD
 70
     0
 40
0.0
 41
1.0
 50
0.0
 71
     0
 42
2.5
  3
txt.shx
  4

  0
STYLE
  2
1-1
 70
     0
 40
3.2000000000000002
 41
0.85
 50
0.0
 71
     0
 42
600.0
  3
romans.shx
  4
BIGFONT.shx
  0
ENDTAB
  0
TABLE
  2
VIEW
 70
     0
  0
ENDTAB
  0
TABLE
  2
UCS
 70
     0
  0
ENDTAB
  0
TABLE
  2
APPID
 70
    43
  0
APPID
  2
ACAD
 70
     0
  0
APPID
  2
ACAD_PSEXT
 70
     0
  0
APPID
  2
ACAD_EXEMPT_FROM_CAD_STANDARDS
 70
     0
  0
APPID
  2
ACAECLAYERSTANDARD
 70
     0
  0
APPID
  2
ACAD_DSTYLE_DIMTEXT_FILL
 70
     0
  0
APPID
  2
ACAD_DSTYLE_DIMEXT_LENGTH
 70
     0
  0
APPID
  2
ACAD_DSTYLE_DIMEXT_ENABLED
 70
     0
  0
APPID
  2
ACAD_DSTYLE_DIM_LINETYPE
 70
     0
  0
APPID
  2
ACAD_DSTYLE_DIM_EXT1_LINETYPE
 70
     0
  0
APPID
  2
ACAD_DSTYLE_DIM_EXT2_LINETYPE
 70
     0
  0
APPID
  2
ACAD_DSTYLE_DIMJOGGED_JOGA
 70
     0
  0
APPID
  2
ACAD_DSTYLE_DIMARC_LENGTH_
 70
     0
  0
APPID
  2
MCAD_NO_VIS
 70
     0
  0
APPID
  2
ACAD_TEMP_GRAPHIC
 70
     0
  0
APPID
  2
AD_DRAW
 70
     0
  0
APPID
  2
ACATTRIBSERVICES
 70
     0
  0
APPID
  2
DESIGNERASSEMBLIES
 70
     0
  0
APPID
  2
ACADM_DIM_EDIT
 70
     0
  0
APPID
  2
AMDT_DM_ADJ
 70
     0
  0
APPID
  2
ACAD_DSTYLE_DIMJAG
 70
     0
  0
APPID
  2
ACAD_DSTYLE_DIMBREAK
 70
     0
  0
APPID
  2
ACAD_DSTYLE_DIMINSPECT
 70
     0
  0
APPID
  2
ACDBDYNAMICBLOCKGUID
 70
     0
  0
APPID
  2
GENIUS_GENDIMSH_14
 70
     0
  0
APPID
  2
GENIUS_GENODEF_13
 70
     0
  0
APPID
  2
GENIUS_GENOBJ-N-FIL_13
 70
     0
  0
APPID
  2
GENIUS_GENOBJ-N-CEN_13
 70
     0
  0
APPID
  2
GENIUS_GENCEN_19
 70
     0
  0
APPID
  2
ACAUTHENVIRON
 70
     0
  0
APPID
  2
ACADANNOPO
 70
     0
  0
APPID
  2
GENIUS_GENOBJ-N-HTC_13
 70
     0
  0
APPID
  2
GENIUS_GENHATCH_13
 70
     0
  0
APPID
  2
GENIUS_GENDTOL_13
 70
     0
  0
APPID
  2
ACAD_DSTYLE_DIMRADIAL_EXTENSION
 70
     0
  0
APPID
  2
ACAD_DSTYLE_DIMANGULAR_EXT
 70
     0
  0
APPID
  2
GENIUS_AMGTXT_16
 70
     0
  0
APPID
  2
GRADIENTCOLOR1ACI
 70
     0
  0
APPID
  2
GRADIENTCOLOR2ACI
 70
     0
  0
APPID
  2
ACAD_DSTYLE_DIMTALN
 70
     0
  0
APPID
  2
ACAD_NAV_VCDISPLAY
 70
     0
  0
APPID
  2
ACADANNOMONITORALERTICONDI
 70
     0
  0
APPID
  2
ACCMTRANSPARENCY
 70
     0
  0
APPID
  2
ACAD_MLEADERVER
 70
     0
  0
ENDTAB
  0
TABLE
  2
DIMSTYLE
 70
     1
  0
DIMSTYLE
  2
STANDARD
 70
     0
  3

  4

  5

  6

  7

 40
1.0
 41
0.18
 42
0.0625
 43
0.38
 44
0.18
 45
0.0
 46
0.0
 47
0.0
 48
0.0
140
0.18
141
0.09
142
0.0
143
25.3999999999999986
144
1.0
145
0.0
146
1.0
147
0.09
 71
     0
 72
     0
 73
     1
 74
     1
 75
     0
 76
     0
 77
     0
 78
     0
170
     0
171
     2
172
     0
173
     0
174
     0
175
     0
176
     0
177
     0
178
     0
  0
ENDTAB
  0
ENDSEC
  0
SECTION
  2
BLOCKS
  0
BLOCK
  8
0
  2
$MODEL_SPACE
 70
     0
 10
0.0
 20
0.0
 30
0.0
  3
$MODEL_SPACE
  1

  0
ENDBLK
  5
21
  8
0
  0
BLOCK
 67
     1
  8
0
  2
$PAPER_SPACE
 70
     0
 10
0.0
 20
0.0
 30
0.0
  3
$PAPER_SPACE
  1

  0
ENDBLK
  5
D5
 67
     1
  8
0
  0
BLOCK
  8
0
  2
_OPEN
 70
     0
 10
0.0
 20
0.0
 30
0.0
  3
_OPEN
  1

  0
LINE
  5
14A10
  8
0
  6
BYBLOCK
 62
     0
 10
-1.0
 20
0.1666666666666666
 30
0.0
 11
0.0
 21
0.0
 31
0.0
  0
LINE
  5
14A11
  8
0
  6
BYBLOCK
 62
     0
 10
0.0
 20
0.0
 30
0.0
 11
-1.0
 21
-0.1666666666666666
 31
0.0
  0
LINE
  5
14A12
  8
0
  6
BYBLOCK
 62
     0
 10
0.0
 20
0.0
 30
0.0
 11
-1.0
 21
0.0
 31
0.0
  0
ENDBLK
  5
14A13
  8
0
  0
ENDSEC
  0
SECTION
  2
ENTITIES
  0
TEXT
  5
14776
  8
0
  6
CONTINUOUS
 10
-354.1666666666665719
 20
175.0
 30
0.0
 40
50.0
  1
DMC2T17RD0PY 3S
 72
     4
 11
0.0
 21
200.0
 31
0.0
  0
LINE
  5
14B12
  8
0
 10
126.4842186079729061
 20
94.1897134468800346
 30
0.0
 11
-126.5157813920039018
 21
94.1897134471310551
 31
0.0
  0
LINE
  5
14B13
  8
0
 10
84.734218607971215
 20
41.6395757538273799
 30
0.0
 11
-84.765781392025346
 21
41.6395757538352171
 31
0.0
  0
LINE
  5
14B14
  8
0
 10
84.734218607972366
 20
66.1395757538196563
 30
0.0
 11
-84.7657813920264971
 21
66.1395757538276143
 31
0.0
  0
LINE
  5
14B15
  8
0
 10
-84.7657813920264971
 20
66.1395757538276143
 30
0.0
 11
-84.765781392025346
 21
41.6395757538352171
 31
0.0
  0
LINE
  5
14B16
  8
0
 10
-70.0157213920267623
 20
-39.8604492461556106
 30
0.0
 11
-70.0157213920242611
 21
41.639575753838983
 31
0.0
  0
LINE
  5
14B17
  8
0
 10
-126.5157813919222036
 20
70.1895757532279845
 30
0.0
 11
-126.5157813920250049
 21
94.1897134471310551
 31
0.0
  0
LINE
  5
14B19
  8
0
 10
-126.5157813919222036
 20
70.1895757532279845
 30
0.0
 11
126.484218607868101
 21
70.1895757520219945
 31
0.0
  0
LINE
  5
14B1A
  8
0
 10
39.4842003261180707
 20
-131.6104441461687884
 30
0.0
 11
39.4841966657356807
 21
-122.6104305053145964
 31
0.0
  0
LINE
  5
14B1B
  8
0
 10
-39.5157996738819293
 20
-133.1104241461684126
 30
0.0
 11
-39.51580873873786
 21
-122.6104682751414998
 31
0.0
  0
LINE
  5
14B1C
  8
0
 10
-0.0157813920270655
 20
-133.1104241461684126
 30
0.0
 11
39.4838682489005421
 21
-133.1104241461684126
 31
0.0
  0
LINE
  5
14B1D
  8
0
 10
52.4838537489001666
 20
-133.1104241461684126
 30
0.0
 11
83.9842003261180849
 21
-133.1104241461684126
 31
0.0
  0
LINE
  5
14B1E
  8
0
 10
83.9842003261180849
 20
-133.1104241461684126
 30
0.0
 11
83.9842003261180849
 21
-141.1104241461684126
 31
0.0
  0
LINE
  5
14B1F
  8
0
 10
-0.0157996738819293
 20
-133.1104241461684126
 30
0.0
 11
-39.5161645329537805
 21
-133.1104241461684126
 31
0.0
  0
LINE
  5
14B20
  8
0
 10
-52.5161500329538811
 20
-133.1104241461684126
 30
0.0
 11
-84.0157996738819151
 21
-133.1104241461684126
 31
0.0
  0
LINE
  5
14B21
  8
0
 10
-84.0157996738819151
 20
-133.1104241461684126
 30
0.0
 11
-84.0157996738819151
 21
-141.1104241461684126
 31
0.0
  0
LINE
  5
14B22
  8
0
 10
98.4845853261178945
 20
-141.1104241461684126
 30
0.0
 11
-98.5165191738822159
 21
-141.1104241461684126
 31
0.0
  0
LINE
  5
14B23
  8
0
 10
98.4842003261180707
 20
-141.1104241461684126
 30
0.0
 11
98.4842003261180707
 21
-162.4916219926512042
 31
0.0
  0
LINE
  5
14B24
  8
0
 10
98.4842003261180707
 20
-147.1104241461684126
 30
0.0
 11
-98.5157996738819293
 21
-147.1104241461684126
 31
0.0
  0
LINE
  5
14B25
  8
0
 10
-98.5165191738822159
 20
-141.1104241461692936
 30
0.0
 11
-98.5157996738819293
 21
-162.4916219926512042
 31
0.0
  0
LINE
  5
14B26
  8
0
 10
94.4842003261180707
 20
-169.4198252229274999
 30
0.0
 11
91.4842003261180849
 21
-171.1518760304956004
 31
0.0
  0
ARC
  5
14B27
  8
0
 10
90.4842003261180565
 20
-162.4916219926512042
 30
0.0
 40
8.0
 50
300.0000000000072191
 51
0.0
1001
GENIUS_GENODEF_13
1002
{
1000
HIER
1070
     0
1002
}
1002
{
1000
MANEDIT
1070
     0
1002
}
1002
{
1000
NOSEL
1070
     0
1002
}
1002
{
1000
BEHIND
1070
     0
1002
}
1002
{
1000
OTHER
1070
     0
1002
}
1002
{
1000
REACTOR
1002
}
1001
GENIUS_GENOBJ-N-FIL_13
1002
{
1000
OWNER
1000
GEN
1002
}
  0
LINE
  5
14B28
  8
0
 10
-94.5157996738819293
 20
-169.4198252229274999
 30
0.0
 11
-91.5157996738819151
 21
-171.1518760304956004
 31
0.0
  0
ARC
  5
14B29
  8
0
 10
-90.5157996738819151
 20
-162.4916219926512042
 30
0.0
 40
8.0
 50
180.0
 51
239.9999999999928093
1001
GENIUS_GENODEF_13
1002
{
1000
HIER
1070
     0
1002
}
1002
{
1000
MANEDIT
1070
     0
1002
}
1002
{
1000
NOSEL
1070
     0
1002
}
1002
{
1000
BEHIND
1070
     0
1002
}
1002
{
1000
OTHER
1070
     0
1002
}
1002
{
1000
REACTOR
1002
}
1001
GENIUS_GENOBJ-N-FIL_13
1002
{
1000
OWNER
1000
GEN
1002
}
  0
ARC
  5
14B2A
  8
0
 10
75.50592699777485
 20
-257.1104291461692242
 30
0.0
 40
8.0
 50
270.0
 51
347.9999999999843112
1001
GENIUS_GENODEF_13
1002
{
1000
HIER
1070
     0
1002
}
1002
{
1000
MANEDIT
1070
     0
1002
}
1002
{
1000
NOSEL
1070
     0
1002
}
1002
{
1000
BEHIND
1070
     0
1002
}
1002
{
1000
OTHER
1070
     0
1002
}
1002
{
1000
REACTOR
1002
}
1001
GENIUS_GENOBJ-N-FIL_13
1002
{
1000
OWNER
1000
GEN
1002
}
  0
LINE
  5
14B2B
  8
0
 10
-24.0158146738820086
 20
-270.1104241461694073
 30
0.0
 11
23.9841854295552785
 21
-270.1104191811685951
 31
0.0
  0
LINE
  5
14B2C
  8
0
 10
75.50592699777485
 20
-265.1104291461692242
 30
0.0
 11
-75.537527408321921
 21
-265.1104291461692242
 31
0.0
  0
ARC
  5
14B2D
  8
0
 10
-75.537527408321921
 20
-257.1104291461692242
 30
0.0
 40
8.0
 50
192.0000000000156888
 51
270.0
1001
GENIUS_GENODEF_13
1002
{
1000
HIER
1070
     0
1002
}
1002
{
1000
MANEDIT
1070
     0
1002
}
1002
{
1000
NOSEL
1070
     0
1002
}
1002
{
1000
BEHIND
1070
     0
1002
}
1002
{
1000
OTHER
1070
     0
1002
}
1002
{
1000
REACTOR
1002
}
1001
GENIUS_GENOBJ-N-FIL_13
1002
{
1000
OWNER
1000
GEN
1002
}
  0
LINE
  5
14B2E
  8
0
 10
-25.0158196738818788
 20
-265.1104291461692242
 30
0.0
 11
-25.0158196738818788
 21
-269.1104191461686241
 31
0.0
  0
LINE
  5
14B2F
  8
0
 10
24.9841903261178686
 20
-265.1104291461692242
 30
0.0
 11
24.9841903261178686
 21
-269.1104191461686241
 31
0.0
  0
ARC
  5
14B30
  8
0
 10
-24.0158146738820086
 20
-269.1104191461686241
 30
0.0
 40
1.000000035
 50
180.0
 51
270.0000100000009979
  0
ARC
  5
14B31
  8
0
 10
23.9841853261179914
 20
-269.1104191461686241
 30
0.0
 40
1.000000035
 50
269.9999899999990021
 51
0.0000039999795585
  0
LINE
  5
14B32
  8
0
 10
83.3311078036456365
 20
-258.7737226727107895
 30
0.0
 11
87.8915803628080852
 21
-237.318386157422907
 31
0.0
  0
ARC
  5
14B33
  8
0
 10
38.9842003261180707
 20
-226.9228016165347128
 30
0.0
 40
50.0
 50
347.9999999999843112
 51
0.0
1001
GENIUS_GENODEF_13
1002
{
1000
HIER
1070
     0
1002
}
1002
{
1000
MANEDIT
1070
     0
1002
}
1002
{
1000
NOSEL
1070
     0
1002
}
1002
{
1000
BEHIND
1070
     0
1002
}
1002
{
1000
OTHER
1070
     0
1002
}
1002
{
1000
REACTOR
1002
}
1001
GENIUS_GENOBJ-N-FIL_13
1002
{
1000
OWNER
1000
GEN
1002
}
  0
LINE
  5
14B34
  8
0
 10
88.9842003261180849
 20
-226.9228016165347128
 30
0.0
 11
88.9842003261180849
 21
-175.482003049417898
 31
0.0
  0
ARC
  5
14B35
  8
0
 10
93.9842003261180849
 20
-175.482003049417898
 30
0.0
 40
5.0
 50
120.0000000000072049
 51
180.0
1001
GENIUS_GENODEF_13
1002
{
1000
HIER
1070
     0
1002
}
1002
{
1000
MANEDIT
1070
     0
1002
}
1002
{
1000
NOSEL
1070
     0
1002
}
1002
{
1000
BEHIND
1070
     0
1002
}
1002
{
1000
OTHER
1070
     0
1002
}
1002
{
1000
REACTOR
1002
}
1001
GENIUS_GENOBJ-N-FIL_13
1002
{
1000
OWNER
1000
GEN
1002
}
  0
LINE
  5
14B36
  8
0
 10
-89.0157996738819151
 20
-175.482003049417898
 30
0.0
 11
-89.0157996738819151
 21
-226.9228066165345865
 31
0.0
  0
ARC
  5
14B37
  8
0
 10
-94.0157996738819151
 20
-175.482003049417898
 30
0.0
 40
5.0
 50
0.0
 51
59.999999999992788
1001
GENIUS_GENODEF_13
1002
{
1000
HIER
1070
     0
1002
}
1002
{
1000
MANEDIT
1070
     0
1002
}
1002
{
1000
NOSEL
1070
     0
1002
}
1002
{
1000
BEHIND
1070
     0
1002
}
1002
{
1000
OTHER
1070
     0
1002
}
1002
{
1000
REACTOR
1002
}
1001
GENIUS_GENOBJ-N-FIL_13
1002
{
1000
OWNER
1000
GEN
1002
}
  0
LINE
  5
14B38
  8
0
 10
-87.9231797105724269
 20
-237.3183911574236902
 30
0.0
 11
-83.3627082141922386
 21
-258.7737226727107895
 31
0.0
  0
ARC
  5
14B39
  8
0
 10
-39.0157996738819293
 20
-226.9228066165345865
 30
0.0
 40
50.0
 50
180.0
 51
192.0000000000156888
1001
GENIUS_GENODEF_13
1002
{
1000
HIER
1070
     0
1002
}
1002
{
1000
MANEDIT
1070
     0
1002
}
1002
{
1000
NOSEL
1070
     0
1002
}
1002
{
1000
BEHIND
1070
     0
1002
}
1002
{
1000
OTHER
1070
     0
1002
}
1002
{
1000
REACTOR
1002
}
1001
GENIUS_GENOBJ-N-FIL_13
1002
{
1000
OWNER
1000
GEN
1002
}
  0
LINE
  5
14B3A
  8
0
 10
-94.5157813920270655
 20
-167.1104241461684126
 30
0.0
 11
94.4842186079729345
 21
-167.1104241461684126
 31
0.0
  0
LINE
  5
14B3B
  8
0
 10
-89.0157996738819151
 20
-172.5952517034696996
 30
0.0
 11
88.9842003261180849
 21
-172.5952517034696996
 31
0.0
  0
LINE
  5
14B3C
  8
0
 10
-87.9231797105724269
 20
-232.1780183798186101
 30
0.0
 11
87.8915803628076446
 21
-232.1780183798186101
 31
0.0
  0
LINE
  5
14B3D
  8
0
 10
85.7063853261176973
 20
-131.6104441461687884
 30
0.0
 11
85.7063853261176973
 21
-137.8604341461690979
 31
0.0
  0
LINE
  5
14B3E
  8
0
 10
98.4845853261178945
 20
-139.1104441461687884
 30
0.0
 11
98.4845853261178945
 21
-141.1104241461684126
 31
0.0
  0
LINE
  5
14B3F
  8
0
 10
97.6186053261178586
 20
-131.1104941461684916
 30
0.0
 11
98.4846333261177733
 21
-131.6104891461685895
 31
0.0
  0
LINE
  5
14B40
  8
0
 10
86.3557653261179752
 20
-131.6104441461687884
 30
0.0
 11
86.3557653261179752
 21
-137.8604341461690979
 31
0.0
  0
LINE
  5
14B41
  8
0
 10
86.3509053261179815
 20
-131.1104791461688137
 30
0.0
 11
85.4848803261177039
 21
-131.6104741461680874
 31
0.0
  0
LINE
  5
14B42
  8
0
 10
85.4849253261179456
 20
-137.8604341461690979
 30
0.0
 11
98.4849453261178951
 21
-137.8604341461690979
 31
0.0
  0
LINE
  5
14B43
  8
0
 10
87.3887103261179163
 20
-131.6104441461687884
 30
0.0
 11
87.3887103261179163
 21
-137.8604341461690979
 31
0.0
  0
LINE
  5
14B44
  8
0
 10
96.5811153261176969
 20
-131.6104441461687884
 30
0.0
 11
96.5811153261176969
 21
-137.8604341461690979
 31
0.0
  0
LINE
  5
14B45
  8
0
 10
85.4849253261179456
 20
-131.6104441461687884
 30
0.0
 11
85.4849253261179456
 21
-139.1104441461687884
 31
0.0
  0
LINE
  5
14B46
  8
0
 10
93.6672603261179262
 20
-131.6104441461687884
 30
0.0
 11
93.6672603261179262
 21
-137.8604341461690979
 31
0.0
  0
LINE
  5
14B47
  8
0
 10
95.2349253261179456
 20
-131.6104441461687884
 30
0.0
 11
95.2349253261179456
 21
-137.8604341461690979
 31
0.0
  0
LINE
  5
14B48
  8
0
 10
90.3026103261179287
 20
-131.6104441461687884
 30
0.0
 11
90.3026103261179287
 21
-137.8604341461690979
 31
0.0
  0
LINE
  5
14B49
  8
0
 10
97.6189053261180106
 20
-131.1104191461685105
 30
0.0
 11
98.4849603261179851
 21
-131.6104441461687884
 31
0.0
  0
LINE
  5
14B4A
  8
0
 10
88.7349453261178951
 20
-131.6104441461687884
 30
0.0
 11
88.7349453261178951
 21
-137.8604341461690979
 31
0.0
  0
LINE
  5
14B4B
  8
0
 10
85.4849253261179456
 20
-131.6104441461687884
 30
0.0
 11
98.4849453261178951
 21
-131.6104441461687884
 31
0.0
  0
LINE
  5
14B4C
  8
0
 10
91.9849353261176788
 20
-131.6104441461687884
 30
0.0
 11
91.9849353261176788
 21
-137.8604341461690979
 31
0.0
  0
LINE
  5
14B4D
  8
0
 10
97.6141053261178513
 20
-131.6104441461687884
 30
0.0
 11
97.6141053261178513
 21
-137.8604341461690979
 31
0.0
  0
LINE
  5
14B4E
  8
0
 10
85.4849253261179456
 20
-139.1104441461687884
 30
0.0
 11
98.4849453261178951
 21
-139.1104441461687884
 31
0.0
  0
LINE
  5
14B4F
  8
0
 10
98.4849453261178951
 20
-131.6104441461687884
 30
0.0
 11
98.4849453261178951
 21
-139.1104441461687884
 31
0.0
  0
LINE
  5
14B50
  8
0
 10
98.2634403261179301
 20
-131.6104441461687884
 30
0.0
 11
98.2634403261179301
 21
-137.8604341461690979
 31
0.0
  0
LINE
  5
14B51
  8
0
 10
86.3509203261176026
 20
-131.1104341461690979
 30
0.0
 11
97.6189053261180106
 21
-131.1104341461690979
 31
0.0
  0
LINE
  5
14B52
  8
0
 10
85.4849253261179456
 20
-139.1104441461687884
 30
0.0
 11
85.4849253261179456
 21
-141.1104241461684126
 31
0.0
  0
LINE
  5
14B53
  8
0
 10
-85.5161736738821219
 20
-131.6104441461687884
 30
0.0
 11
-85.5161736738821219
 21
-139.1104441461687884
 31
0.0
  0
LINE
  5
14B54
  8
0
 10
-97.6501611738819832
 20
-131.1104341461690979
 30
0.0
 11
-86.382171673881885
 21
-131.1104341461690979
 31
0.0
  0
LINE
  5
14B55
  8
0
 10
-98.5161591738817606
 20
-131.6104441461687884
 30
0.0
 11
-98.5161591738817606
 21
-139.1104441461687884
 31
0.0
  0
LINE
  5
14B56
  8
0
 10
-98.5161591738817606
 20
-131.6104441461687884
 30
0.0
 11
-85.5161736738821219
 21
-131.6104441461687884
 31
0.0
  0
LINE
  5
14B57
  8
0
 10
-93.6985161738818988
 20
-131.6104441461687884
 30
0.0
 11
-93.6985161738818988
 21
-137.8604341461690979
 31
0.0
  0
LINE
  5
14B58
  8
0
 10
-86.3870241738820681
 20
-131.6104441461687884
 30
0.0
 11
-86.3870241738820681
 21
-137.8604341461690979
 31
0.0
  0
LINE
  5
14B59
  8
0
 10
-87.4199676738819562
 20
-131.6104441461687884
 30
0.0
 11
-87.4199676738819562
 21
-137.8604341461690979
 31
0.0
  0
LINE
  5
14B5A
  8
0
 10
-88.7661591738817748
 20
-131.6104441461687884
 30
0.0
 11
-88.7661591738817748
 21
-137.8604341461690979
 31
0.0
  0
LINE
  5
14B5B
  8
0
 10
-85.5161736738821219
 20
-139.1104441461687884
 30
0.0
 11
-85.5161736738821219
 21
-141.1104241461684126
 31
0.0
  0
LINE
  5
14B5C
  8
0
 10
-96.6123651738819262
 20
-131.6104441461687884
 30
0.0
 11
-96.6123651738819262
 21
-137.8604341461690979
 31
0.0
  0
LINE
  5
14B5D
  8
0
 10
-95.2661736738821219
 20
-131.6104441461687884
 30
0.0
 11
-95.2661736738821219
 21
-137.8604341461690979
 31
0.0
  0
LINE
  5
14B5E
  8
0
 10
-85.7376396738820858
 20
-131.6104441461687884
 30
0.0
 11
-85.7376396738820858
 21
-137.8604341461690979
 31
0.0
  0
LINE
  5
14B5F
  8
0
 10
-90.3338616738821969
 20
-131.6104441461687884
 30
0.0
 11
-90.3338616738821969
 21
-137.8604341461690979
 31
0.0
  0
LINE
  5
14B60
  8
0
 10
-92.0161431738822557
 20
-131.6104441461687884
 30
0.0
 11
-92.0161431738822557
 21
-137.8604341461690979
 31
0.0
  0
LINE
  5
14B61
  8
0
 10
-86.3822121738819533
 20
-131.1104191461685105
 30
0.0
 11
-85.5161616738821664
 21
-131.6104441461687884
 31
0.0
  0
LINE
  5
14B62
  8
0
 10
-97.6453551738820948
 20
-131.6104441461687884
 30
0.0
 11
-97.6453551738820948
 21
-137.8604341461690979
 31
0.0
  0
LINE
  5
14B63
  8
0
 10
-85.5161736738821219
 20
-139.1104441461687884
 30
0.0
 11
-98.5161591738817606
 21
-139.1104441461687884
 31
0.0
  0
LINE
  5
14B64
  8
0
 10
-98.2946931738822514
 20
-131.6104441461687884
 30
0.0
 11
-98.2946931738822514
 21
-137.8604341461690979
 31
0.0
  0
LINE
  5
14B65
  8
0
 10
-98.5165191738822159
 20
-139.1104441461687884
 30
0.0
 11
-98.5165191738822159
 21
-141.1104241461692936
 31
0.0
  0
LINE
  5
14B66
  8
0
 10
-97.6493871738819053
 20
-131.1104191461685105
 30
0.0
 11
-98.5154376738821611
 21
-131.6104441461687884
 31
0.0
  0
LINE
  5
14B67
  8
0
 10
-98.5154414238820664
 20
-139.1104441461687884
 30
0.0
 11
-85.5154214238821169
 21
-139.1104441461687884
 31
0.0
  0
LINE
  5
14B68
  8
0
 10
-98.5161539238818165
 20
-137.8604341461690979
 30
0.0
 11
-85.5161339238818528
 21
-137.8604341461690979
 31
0.0
  0
LINE
  5
14B69
  8
0
 10
7.9842202924430694
 20
-270.1104224911661049
 30
0.0
 11
7.983974838344011
 21
-283.1804170800585894
 31
0.0
  0
LINE
  5
14B6A
  8
0
 10
10.9842287772851197
 20
-283.1804170800585894
 30
0.0
 11
-11.0157921964839698
 21
-283.1804170800585894
 31
0.0
  0
LINE
  5
14B6B
  8
0
 10
9.9842237772852513
 20
-286.9124770800589204
 30
0.0
 11
-10.0157721964840203
 21
-286.9125520800587879
 31
0.0
  0
LINE
  5
14B6C
  8
0
 10
10.9842287772851197
 20
-283.1804170800585894
 30
0.0
 11
9.9842087772851755
 21
-286.9125520800587879
 31
0.0
  0
LINE
  5
14B6D
  8
0
 10
9.9842237772852513
 20
-286.9124770800589204
 30
0.0
 11
9.9842237772852513
 21
-313.1802370800587028
 31
0.0
  0
LINE
  5
14B6E
  8
0
 10
-7.015787196484097
 20
-316.1802370800585891
 30
0.0
 11
6.9842237772852513
 21
-316.1802370800585891
 31
0.0
  0
ARC
  5
14B6F
  8
0
 10
6.9842237772852513
 20
-313.1802370800587028
 30
0.0
 40
3.0
 50
270.0
 51
0.0
  0
LINE
  5
14B70
  8
0
 10
-10.0157486894429404
 20
-286.9125520799706237
 30
0.0
 11
-10.0157871964840997
 21
-313.1802370800587028
 31
0.0
  0
LINE
  5
14B71
  8
0
 10
-39.5161645329537805
 20
-131.6104441461687884
 30
0.0
 11
-39.5161645329537805
 21
-139.1104441461687884
 31
0.0
  0
LINE
  5
14B72
  8
0
 10
-51.6501520329541108
 20
-131.1104341461690979
 30
0.0
 11
-40.3821625329539984
 21
-131.1104341461690979
 31
0.0
  0
LINE
  5
14B73
  8
0
 10
-52.5161500329538811
 20
-131.6104441461687884
 30
0.0
 11
-52.5161500329538811
 21
-139.1104441461687884
 31
0.0
  0
LINE
  5
14B74
  8
0
 10
-52.5161500329538811
 20
-131.6104441461687884
 30
0.0
 11
-39.5161645329537805
 21
-131.6104441461687884
 31
0.0
  0
LINE
  5
14B75
  8
0
 10
-47.6985070329540122
 20
-131.6104441461687884
 30
0.0
 11
-47.6985070329540122
 21
-137.8604341461690979
 31
0.0
  0
LINE
  5
14B76
  8
0
 10
-40.3870150329542028
 20
-131.6104441461687884
 30
0.0
 11
-40.3870150329542028
 21
-137.8604341461690979
 31
0.0
  0
LINE
  5
14B77
  8
0
 10
-41.4199585329540696
 20
-131.6104441461687884
 30
0.0
 11
-41.4199585329540696
 21
-137.8604341461690979
 31
0.0
  0
LINE
  5
14B78
  8
0
 10
-42.7661500329538669
 20
-131.6104441461687884
 30
0.0
 11
-42.7661500329538669
 21
-137.8604341461690979
 31
0.0
  0
LINE
  5
14B79
  8
0
 10
-39.5161645329537805
 20
-139.1104441461687884
 30
0.0
 11
-39.5161645329537805
 21
-141.1104241461684126
 31
0.0
  0
LINE
  5
14B7A
  8
0
 10
-50.6123560329540396
 20
-131.6104441461687884
 30
0.0
 11
-50.6123560329540396
 21
-137.8604341461690979
 31
0.0
  0
LINE
  5
14B7B
  8
0
 10
-49.2661645329537805
 20
-131.6104441461687884
 30
0.0
 11
-49.2661645329537805
 21
-137.8604341461690979
 31
0.0
  0
LINE
  5
14B7C
  8
0
 10
-39.7376305329537516
 20
-131.6104441461687884
 30
0.0
 11
-39.7376305329537516
 21
-137.8604341461690979
 31
0.0
  0
LINE
  5
14B7D
  8
0
 10
-44.3338525329538626
 20
-131.6104441461687884
 30
0.0
 11
-44.3338525329538626
 21
-137.8604341461690979
 31
0.0
  0
LINE
  5
14B7E
  8
0
 10
-46.0161340329539073
 20
-131.6104441461687884
 30
0.0
 11
-46.0161340329539073
 21
-137.8604341461690979
 31
0.0
  0
LINE
  5
14B7F
  8
0
 10
-40.3822030329540596
 20
-131.1104191461685105
 30
0.0
 11
-39.5161525329538108
 21
-131.6104441461687884
 31
0.0
  0
LINE
  5
14B80
  8
0
 10
-51.6453460329541869
 20
-131.6104441461687884
 30
0.0
 11
-51.6453460329541869
 21
-137.8604341461690979
 31
0.0
  0
LINE
  5
14B81
  8
0
 10
-39.5161645329537805
 20
-139.1104441461687884
 30
0.0
 11
-52.5161500329538811
 21
-139.1104441461687884
 31
0.0
  0
LINE
  5
14B82
  8
0
 10
-52.29468403295391
 20
-131.6104441461687884
 30
0.0
 11
-52.29468403295391
 21
-137.8604341461690979
 31
0.0
  0
LINE
  5
14B83
  8
0
 10
-52.5165100329538674
 20
-139.1104441461687884
 30
0.0
 11
-52.5165100329538674
 21
-141.1104241461692936
 31
0.0
  0
LINE
  5
14B84
  8
0
 10
-51.6493780329540115
 20
-131.1104191461685105
 30
0.0
 11
-52.5154285329542674
 21
-131.6104441461687884
 31
0.0
  0
LINE
  5
14B85
  8
0
 10
-52.5154322829541726
 20
-139.1104441461687884
 30
0.0
 11
-39.5154122829537826
 21
-139.1104441461687884
 31
0.0
  0
LINE
  5
14B86
  8
0
 10
-52.5161447829539085
 20
-137.8604341461690979
 30
0.0
 11
-39.5161247829539732
 21
-137.8604341461690979
 31
0.0
  0
LINE
  5
14B87
  8
0
 10
52.4838537489001666
 20
-131.6104441461687884
 30
0.0
 11
52.4838537489001666
 21
-139.1104441461687884
 31
0.0
  0
LINE
  5
14B88
  8
0
 10
40.3498662489002982
 20
-131.1104341461690979
 30
0.0
 11
51.6178557489004106
 21
-131.1104341461690979
 31
0.0
  0
LINE
  5
14B89
  8
0
 10
39.4838682489005421
 20
-131.6104441461687884
 30
0.0
 11
39.4838682489005421
 21
-139.1104441461687884
 31
0.0
  0
LINE
  5
14B8A
  8
0
 10
39.4838682489005421
 20
-131.6104441461687884
 30
0.0
 11
52.4838537489001666
 21
-131.6104441461687884
 31
0.0
  0
LINE
  5
14B8B
  8
0
 10
44.3015112489003968
 20
-131.6104441461687884
 30
0.0
 11
44.3015112489003968
 21
-137.8604341461690979
 31
0.0
  0
LINE
  5
14B8C
  8
0
 10
51.6130032489002133
 20
-131.6104441461687884
 30
0.0
 11
51.6130032489002133
 21
-137.8604341461690979
 31
0.0
  0
LINE
  5
14B8D
  8
0
 10
50.5800597489003394
 20
-131.6104441461687884
 30
0.0
 11
50.5800597489003394
 21
-137.8604341461690979
 31
0.0
  0
LINE
  5
14B8E
  8
0
 10
49.2338682489005279
 20
-131.6104441461687884
 30
0.0
 11
49.2338682489005279
 21
-137.8604341461690979
 31
0.0
  0
LINE
  5
14B8F
  8
0
 10
52.4838537489001666
 20
-139.1104441461687884
 30
0.0
 11
52.4838537489001666
 21
-141.1104241461684126
 31
0.0
  0
LINE
  5
14B90
  8
0
 10
41.3876622489003623
 20
-131.6104441461687884
 30
0.0
 11
41.3876622489003623
 21
-137.8604341461690979
 31
0.0
  0
LINE
  5
14B91
  8
0
 10
42.7338537489001666
 20
-131.6104441461687884
 30
0.0
 11
42.7338537489001666
 21
-137.8604341461690979
 31
0.0
  0
LINE
  5
14B92
  8
0
 10
52.2623877489002027
 20
-131.6104441461687884
 30
0.0
 11
52.2623877489002027
 21
-137.8604341461690979
 31
0.0
  0
LINE
  5
14B93
  8
0
 10
47.6661657489000774
 20
-131.6104441461687884
 30
0.0
 11
47.6661657489000774
 21
-137.8604341461690979
 31
0.0
  0
LINE
  5
14B94
  8
0
 10
45.9838842489000328
 20
-131.6104441461687884
 30
0.0
 11
45.9838842489000328
 21
-137.8604341461690979
 31
0.0
  0
LINE
  5
14B95
  8
0
 10
51.6178152489003423
 20
-131.1104191461685105
 30
0.0
 11
52.4838657489001434
 21
-131.6104441461687884
 31
0.0
  0
LINE
  5
14B96
  8
0
 10
40.3546722489002079
 20
-131.6104441461687884
 30
0.0
 11
40.3546722489002079
 21
-137.8604341461690979
 31
0.0
  0
LINE
  5
14B97
  8
0
 10
52.4838537489001666
 20
-139.1104441461687884
 30
0.0
 11
39.4838682489005421
 21
-139.1104441461687884
 31
0.0
  0
LINE
  5
14B98
  8
0
 10
39.7053342489000514
 20
-131.6104441461687884
 30
0.0
 11
39.7053342489000514
 21
-137.8604341461690979
 31
0.0
  0
LINE
  5
14B99
  8
0
 10
39.4835082489000797
 20
-139.1104441461687884
 30
0.0
 11
39.4835082489000797
 21
-141.1104241461692936
 31
0.0
  0
LINE
  5
14B9A
  8
0
 10
40.3506402489003904
 20
-131.1104191461685105
 30
0.0
 11
39.4845897489001416
 21
-131.6104441461687884
 31
0.0
  0
LINE
  5
14B9B
  8
0
 10
39.4845859989002292
 20
-139.1104441461687884
 30
0.0
 11
52.4846059989001787
 21
-139.1104441461687884
 31
0.0
  0
LINE
  5
14B9C
  8
0
 10
39.4838734989005005
 20
-137.8604341461690979
 30
0.0
 11
52.4838934989004429
 21
-137.8604341461690979
 31
0.0
  0
LINE
  5
14B9D
  8
0
 10
100.484220326118006
 20
-161.3272141461688136
 30
0.0
 11
100.484220326118006
 21
-151.893624146169202
 31
0.0
  0
LINE
  5
14B9E
  8
0
 10
101.5495303261179032
 20
-151.8603841461685136
 30
0.0
 11
98.4842003261180707
 21
-151.9561741461687916
 31
0.0
  0
LINE
  5
14B9F
  8
0
 10
116.0481303261177999
 20
-161.6103641461689904
 30
0.0
 11
116.0481303261177999
 21
-151.6103641461689904
 31
0.0
  0
LINE
  5
14BA0
  8
0
 10
116.0481303261177999
 20
-151.6103641461689904
 30
0.0
 11
103.5481903261177052
 21
-151.6103641461689904
 31
0.0
  0
LINE
  5
14BA1
  8
0
 10
116.0481303261177999
 20
-161.6103641461689904
 30
0.0
 11
103.5481903261177052
 21
-161.6103641461689904
 31
0.0
  0
LINE
  5
14BA2
  8
0
 10
103.5481903261177052
 20
-161.6103641461689904
 30
0.0
 11
103.5481903261177052
 21
-151.6103641461689904
 31
0.0
  0
LINE
  5
14BA3
  8
0
 10
103.5481903261177052
 20
-161.3603641461689904
 30
0.0
 11
101.5481903261177052
 21
-161.3603641461689904
 31
0.0
  0
LINE
  5
14BA4
  8
0
 10
103.5481903261177052
 20
-151.8603641461689904
 30
0.0
 11
101.5481903261177052
 21
-151.8603641461689904
 31
0.0
  0
LINE
  5
14BA5
  8
0
 10
101.5481503261178062
 20
-161.3603941461682894
 30
0.0
 11
98.4842003261180707
 21
-161.2646410245318975
 31
0.0
  0
LINE
  5
14BA6
  8
0
 10
-52.4658266615506292
 20
-122.6104753816439938
 30
0.0
 11
-52.4658442410126327
 21
-105.6104342461690067
 31
0.0
  0
LINE
  5
14BA7
  8
0
 10
-52.4658413920271869
 20
-105.6104342461684951
 30
0.0
 11
52.4342814568462927
 21
-105.6105427216543973
 31
0.0
  0
LINE
  5
14BA8
  8
0
 10
-52.4658418281039829
 20
-122.6104753816596968
 30
0.0
 11
52.4342638775494834
 21
-122.6104241850161003
 31
0.0
  0
LINE
  5
14BA9
  8
0
 10
-11.0157921964839698
 20
-283.1804170800585894
 30
0.0
 11
-10.0157721964840203
 21
-286.9125520800587879
 31
0.0
  0
ARC
  5
14BAA
  8
0
 10
-7.015787196484097
 20
-313.1802370800587028
 30
0.0
 40
3.0
 50
180.0
 51
270.0
  0
LINE
  5
14BAB
  8
0
 10
-8.0157856812145383
 20
-270.1104224911661049
 30
0.0
 11
-8.0155402271154799
 21
-283.1804170800585894
 31
0.0
  0
LINE
  5
14BAC
  8
0
 10
-70.0157213920258528
 20
66.1395757538326166
 30
0.0
 11
-70.015721392036312
 21
70.1895757534974223
 31
0.0
  0
LINE
  5
14BAD
  8
0
 10
-65.76579139203875
 20
-58.3604142461569495
 30
0.0
 11
-47.315781400013627
 21
-76.8104242381818239
 31
0.0
  0
LINE
  5
14BAE
  8
0
 10
-15.0157810301450301
 20
-105.6104271412185938
 30
0.0
 11
-15.0157813920270602
 21
-76.8104242461685658
 31
0.0
  0
LINE
  5
14BAF
  8
0
  6
CONTINUOUS
 10
-96.0710845576038537
 20
38.189575753831889
 30
0.0
 11
-70.0157213920243748
 21
38.1895757538312068
 31
0.0
  0
LINE
  5
14BB0
  8
0
  6
CONTINUOUS
 10
-96.0710845576038537
 20
-38.1104242461678382
 30
0.0
 11
-70.0157213920260801
 21
-38.1104242461669287
 31
0.0
  0
ARC
  5
14BB1
  8
0
 10
-96.0710845576038537
 20
-126.9604204782670962
 30
0.0
 40
88.8499999999999943
 50
90.0
 51
135.0000000000003126
  0
ARC
  5
14BB2
  8
0
 10
-96.0710845576038537
 20
-126.9604204782670962
 30
0.0
 40
165.1500000000000057
 50
90.0
 51
135.0000000000003126
  0
LINE
  5
14BB3
  8
0
 10
-166.0639008009443103
 20
-80.9504035111342972
 30
0.0
 11
-168.5409195701579108
 21
-75.6384306652662843
 31
0.0
  0
LINE
  5
14BB4
  8
0
 10
-167.8424157769599958
 20
-83.4733605063868822
 30
0.0
 11
-166.223254385129394
 21
-81.854199114576943
 31
0.0
  0
ARC
  5
14BB5
  8
0
 10
-166.7889539522367954
 20
-81.2884995474799439
 30
0.0
 40
0.8000000099999999
 50
314.9999999999449756
 51
24.9999999999501412
  0
LINE
  5
14BB6
  8
0
 10
-168.1425182317277063
 20
-73.3789791355839611
 30
0.0
 11
-158.8975220660140053
 21
-64.1339829698591188
 31
0.0
  0
ARC
  5
14BB7
  8
0
 10
-166.7283046693538893
 20
-74.7931926979561581
 30
0.0
 40
1.9999999999999989
 50
135.0000000000370903
 51
205.0000456386395058
  0
LINE
  5
14BB8
  8
0
 10
-229.6716103008936898
 20
-17.3456150840183305
 30
0.0
 11
-224.3542013090498131
 21
-19.8251422464517688
 31
0.0
  0
ARC
  5
14BB9
  8
0
 10
-223.5089707697304959
 20
-18.0125238819300115
 30
0.0
 40
1.9999999999999989
 50
245.0001891559194007
 51
315.0000000000728164
  0
LINE
  5
14BBA
  8
0
 10
-232.1891328649359991
 20
-19.12664341843168
 30
0.0
 11
-230.5671416388265982
 21
-17.5046521923222187
 31
0.0
  0
LINE
  5
14BBB
  8
0
 10
-167.8424157769599958
 20
-83.4733605063868822
 30
0.0
 11
-232.1891328649359991
 21
-19.12664341843168
 31
0.0
  0
ARC
  5
14BBC
  8
0
 10
-230.0042931192294873
 20
-18.0731603804667316
 30
0.0
 40
0.8000000099999999
 50
64.9999999999283631
 51
135.000010000055795
  0
LINE
  5
14BBD
  8
0
 10
-222.0947572073557978
 20
-19.4267374443010716
 30
0.0
 11
-212.8408181307077029
 21
-10.1727983676302607
 31
0.0
  0
LINE
  5
14BBE
  8
0
 10
-166.536111508869908
 20
-80.7491786068621309
 30
0.0
 11
-229.4649509654311998
 21
-17.8203391503404305
 31
0.0
  0
LINE
  5
14BBF
  8
0
 10
-169.1327493208729891
 20
-74.3692243668272681
 30
0.0
 11
-223.0849967253813873
 21
-20.416976962329219
 31
0.0
  0
LINE
  5
14BC0
  8
0
 10
84.734218607972366
 20
66.1395757538276143
 30
0.0
 11
84.734218607971215
 21
41.6395757538352171
 31
0.0
  0
LINE
  5
14BC1
  8
0
 10
126.484218607868101
 20
70.1895757532279845
 30
0.0
 11
126.4842186078919042
 21
94.1897134468800346
 31
0.0
  0
LINE
  5
14BC3
  8
0
 10
69.9841586079717217
 20
66.1395757538326166
 30
0.0
 11
69.9841586079821809
 21
70.1895757534974223
 31
0.0
  0
LINE
  5
14BC4
  8
0
 10
-78.7657813920304761
 20
-58.3604142461568287
 30
0.0
 11
-78.7657813920305898
 21
-39.8604492461556106
 31
0.0
  0
LINE
  5
14BC5
  8
0
 10
78.7342186079764588
 20
-39.8604492461565201
 30
0.0
 11
-78.7657813920303624
 21
-39.8604492461556106
 31
0.0
  0
LINE
  5
14BC6
  8
0
 10
78.7342186079763451
 20
-58.3604142461578519
 30
0.0
 11
-78.7657813920304761
 21
-58.3604142461568287
 31
0.0
  0
LINE
  5
14BC7
  8
0
 10
78.7342186079763451
 20
-58.3604142461568287
 30
0.0
 11
78.7342186079764588
 21
-39.8604492461556106
 31
0.0
  0
LINE
  5
14BC8
  8
画層1
 62
     7
 10
-185.944349375379403
 20
-37.2285770168406884
 30
0.0
 11
-202.1370946645077993
 21
-53.4213223059688787
 31
0.0
1001
GENIUS_GENODEF_13
1002
{
1000
HIER
1070
     0
1002
}
1002
{
1000
MANEDIT
1070
     0
1002
}
1002
{
1000
NOSEL
1070
     0
1002
}
1002
{
1000
BEHIND
1070
     0
1002
}
1002
{
1000
OTHER
1070
     0
1002
}
1002
{
1000
REACTOR
1002
}
1001
GENIUS_GENOBJ-N-CEN_13
1002
{
1000
OWNER
1000
GEN
1002
}
1001
GENIUS_GENCEN_19
1002
{
1040
3.0
1002
}
  0
ARC
  5
14BC9
  8
0
  6
CENTER
 10
-96.147337105443853
 20
-126.9115101676674016
 30
0.0
 40
126.911512130076801
 50
89.9857505886712659
 51
135.0364177243293113
  0
LINE
  5
14BCA
  8
0
  6
CENTER
 10
-96.1157743213321965
 20
-0.0000019624093852
 30
0.0
 11
96.115774321389722
 21
0.0000019624093852
 31
0.0
  0
LINE
  5
14BCB
  8
0
 10
69.9841586079726312
 20
-39.8604492461556106
 30
0.0
 11
69.9841586079701301
 21
41.639575753838983
 31
0.0
  0
LINE
  5
14BCC
  8
0
  6
CONTINUOUS
 10
96.0395217735497226
 20
38.189575753831889
 30
0.0
 11
69.9841586079702438
 21
38.1895757538312068
 31
0.0
  0
LINE
  5
14BCD
  8
0
  6
CONTINUOUS
 10
96.0395217735497226
 20
-38.1104242461678382
 30
0.0
 11
69.9841586079719349
 21
-38.1104242461669287
 31
0.0
  0
ARC
  5
14BCE
  8
0
 10
96.0395217735497226
 20
-126.9604204782670962
 30
0.0
 40
88.8499999999999943
 50
45.0000000000089173
 51
90.0
  0
ARC
  5
14BCF
  8
0
 10
96.0395217735497226
 20
-126.9604204782670962
 30
0.0
 40
165.1500000000000057
 50
45.0000000000089173
 51
90.0
  0
LINE
  5
14BD0
  8
0
 10
166.0323380168902077
 20
-80.9504035111342972
 30
0.0
 11
168.5093567861038082
 21
-75.6384306652662843
 31
0.0
  0
LINE
  5
14BD1
  8
0
 10
167.8108529929058932
 20
-83.4733605063868822
 30
0.0
 11
166.1916916010752914
 21
-81.854199114576943
 31
0.0
  0
ARC
  5
14BD2
  8
0
 10
166.7573911681826928
 20
-81.2884995474799439
 30
0.0
 40
0.8000000099999999
 50
155.0000000000439115
 51
225.0000000000457874
  0
LINE
  5
14BD3
  8
0
 10
168.1109554476736037
 20
-73.3789791355839611
 30
0.0
 11
158.8659592819599027
 21
-64.1339829698591188
 31
0.0
  0
ARC
  5
14BD4
  8
0
 10
166.6967418852997866
 20
-74.7931926979561581
 30
0.0
 40
1.9999999999999989
 50
334.9999543613604942
 51
44.9999999999720828
  0
LINE
  5
14BD5
  8
0
 10
229.6400475168395019
 20
-17.3456150840183305
 30
0.0
 11
224.3226385249957104
 21
-19.8251422464517688
 31
0.0
  0
ARC
  5
14BD6
  8
0
 10
223.477407985676308
 20
-18.0125238819300115
 30
0.0
 40
1.9999999999999989
 50
224.9999999999351985
 51
294.9998108440806277
  0
LINE
  5
14BD7
  8
0
 10
232.1575700808818965
 20
-19.12664341843168
 30
0.0
 11
230.5355788547724103
 21
-17.5046521923222187
 31
0.0
  0
LINE
  5
14BD8
  8
0
 10
167.8108529929058932
 20
-83.4733605063868822
 30
0.0
 11
232.1575700808818965
 21
-19.12664341843168
 31
0.0
  0
ARC
  5
14BD9
  8
0
 10
229.9727303351754131
 20
-18.0731603804667316
 30
0.0
 40
0.8000000099999999
 50
44.9999899999522484
 51
115.0000000000785008
  0
LINE
  5
14BDA
  8
0
 10
222.06319442330161
 20
-19.4267374443010716
 30
0.0
 11
212.8092553466536003
 21
-10.1727983676302607
 31
0.0
  0
LINE
  5
14BDB
  8
0
 10
166.5045487248156917
 20
-80.7491786068621309
 30
0.0
 11
229.433388181377012
 21
-17.8203391503404305
 31
0.0
  0
LINE
  5
14BDC
  8
0
 10
169.1011865368188865
 20
-74.3692243668272681
 30
0.0
 11
223.0534339413273131
 21
-20.416976962329219
 31
0.0
  0
LINE
  5
14BDD
  8
画層1
 62
     7
 10
185.9127865913251867
 20
-37.2285770168406884
 30
0.0
 11
202.1055318804536967
 21
-53.4213223059688787
 31
0.0
1001
GENIUS_GENODEF_13
1002
{
1000
HIER
1070
     0
1002
}
1002
{
1000
MANEDIT
1070
     0
1002
}
1002
{
1000
NOSEL
1070
     0
1002
}
1002
{
1000
BEHIND
1070
     0
1002
}
1002
{
1000
OTHER
1070
     0
1002
}
1002
{
1000
REACTOR
1002
}
1001
GENIUS_GENOBJ-N-CEN_13
1002
{
1000
OWNER
1000
GEN
1002
}
1001
GENIUS_GENCEN_19
1002
{
1040
3.0
1002
}
  0
ARC
  5
14BDE
  8
0
  6
CENTER
 10
96.115774321389722
 20
-126.9115101676674016
 30
0.0
 40
126.911512130076801
 50
44.9635822756706887
 51
90.0142494113287341
  0
LINE
  5
14BDF
  8
0
 10
52.4342638774964982
 20
-122.6104753816439938
 30
0.0
 11
52.4342814569585016
 21
-105.6104342461690067
 31
0.0
  0
LINE
  5
14BE0
  8
0
 10
65.734228607984619
 20
-58.3604142461569495
 30
0.0
 11
47.284218615959503
 21
-76.8104242381818239
 31
0.0
  0
LINE
  5
14BE1
  8
0
 10
47.284218615959503
 20
-76.8104242381818239
 30
0.0
 11
-47.315781400013627
 21
-76.8104242381818239
 31
0.0
  0
LINE
  5
14BE2
  8
0
 10
14.9842182460909008
 20
-105.6104271412185938
 30
0.0
 11
14.9842186079729291
 21
-76.8104242461685658
 31
0.0
  0
LINE
  5
14BE3
  8
0
  6
CENTER
 10
-0.0157813920154695
 20
118.1897134470051043
 30
0.0
 11
-0.0157813920154695
 21
-330.7968754567388032
 31
0.0
1001
GENIUS_GENOBJ-N-CEN_13
1002
{
1000
OWNER
1000
GEN
1002
}
1001
GENIUS_GENODEF_13
1002
{
1000
HIER
1070
     0
1002
}
1002
{
1000
MANEDIT
1070
     0
1002
}
1002
{
1000
NOSEL
1070
     0
1002
}
1002
{
1000
BEHIND
1070
     0
1002
}
1002
{
1000
OTHER
1070
     0
1002
}
1002
{
1000
REACTOR
1002
}
1001
GENIUS_GENCEN_19
1002
{
1040
3.0
1002
}
  0
LINE
  5
14BE4
  8
0
  6
CENTER
 10
-0.0157813920155832
 20
-637.7352732935169115
 30
0.0
 11
-0.0157813920155832
 21
-359.4352732935424228
 31
0.0
  0
LINE
  5
14BE5
  8
0
  6
CENTER
 10
-243.4860699077717072
 20
-498.5852732935294966
 30
0.0
 11
243.4545071237407967
 21
-498.5852732935294966
 31
0.0
  0
CIRCLE
  5
14BE6
  8
0
 10
-0.01578139201456
 20
-498.5852732935294966
 30
0.0
 40
9.9999990000000007
  0
CIRCLE
  5
14BE7
  8
0
 10
-0.0157813920150147
 20
-498.5852732935294966
 30
0.0
 40
13.5
  0
CIRCLE
  5
14BE8
  8
0
 10
-0.01578139201456
 20
-498.5852732935294966
 30
0.0
 40
89.0000250000001643
  0
CIRCLE
  5
14BE9
  8
0
 10
-0.01578139201456
 20
-498.5852732935294966
 30
0.0
 40
98.4999900000001389
  0
CIRCLE
  5
14BEA
  8
0
 10
-0.0157813920150147
 20
-498.5852732935294966
 30
0.0
 40
25.0000199999999495
  0
LINE
  5
14BEB
  8
0
 10
100.4842186079855963
 20
-493.8684482935362894
 30
0.0
 11
100.4842186079855963
 21
-503.301993293536384
 31
0.0
  0
LINE
  5
14BEC
  8
0
 10
116.0480986079855938
 20
-493.585323293536419
 30
0.0
 11
103.548133607985605
 21
-493.585323293536419
 31
0.0
  0
LINE
  5
14BED
  8
0
 10
103.548133607985605
 20
-493.8353132935362169
 30
0.0
 11
101.548108607985796
 21
-493.8353132935362169
 31
0.0
  0
LINE
  5
14BEE
  8
0
 10
103.548133607985605
 20
-503.335323293536419
 30
0.0
 11
101.548108607985796
 21
-503.335323293536419
 31
0.0
  0
LINE
  5
14BEF
  8
0
 10
101.5480636079857959
 20
-493.8352682935363873
 30
0.0
 11
98.3626275500350857
 21
-493.9348268159782833
 31
0.0
  0
LINE
  5
14BF0
  8
0
 10
101.5495336079856941
 20
-503.335323293536419
 30
0.0
 11
98.3626275480794448
 21
-503.235719808453382
 31
0.0
  0
LINE
  5
14BF1
  8
0
 10
103.548178607985804
 20
-493.5852782935365894
 30
0.0
 11
103.548178607985804
 21
-503.5852682935363873
 31
0.0
  0
LINE
  5
14BF2
  8
0
 10
116.0481436079855939
 20
-493.5852782935365894
 30
0.0
 11
116.0481436079855939
 21
-503.5852682935363873
 31
0.0
  0
LINE
  5
14BF3
  8
0
 10
116.0480986079855938
 20
-503.5853132935362169
 30
0.0
 11
103.548133607985605
 21
-503.5853132935362169
 31
0.0
  0
LINE
  5
14BF4
  8
0
 10
-175.4673085932595029
 20
-536.7352732935296444
 30
0.0
 11
-90.8278154513843532
 21
-536.7352732935296444
 31
0.0
  0
LINE
  5
14BF5
  8
0
 10
-175.4673085932595029
 20
-460.4352732935295194
 30
0.0
 11
-90.8278154513843532
 21
-460.4352732935295194
 31
0.0
  0
POLYLINE
  5
14BF6
  8
0
 10
-195.0157813920149863
 20
-453.0852732935294966
 30
0.0
 66
     1
 70
     8
  0
VERTEX
  8
0
  5
14C84
 10
-195.016
 20
-453.085
 30
0.00000
  70
    32
  0
VERTEX
  8
0
  5
14C85
 10
-196.594
 20
-453.140
 30
0.00000
  70
    32
  0
VERTEX
  8
0
  5
14C86
 10
-198.169
 20
-453.304
 30
0.00000
  70
    32
  0
VERTEX
  8
0
  5
14C87
 10
-199.737
 20
-453.578
 30
0.00000
  70
    32
  0
VERTEX
  8
0
  5
14C88
 10
-201.292
 20
-453.960
 30
0.00000
  70
    32
  0
VERTEX
  8
0
  5
14C89
 10
-202.833
 20
-454.449
 30
0.00000
  70
    32
  0
VERTEX
  8
0
  5
14C8A
 10
-204.355
 20
-455.044
 30
0.00000
  70
    32
  0
VERTEX
  8
0
  5
14C8B
 10
-205.855
 20
-455.745
 30
0.00000
  70
    32
  0
VERTEX
  8
0
  5
14C8C
 10
-207.328
 20
-456.549
 30
0.00000
  70
    32
  0
VERTEX
  8
0
  5
14C8D
 10
-208.772
 20
-457.454
 30
0.00000
  70
    32
  0
VERTEX
  8
0
  5
14C8E
 10
-210.182
 20
-458.458
 30
0.00000
  70
    32
  0
VERTEX
  8
0
  5
14C8F
 10
-211.556
 20
-459.559
 30
0.00000
  70
    32
  0
VERTEX
  8
0
  5
14C90
 10
-212.890
 20
-460.753
 30
0.00000
  70
    32
  0
VERTEX
  8
0
  5
14C91
 10
-214.181
 20
-462.039
 30
0.00000
  70
    32
  0
VERTEX
  8
0
  5
14C92
 10
-215.426
 20
-463.413
 30
0.00000
  70
    32
  0
VERTEX
  8
0
  5
14C93
 10
-216.622
 20
-464.872
 30
0.00000
  70
    32
  0
VERTEX
  8
0
  5
14C94
 10
-217.766
 20
-466.412
 30
0.00000
  70
    32
  0
VERTEX
  8
0
  5
14C95
 10
-218.855
 20
-468.029
 30
0.00000
  70
    32
  0
VERTEX
  8
0
  5
14C96
 10
-219.886
 20
-469.720
 30
0.00000
  70
    32
  0
VERTEX
  8
0
  5
14C97
 10
-220.858
 20
-471.481
 30
0.00000
  70
    32
  0
VERTEX
  8
0
  5
14C98
 10
-221.767
 20
-473.307
 30
0.00000
  70
    32
  0
VERTEX
  8
0
  5
14C99
 10
-222.612
 20
-475.194
 30
0.00000
  70
    32
  0
VERTEX
  8
0
  5
14C9A
 10
-223.390
 20
-477.137
 30
0.00000
  70
    32
  0
VERTEX
  8
0
  5
14C9B
 10
-224.100
 20
-479.132
 30
0.00000
  70
    32
  0
VERTEX
  8
0
  5
14C9C
 10
-224.740
 20
-481.173
 30
0.00000
  70
    32
  0
VERTEX
  8
0
  5
14C9D
 10
-225.308
 20
-483.257
 30
0.00000
  70
    32
  0
VERTEX
  8
0
  5
14C9E
 10
-225.804
 20
-485.377
 30
0.00000
  70
    32
  0
VERTEX
  8
0
  5
14C9F
 10
-226.225
 20
-487.530
 30
0.00000
  70
    32
  0
VERTEX
  8
0
  5
14CA0
 10
-226.571
 20
-489.709
 30
0.00000
  70
    32
  0
VERTEX
  8
0
  5
14CA1
 10
-226.841
 20
-491.909
 30
0.00000
  70
    32
  0
VERTEX
  8
0
  5
14CA2
 10
-227.034
 20
-494.125
 30
0.00000
  70
    32
  0
VERTEX
  8
0
  5
14CA3
 10
-227.150
 20
-496.353
 30
0.00000
  70
    32
  0
VERTEX
  8
0
  5
14CA4
 10
-227.189
 20
-498.585
 30
0.00000
  70
    32
  0
VERTEX
  8
0
  5
14CA5
 10
-227.150
 20
-500.818
 30
0.00000
  70
    32
  0
VERTEX
  8
0
  5
14CA6
 10
-227.034
 20
-503.045
 30
0.00000
  70
    32
  0
VERTEX
  8
0
  5
14CA7
 10
-226.841
 20
-505.262
 30
0.00000
  70
    32
  0
VERTEX
  8
0
  5
14CA8
 10
-226.571
 20
-507.462
 30
0.00000
  70
    32
  0
VERTEX
  8
0
  5
14CA9
 10
-226.225
 20
-509.641
 30
0.00000
  70
    32
  0
VERTEX
  8
0
  5
14CAA
 10
-225.804
 20
-511.793
 30
0.00000
  70
    32
  0
VERTEX
  8
0
  5
14CAB
 10
-225.308
 20
-513.914
 30
0.00000
  70
    32
  0
VERTEX
  8
0
  5
14CAC
 10
-224.740
 20
-515.997
 30
0.00000
  70
    32
  0
VERTEX
  8
0
  5
14CAD
 10
-224.100
 20
-518.039
 30
0.00000
  70
    32
  0
VERTEX
  8
0
  5
14CAE
 10
-223.390
 20
-520.034
 30
0.00000
  70
    32
  0
VERTEX
  8
0
  5
14CAF
 10
-222.612
 20
-521.977
 30
0.00000
  70
    32
  0
VERTEX
  8
0
  5
14CB0
 10
-221.767
 20
-523.864
 30
0.00000
  70
    32
  0
VERTEX
  8
0
  5
14CB1
 10
-220.858
 20
-525.690
 30
0.00000
  70
    32
  0
VERTEX
  8
0
  5
14CB2
 10
-219.886
 20
-527.450
 30
0.00000
  70
    32
  0
VERTEX
  8
0
  5
14CB3
 10
-218.855
 20
-529.141
 30
0.00000
  70
    32
  0
VERTEX
  8
0
  5
14CB4
 10
-217.766
 20
-530.759
 30
0.00000
  70
    32
  0
VERTEX
  8
0
  5
14CB5
 10
-216.622
 20
-532.299
 30
0.00000
  70
    32
  0
VERTEX
  8
0
  5
14CB6
 10
-215.426
 20
-533.757
 30
0.00000
  70
    32
  0
VERTEX
  8
0
  5
14CB7
 10
-214.181
 20
-535.131
 30
0.00000
  70
    32
  0
VERTEX
  8
0
  5
14CB8
 10
-212.890
 20
-536.417
 30
0.00000
  70
    32
  0
VERTEX
  8
0
  5
14CB9
 10
-211.556
 20
-537.612
 30
0.00000
  70
    32
  0
VERTEX
  8
0
  5
14CBA
 10
-210.182
 20
-538.713
 30
0.00000
  70
    32
  0
VERTEX
  8
0
  5
14CBB
 10
-208.772
 20
-539.717
 30
0.00000
  70
    32
  0
VERTEX
  8
0
  5
14CBC
 10
-207.328
 20
-540.622
 30
0.00000
  70
    32
  0
VERTEX
  8
0
  5
14CBD
 10
-205.855
 20
-541.426
 30
0.00000
  70
    32
  0
VERTEX
  8
0
  5
14CBE
 10
-204.355
 20
-542.126
 30
0.00000
  70
    32
  0
VERTEX
  8
0
  5
14CBF
 10
-202.833
 20
-542.722
 30
0.00000
  70
    32
  0
VERTEX
  8
0
  5
14CC0
 10
-201.292
 20
-543.211
 30
0.00000
  70
    32
  0
VERTEX
  8
0
  5
14CC1
 10
-199.737
 20
-543.593
 30
0.00000
  70
    32
  0
VERTEX
  8
0
  5
14CC2
 10
-198.169
 20
-543.866
 30
0.00000
  70
    32
  0
VERTEX
  8
0
  5
14CC3
 10
-196.594
 20
-544.030
 30
0.00000
  70
    32
  0
VERTEX
  8
0
  5
14CC4
 10
-195.016
 20
-544.085
 30
0.00000
  70
    32
  0
VERTEX
  8
0
  5
14CC5
 10
-193.437
 20
-544.030
 30
0.00000
  70
    32
  0
VERTEX
  8
0
  5
14CC6
 10
-191.862
 20
-543.866
 30
0.00000
  70
    32
  0
VERTEX
  8
0
  5
14CC7
 10
-190.295
 20
-543.593
 30
0.00000
  70
    32
  0
VERTEX
  8
0
  5
14CC8
 10
-188.739
 20
-543.211
 30
0.00000
  70
    32
  0
VERTEX
  8
0
  5
14CC9
 10
-187.198
 20
-542.722
 30
0.00000
  70
    32
  0
VERTEX
  8
0
  5
14CCA
 10
-185.676
 20
-542.126
 30
0.00000
  70
    32
  0
VERTEX
  8
0
  5
14CCB
 10
-184.177
 20
-541.426
 30
0.00000
  70
    32
  0
VERTEX
  8
0
  5
14CCC
 10
-182.704
 20
-540.622
 30
0.00000
  70
    32
  0
VERTEX
  8
0
  5
14CCD
 10
-181.260
 20
-539.717
 30
0.00000
  70
    32
  0
VERTEX
  8
0
  5
14CCE
 10
-179.849
 20
-538.713
 30
0.00000
  70
    32
  0
VERTEX
  8
0
  5
14CCF
 10
-178.475
 20
-537.612
 30
0.00000
  70
    32
  0
VERTEX
  8
0
  5
14CD0
 10
-177.141
 20
-536.417
 30
0.00000
  70
    32
  0
VERTEX
  8
0
  5
14CD1
 10
-175.850
 20
-535.131
 30
0.00000
  70
    32
  0
VERTEX
  8
0
  5
14CD2
 10
-174.605
 20
-533.757
 30
0.00000
  70
    32
  0
VERTEX
  8
0
  5
14CD3
 10
-173.409
 20
-532.299
 30
0.00000
  70
    32
  0
VERTEX
  8
0
  5
14CD4
 10
-172.266
 20
-530.759
 30
0.00000
  70
    32
  0
VERTEX
  8
0
  5
14CD5
 10
-171.177
 20
-529.141
 30
0.00000
  70
    32
  0
VERTEX
  8
0
  5
14CD6
 10
-170.145
 20
-527.450
 30
0.00000
  70
    32
  0
VERTEX
  8
0
  5
14CD7
 10
-169.174
 20
-525.690
 30
0.00000
  70
    32
  0
VERTEX
  8
0
  5
14CD8
 10
-168.265
 20
-523.864
 30
0.00000
  70
    32
  0
VERTEX
  8
0
  5
14CD9
 10
-167.420
 20
-521.977
 30
0.00000
  70
    32
  0
VERTEX
  8
0
  5
14CDA
 10
-166.641
 20
-520.034
 30
0.00000
  70
    32
  0
VERTEX
  8
0
  5
14CDB
 10
-165.931
 20
-518.039
 30
0.00000
  70
    32
  0
VERTEX
  8
0
  5
14CDC
 10
-165.291
 20
-515.997
 30
0.00000
  70
    32
  0
VERTEX
  8
0
  5
14CDD
 10
-164.723
 20
-513.914
 30
0.00000
  70
    32
  0
VERTEX
  8
0
  5
14CDE
 10
-164.228
 20
-511.793
 30
0.00000
  70
    32
  0
VERTEX
  8
0
  5
14CDF
 10
-163.807
 20
-509.641
 30
0.00000
  70
    32
  0
VERTEX
  8
0
  5
14CE0
 10
-163.461
 20
-507.462
 30
0.00000
  70
    32
  0
VERTEX
  8
0
  5
14CE1
 10
-163.191
 20
-505.262
 30
0.00000
  70
    32
  0
VERTEX
  8
0
  5
14CE2
 10
-162.997
 20
-503.045
 30
0.00000
  70
    32
  0
VERTEX
  8
0
  5
14CE3
 10
-162.881
 20
-500.818
 30
0.00000
  70
    32
  0
VERTEX
  8
0
  5
14CE4
 10
-162.842
 20
-498.585
 30
0.00000
  70
    32
  0
VERTEX
  8
0
  5
14CE5
 10
-162.881
 20
-496.353
 30
0.00000
  70
    32
  0
VERTEX
  8
0
  5
14CE6
 10
-162.997
 20
-494.125
 30
0.00000
  70
    32
  0
VERTEX
  8
0
  5
14CE7
 10
-163.191
 20
-491.909
 30
0.00000
  70
    32
  0
VERTEX
  8
0
  5
14CE8
 10
-163.461
 20
-489.709
 30
0.00000
  70
    32
  0
VERTEX
  8
0
  5
14CE9
 10
-163.807
 20
-487.530
 30
0.00000
  70
    32
  0
VERTEX
  8
0
  5
14CEA
 10
-164.228
 20
-485.377
 30
0.00000
  70
    32
  0
VERTEX
  8
0
  5
14CEB
 10
-164.723
 20
-483.257
 30
0.00000
  70
    32
  0
VERTEX
  8
0
  5
14CEC
 10
-165.291
 20
-481.173
 30
0.00000
  70
    32
  0
VERTEX
  8
0
  5
14CED
 10
-165.931
 20
-479.132
 30
0.00000
  70
    32
  0
VERTEX
  8
0
  5
14CEE
 10
-166.641
 20
-477.137
 30
0.00000
  70
    32
  0
VERTEX
  8
0
  5
14CEF
 10
-167.420
 20
-475.194
 30
0.00000
  70
    32
  0
VERTEX
  8
0
  5
14CF0
 10
-168.265
 20
-473.307
 30
0.00000
  70
    32
  0
VERTEX
  8
0
  5
14CF1
 10
-169.174
 20
-471.481
 30
0.00000
  70
    32
  0
VERTEX
  8
0
  5
14CF2
 10
-170.145
 20
-469.720
 30
0.00000
  70
    32
  0
VERTEX
  8
0
  5
14CF3
 10
-171.177
 20
-468.029
 30
0.00000
  70
    32
  0
VERTEX
  8
0
  5
14CF4
 10
-172.266
 20
-466.412
 30
0.00000
  70
    32
  0
VERTEX
  8
0
  5
14CF5
 10
-173.409
 20
-464.872
 30
0.00000
  70
    32
  0
VERTEX
  8
0
  5
14CF6
 10
-174.605
 20
-463.413
 30
0.00000
  70
    32
  0
VERTEX
  8
0
  5
14CF7
 10
-175.850
 20
-462.039
 30
0.00000
  70
    32
  0
VERTEX
  8
0
  5
14CF8
 10
-177.141
 20
-460.753
 30
0.00000
  70
    32
  0
VERTEX
  8
0
  5
14CF9
 10
-178.475
 20
-459.559
 30
0.00000
  70
    32
  0
VERTEX
  8
0
  5
14CFA
 10
-179.849
 20
-458.458
 30
0.00000
  70
    32
  0
VERTEX
  8
0
  5
14CFB
 10
-181.260
 20
-457.454
 30
0.00000
  70
    32
  0
VERTEX
  8
0
  5
14CFC
 10
-182.704
 20
-456.549
 30
0.00000
  70
    32
  0
VERTEX
  8
0
  5
14CFD
 10
-184.177
 20
-455.745
 30
0.00000
  70
    32
  0
VERTEX
  8
0
  5
14CFE
 10
-185.676
 20
-455.044
 30
0.00000
  70
    32
  0
VERTEX
  8
0
  5
14CFF
 10
-187.198
 20
-454.449
 30
0.00000
  70
    32
  0
VERTEX
  8
0
  5
14D00
 10
-188.739
 20
-453.960
 30
0.00000
  70
    32
  0
VERTEX
  8
0
  5
14D01
 10
-190.295
 20
-453.578
 30
0.00000
  70
    32
  0
VERTEX
  8
0
  5
14D02
 10
-191.862
 20
-453.304
 30
0.00000
  70
    32
  0
VERTEX
  8
0
  5
14D03
 10
-193.437
 20
-453.140
 30
0.00000
  70
    32
  0
VERTEX
  8
0
  5
14D04
 10
-195.016
 20
-453.085
 30
0.00000
  70
    32
  0
SEQEND
  8
0
  5
14D05
  0
POLYLINE
  5
14BF7
  8
0
 10
-193.0005270656334062
 20
-544.0852732935294398
 30
0.0
 66
     1
 70
     8
  0
VERTEX
  8
0
  5
14D06
 10
-193.001
 20
-544.085
 30
0.00000
  70
    32
  0
VERTEX
  8
0
  5
14D07
 10
-192.211
 20
-544.072
 30
0.00000
  70
    32
  0
VERTEX
  8
0
  5
14D08
 10
-191.422
 20
-544.030
 30
0.00000
  70
    32
  0
VERTEX
  8
0
  5
14D09
 10
-190.634
 20
-543.962
 30
0.00000
  70
    32
  0
VERTEX
  8
0
  5
14D0A
 10
-189.847
 20
-543.866
 30
0.00000
  70
    32
  0
VERTEX
  8
0
  5
14D0B
 10
-189.062
 20
-543.743
 30
0.00000
  70
    32
  0
VERTEX
  8
0
  5
14D0C
 10
-188.280
 20
-543.593
 30
0.00000
  70
    32
  0
VERTEX
  8
0
  5
14D0D
 10
-187.500
 20
-543.415
 30
0.00000
  70
    32
  0
VERTEX
  8
0
  5
14D0E
 10
-186.724
 20
-543.211
 30
0.00000
  70
    32
  0
VERTEX
  8
0
  5
14D0F
 10
-185.951
 20
-542.980
 30
0.00000
  70
    32
  0
VERTEX
  8
0
  5
14D10
 10
-185.183
 20
-542.722
 30
0.00000
  70
    32
  0
VERTEX
  8
0
  5
14D11
 10
-184.419
 20
-542.437
 30
0.00000
  70
    32
  0
VERTEX
  8
0
  5
14D12
 10
-183.661
 20
-542.126
 30
0.00000
  70
    32
  0
VERTEX
  8
0
  5
14D13
 10
-182.908
 20
-541.789
 30
0.00000
  70
    32
  0
VERTEX
  8
0
  5
14D14
 10
-182.162
 20
-541.426
 30
0.00000
  70
    32
  0
VERTEX
  8
0
  5
14D15
 10
-181.421
 20
-541.036
 30
0.00000
  70
    32
  0
VERTEX
  8
0
  5
14D16
 10
-180.688
 20
-540.622
 30
0.00000
  70
    32
  0
VERTEX
  8
0
  5
14D17
 10
-179.963
 20
-540.182
 30
0.00000
  70
    32
  0
VERTEX
  8
0
  5
14D18
 10
-179.245
 20
-539.717
 30
0.00000
  70
    32
  0
VERTEX
  8
0
  5
14D19
 10
-178.535
 20
-539.227
 30
0.00000
  70
    32
  0
VERTEX
  8
0
  5
14D1A
 10
-177.834
 20
-538.713
 30
0.00000
  70
    32
  0
VERTEX
  8
0
  5
14D1B
 10
-177.142
 20
-538.174
 30
0.00000
  70
    32
  0
VERTEX
  8
0
  5
14D1C
 10
-176.460
 20
-537.612
 30
0.00000
  70
    32
  0
VERTEX
  8
0
  5
14D1D
 10
-175.788
 20
-537.026
 30
0.00000
  70
    32
  0
VERTEX
  8
0
  5
14D1E
 10
-175.126
 20
-536.417
 30
0.00000
  70
    32
  0
VERTEX
  8
0
  5
14D1F
 10
-174.475
 20
-535.785
 30
0.00000
  70
    32
  0
VERTEX
  8
0
  5
14D20
 10
-173.835
 20
-535.131
 30
0.00000
  70
    32
  0
VERTEX
  8
0
  5
14D21
 10
-173.206
 20
-534.455
 30
0.00000
  70
    32
  0
VERTEX
  8
0
  5
14D22
 10
-172.590
 20
-533.757
 30
0.00000
  70
    32
  0
VERTEX
  8
0
  5
14D23
 10
-171.986
 20
-533.038
 30
0.00000
  70
    32
  0
VERTEX
  8
0
  5
14D24
 10
-171.394
 20
-532.299
 30
0.00000
  70
    32
  0
VERTEX
  8
0
  5
14D25
 10
-170.816
 20
-531.539
 30
0.00000
  70
    32
  0
VERTEX
  8
0
  5
14D26
 10
-170.251
 20
-530.759
 30
0.00000
  70
    32
  0
VERTEX
  8
0
  5
14D27
 10
-169.699
 20
-529.959
 30
0.00000
  70
    32
  0
VERTEX
  8
0
  5
14D28
 10
-169.162
 20
-529.141
 30
0.00000
  70
    32
  0
VERTEX
  8
0
  5
14D29
 10
-168.639
 20
-528.305
 30
0.00000
  70
    32
  0
VERTEX
  8
0
  5
14D2A
 10
-168.130
 20
-527.450
 30
0.00000
  70
    32
  0
VERTEX
  8
0
  5
14D2B
 10
-167.637
 20
-526.578
 30
0.00000
  70
    32
  0
VERTEX
  8
0
  5
14D2C
 10
-167.159
 20
-525.690
 30
0.00000
  70
    32
  0
VERTEX
  8
0
  5
14D2D
 10
-166.696
 20
-524.785
 30
0.00000
  70
    32
  0
VERTEX
  8
0
  5
14D2E
 10
-166.249
 20
-523.864
 30
0.00000
  70
    32
  0
VERTEX
  8
0
  5
14D2F
 10
-165.819
 20
-522.928
 30
0.00000
  70
    32
  0
VERTEX
  8
0
  5
14D30
 10
-165.405
 20
-521.977
 30
0.00000
  70
    32
  0
VERTEX
  8
0
  5
14D31
 10
-165.007
 20
-521.012
 30
0.00000
  70
    32
  0
VERTEX
  8
0
  5
14D32
 10
-164.626
 20
-520.034
 30
0.00000
  70
    32
  0
VERTEX
  8
0
  5
14D33
 10
-164.263
 20
-519.043
 30
0.00000
  70
    32
  0
VERTEX
  8
0
  5
14D34
 10
-163.916
 20
-518.039
 30
0.00000
  70
    32
  0
VERTEX
  8
0
  5
14D35
 10
-163.587
 20
-517.024
 30
0.00000
  70
    32
  0
VERTEX
  8
0
  5
14D36
 10
-163.276
 20
-515.997
 30
0.00000
  70
    32
  0
VERTEX
  8
0
  5
14D37
 10
-162.983
 20
-514.960
 30
0.00000
  70
    32
  0
VERTEX
  8
0
  5
14D38
 10
-162.708
 20
-513.914
 30
0.00000
  70
    32
  0
VERTEX
  8
0
  5
14D39
 10
-162.451
 20
-512.858
 30
0.00000
  70
    32
  0
VERTEX
  8
0
  5
14D3A
 10
-162.213
 20
-511.793
 30
0.00000
  70
    32
  0
VERTEX
  8
0
  5
14D3B
 10
-161.993
 20
-510.721
 30
0.00000
  70
    32
  0
VERTEX
  8
0
  5
14D3C
 10
-161.791
 20
-509.641
 30
0.00000
  70
    32
  0
VERTEX
  8
0
  5
14D3D
 10
-161.609
 20
-508.554
 30
0.00000
  70
    32
  0
VERTEX
  8
0
  5
14D3E
 10
-161.445
 20
-507.462
 30
0.00000
  70
    32
  0
VERTEX
  8
0
  5
14D3F
 10
-161.301
 20
-506.364
 30
0.00000
  70
    32
  0
VERTEX
  8
0
  5
14D40
 10
-161.175
 20
-505.262
 30
0.00000
  70
    32
  0
VERTEX
  8
0
  5
14D41
 10
-161.069
 20
-504.155
 30
0.00000
  70
    32
  0
VERTEX
  8
0
  5
14D42
 10
-160.982
 20
-503.045
 30
0.00000
  70
    32
  0
VERTEX
  8
0
  5
14D43
 10
-160.914
 20
-501.932
 30
0.00000
  70
    32
  0
VERTEX
  8
0
  5
14D44
 10
-160.866
 20
-500.818
 30
0.00000
  70
    32
  0
VERTEX
  8
0
  5
14D45
 10
-160.837
 20
-499.702
 30
0.00000
  70
    32
  0
VERTEX
  8
0
  5
14D46
 10
-160.827
 20
-498.585
 30
0.00000
  70
    32
  0
VERTEX
  8
0
  5
14D47
 10
-160.837
 20
-497.469
 30
0.00000
  70
    32
  0
VERTEX
  8
0
  5
14D48
 10
-160.866
 20
-496.353
 30
0.00000
  70
    32
  0
VERTEX
  8
0
  5
14D49
 10
-160.914
 20
-495.238
 30
0.00000
  70
    32
  0
VERTEX
  8
0
  5
14D4A
 10
-160.982
 20
-494.125
 30
0.00000
  70
    32
  0
VERTEX
  8
0
  5
14D4B
 10
-161.069
 20
-493.016
 30
0.00000
  70
    32
  0
VERTEX
  8
0
  5
14D4C
 10
-161.175
 20
-491.909
 30
0.00000
  70
    32
  0
VERTEX
  8
0
  5
14D4D
 10
-161.301
 20
-490.807
 30
0.00000
  70
    32
  0
VERTEX
  8
0
  5
14D4E
 10
-161.445
 20
-489.709
 30
0.00000
  70
    32
  0
VERTEX
  8
0
  5
14D4F
 10
-161.609
 20
-488.616
 30
0.00000
  70
    32
  0
VERTEX
  8
0
  5
14D50
 10
-161.791
 20
-487.530
 30
0.00000
  70
    32
  0
VERTEX
  8
0
  5
14D51
 10
-161.993
 20
-486.450
 30
0.00000
  70
    32
  0
VERTEX
  8
0
  5
14D52
 10
-162.213
 20
-485.377
 30
0.00000
  70
    32
  0
VERTEX
  8
0
  5
14D53
 10
-162.451
 20
-484.313
 30
0.00000
  70
    32
  0
VERTEX
  8
0
  5
14D54
 10
-162.708
 20
-483.257
 30
0.00000
  70
    32
  0
VERTEX
  8
0
  5
14D55
 10
-162.983
 20
-482.210
 30
0.00000
  70
    32
  0
VERTEX
  8
0
  5
14D56
 10
-163.276
 20
-481.173
 30
0.00000
  70
    32
  0
VERTEX
  8
0
  5
14D57
 10
-163.587
 20
-480.147
 30
0.00000
  70
    32
  0
VERTEX
  8
0
  5
14D58
 10
-163.916
 20
-479.132
 30
0.00000
  70
    32
  0
VERTEX
  8
0
  5
14D59
 10
-164.263
 20
-478.128
 30
0.00000
  70
    32
  0
VERTEX
  8
0
  5
14D5A
 10
-164.626
 20
-477.137
 30
0.00000
  70
    32
  0
VERTEX
  8
0
  5
14D5B
 10
-165.007
 20
-476.158
 30
0.00000
  70
    32
  0
VERTEX
  8
0
  5
14D5C
 10
-165.405
 20
-475.194
 30
0.00000
  70
    32
  0
VERTEX
  8
0
  5
14D5D
 10
-165.819
 20
-474.243
 30
0.00000
  70
    32
  0
VERTEX
  8
0
  5
14D5E
 10
-166.249
 20
-473.307
 30
0.00000
  70
    32
  0
VERTEX
  8
0
  5
14D5F
 10
-166.696
 20
-472.386
 30
0.00000
  70
    32
  0
VERTEX
  8
0
  5
14D60
 10
-167.159
 20
-471.481
 30
0.00000
  70
    32
  0
VERTEX
  8
0
  5
14D61
 10
-167.637
 20
-470.592
 30
0.00000
  70
    32
  0
VERTEX
  8
0
  5
14D62
 10
-168.130
 20
-469.720
 30
0.00000
  70
    32
  0
VERTEX
  8
0
  5
14D63
 10
-168.639
 20
-468.866
 30
0.00000
  70
    32
  0
VERTEX
  8
0
  5
14D64
 10
-169.162
 20
-468.029
 30
0.00000
  70
    32
  0
VERTEX
  8
0
  5
14D65
 10
-169.699
 20
-467.211
 30
0.00000
  70
    32
  0
VERTEX
  8
0
  5
14D66
 10
-170.251
 20
-466.412
 30
0.00000
  70
    32
  0
VERTEX
  8
0
  5
14D67
 10
-170.816
 20
-465.632
 30
0.00000
  70
    32
  0
VERTEX
  8
0
  5
14D68
 10
-171.394
 20
-464.872
 30
0.00000
  70
    32
  0
VERTEX
  8
0
  5
14D69
 10
-171.986
 20
-464.132
 30
0.00000
  70
    32
  0
VERTEX
  8
0
  5
14D6A
 10
-172.590
 20
-463.413
 30
0.00000
  70
    32
  0
VERTEX
  8
0
  5
14D6B
 10
-173.206
 20
-462.716
 30
0.00000
  70
    32
  0
VERTEX
  8
0
  5
14D6C
 10
-173.835
 20
-462.039
 30
0.00000
  70
    32
  0
VERTEX
  8
0
  5
14D6D
 10
-174.475
 20
-461.385
 30
0.00000
  70
    32
  0
VERTEX
  8
0
  5
14D6E
 10
-175.126
 20
-460.753
 30
0.00000
  70
    32
  0
VERTEX
  8
0
  5
14D6F
 10
-175.788
 20
-460.144
 30
0.00000
  70
    32
  0
VERTEX
  8
0
  5
14D70
 10
-176.460
 20
-459.559
 30
0.00000
  70
    32
  0
VERTEX
  8
0
  5
14D71
 10
-177.142
 20
-458.996
 30
0.00000
  70
    32
  0
VERTEX
  8
0
  5
14D72
 10
-177.834
 20
-458.458
 30
0.00000
  70
    32
  0
VERTEX
  8
0
  5
14D73
 10
-178.535
 20
-457.944
 30
0.00000
  70
    32
  0
VERTEX
  8
0
  5
14D74
 10
-179.245
 20
-457.454
 30
0.00000
  70
    32
  0
VERTEX
  8
0
  5
14D75
 10
-179.963
 20
-456.989
 30
0.00000
  70
    32
  0
VERTEX
  8
0
  5
14D76
 10
-180.688
 20
-456.549
 30
0.00000
  70
    32
  0
VERTEX
  8
0
  5
14D77
 10
-181.421
 20
-456.134
 30
0.00000
  70
    32
  0
VERTEX
  8
0
  5
14D78
 10
-182.162
 20
-455.745
 30
0.00000
  70
    32
  0
VERTEX
  8
0
  5
14D79
 10
-182.908
 20
-455.382
 30
0.00000
  70
    32
  0
VERTEX
  8
0
  5
14D7A
 10
-183.661
 20
-455.044
 30
0.00000
  70
    32
  0
VERTEX
  8
0
  5
14D7B
 10
-184.419
 20
-454.733
 30
0.00000
  70
    32
  0
VERTEX
  8
0
  5
14D7C
 10
-185.183
 20
-454.449
 30
0.00000
  70
    32
  0
VERTEX
  8
0
  5
14D7D
 10
-185.951
 20
-454.191
 30
0.00000
  70
    32
  0
VERTEX
  8
0
  5
14D7E
 10
-186.724
 20
-453.960
 30
0.00000
  70
    32
  0
VERTEX
  8
0
  5
14D7F
 10
-187.500
 20
-453.755
 30
0.00000
  70
    32
  0
VERTEX
  8
0
  5
14D80
 10
-188.280
 20
-453.578
 30
0.00000
  70
    32
  0
VERTEX
  8
0
  5
14D81
 10
-189.062
 20
-453.427
 30
0.00000
  70
    32
  0
VERTEX
  8
0
  5
14D82
 10
-189.847
 20
-453.304
 30
0.00000
  70
    32
  0
VERTEX
  8
0
  5
14D83
 10
-190.634
 20
-453.209
 30
0.00000
  70
    32
  0
VERTEX
  8
0
  5
14D84
 10
-191.422
 20
-453.140
 30
0.00000
  70
    32
  0
VERTEX
  8
0
  5
14D85
 10
-192.211
 20
-453.099
 30
0.00000
  70
    32
  0
VERTEX
  8
0
  5
14D86
 10
-193.001
 20
-453.085
 30
0.00000
  70
    32
  0
SEQEND
  8
0
  5
14D87
  0
LINE
  5
14BF8
  8
0
 10
-193.0005270656334062
 20
-453.0852732935294966
 30
0.0
 11
-195.0157813920149863
 21
-453.0852732935294966
 31
0.0
  0
LINE
  5
14BF9
  8
0
 10
-193.0005270656334062
 20
-544.0852732935295535
 30
0.0
 11
-195.0157813920149863
 21
-544.0852732935295535
 31
0.0
  0
POLYLINE
  5
14BFA
  8
0
 10
-195.0157813920149863
 20
-462.4352732935294057
 30
0.0
 66
     1
 70
     8
  0
VERTEX
  8
0
  5
14D88
 10
-195.016
 20
-462.435
 30
0.00000
  70
    32
  0
VERTEX
  8
0
  5
14D89
 10
-196.270
 20
-462.479
 30
0.00000
  70
    32
  0
VERTEX
  8
0
  5
14D8A
 10
-197.521
 20
-462.609
 30
0.00000
  70
    32
  0
VERTEX
  8
0
  5
14D8B
 10
-198.766
 20
-462.827
 30
0.00000
  70
    32
  0
VERTEX
  8
0
  5
14D8C
 10
-200.003
 20
-463.130
 30
0.00000
  70
    32
  0
VERTEX
  8
0
  5
14D8D
 10
-201.227
 20
-463.519
 30
0.00000
  70
    32
  0
VERTEX
  8
0
  5
14D8E
 10
-202.436
 20
-463.992
 30
0.00000
  70
    32
  0
VERTEX
  8
0
  5
14D8F
 10
-203.627
 20
-464.548
 30
0.00000
  70
    32
  0
VERTEX
  8
0
  5
14D90
 10
-204.798
 20
-465.187
 30
0.00000
  70
    32
  0
VERTEX
  8
0
  5
14D91
 10
-205.945
 20
-465.906
 30
0.00000
  70
    32
  0
VERTEX
  8
0
  5
14D92
 10
-207.066
 20
-466.704
 30
0.00000
  70
    32
  0
VERTEX
  8
0
  5
14D93
 10
-208.157
 20
-467.578
 30
0.00000
  70
    32
  0
VERTEX
  8
0
  5
14D94
 10
-209.217
 20
-468.528
 30
0.00000
  70
    32
  0
VERTEX
  8
0
  5
14D95
 10
-210.243
 20
-469.549
 30
0.00000
  70
    32
  0
VERTEX
  8
0
  5
14D96
 10
-211.232
 20
-470.641
 30
0.00000
  70
    32
  0
VERTEX
  8
0
  5
14D97
 10
-212.182
 20
-471.800
 30
0.00000
  70
    32
  0
VERTEX
  8
0
  5
14D98
 10
-213.091
 20
-473.023
 30
0.00000
  70
    32
  0
VERTEX
  8
0
  5
14D99
 10
-213.956
 20
-474.308
 30
0.00000
  70
    32
  0
VERTEX
  8
0
  5
14D9A
 10
-214.775
 20
-475.652
 30
0.00000
  70
    32
  0
VERTEX
  8
0
  5
14D9B
 10
-215.547
 20
-477.051
 30
0.00000
  70
    32
  0
VERTEX
  8
0
  5
14D9C
 10
-216.270
 20
-478.501
 30
0.00000
  70
    32
  0
VERTEX
  8
0
  5
14D9D
 10
-216.941
 20
-480.000
 30
0.00000
  70
    32
  0
VERTEX
  8
0
  5
14D9E
 10
-217.559
 20
-481.544
 30
0.00000
  70
    32
  0
VERTEX
  8
0
  5
14D9F
 10
-218.123
 20
-483.129
 30
0.00000
  70
    32
  0
VERTEX
  8
0
  5
14DA0
 10
-218.632
 20
-484.751
 30
0.00000
  70
    32
  0
VERTEX
  8
0
  5
14DA1
 10
-219.083
 20
-486.407
 30
0.00000
  70
    32
  0
VERTEX
  8
0
  5
14DA2
 10
-219.477
 20
-488.091
 30
0.00000
  70
    32
  0
VERTEX
  8
0
  5
14DA3
 10
-219.812
 20
-489.802
 30
0.00000
  70
    32
  0
VERTEX
  8
0
  5
14DA4
 10
-220.087
 20
-491.533
 30
0.00000
  70
    32
  0
VERTEX
  8
0
  5
14DA5
 10
-220.301
 20
-493.281
 30
0.00000
  70
    32
  0
VERTEX
  8
0
  5
14DA6
 10
-220.455
 20
-495.042
 30
0.00000
  70
    32
  0
VERTEX
  8
0
  5
14DA7
 10
-220.547
 20
-496.811
 30
0.00000
  70
    32
  0
VERTEX
  8
0
  5
14DA8
 10
-220.578
 20
-498.585
 30
0.00000
  70
    32
  0
VERTEX
  8
0
  5
14DA9
 10
-220.547
 20
-500.359
 30
0.00000
  70
    32
  0
VERTEX
  8
0
  5
14DAA
 10
-220.455
 20
-502.129
 30
0.00000
  70
    32
  0
VERTEX
  8
0
  5
14DAB
 10
-220.301
 20
-503.890
 30
0.00000
  70
    32
  0
VERTEX
  8
0
  5
14DAC
 10
-220.087
 20
-505.638
 30
0.00000
  70
    32
  0
VERTEX
  8
0
  5
14DAD
 10
-219.812
 20
-507.369
 30
0.00000
  70
    32
  0
VERTEX
  8
0
  5
14DAE
 10
-219.477
 20
-509.079
 30
0.00000
  70
    32
  0
VERTEX
  8
0
  5
14DAF
 10
-219.083
 20
-510.764
 30
0.00000
  70
    32
  0
VERTEX
  8
0
  5
14DB0
 10
-218.632
 20
-512.419
 30
0.00000
  70
    32
  0
VERTEX
  8
0
  5
14DB1
 10
-218.123
 20
-514.041
 30
0.00000
  70
    32
  0
VERTEX
  8
0
  5
14DB2
 10
-217.559
 20
-515.626
 30
0.00000
  70
    32
  0
VERTEX
  8
0
  5
14DB3
 10
-216.941
 20
-517.170
 30
0.00000
  70
    32
  0
VERTEX
  8
0
  5
14DB4
 10
-216.270
 20
-518.669
 30
0.00000
  70
    32
  0
VERTEX
  8
0
  5
14DB5
 10
-215.547
 20
-520.120
 30
0.00000
  70
    32
  0
VERTEX
  8
0
  5
14DB6
 10
-214.775
 20
-521.519
 30
0.00000
  70
    32
  0
VERTEX
  8
0
  5
14DB7
 10
-213.956
 20
-522.862
 30
0.00000
  70
    32
  0
VERTEX
  8
0
  5
14DB8
 10
-213.091
 20
-524.147
 30
0.00000
  70
    32
  0
VERTEX
  8
0
  5
14DB9
 10
-212.182
 20
-525.371
 30
0.00000
  70
    32
  0
VERTEX
  8
0
  5
14DBA
 10
-211.232
 20
-526.530
 30
0.00000
  70
    32
  0
VERTEX
  8
0
  5
14DBB
 10
-210.243
 20
-527.621
 30
0.00000
  70
    32
  0
VERTEX
  8
0
  5
14DBC
 10
-209.217
 20
-528.643
 30
0.00000
  70
    32
  0
VERTEX
  8
0
  5
14DBD
 10
-208.157
 20
-529.592
 30
0.00000
  70
    32
  0
VERTEX
  8
0
  5
14DBE
 10
-207.066
 20
-530.467
 30
0.00000
  70
    32
  0
VERTEX
  8
0
  5
14DBF
 10
-205.945
 20
-531.264
 30
0.00000
  70
    32
  0
VERTEX
  8
0
  5
14DC0
 10
-204.798
 20
-531.984
 30
0.00000
  70
    32
  0
VERTEX
  8
0
  5
14DC1
 10
-203.627
 20
-532.622
 30
0.00000
  70
    32
  0
VERTEX
  8
0
  5
14DC2
 10
-202.436
 20
-533.179
 30
0.00000
  70
    32
  0
VERTEX
  8
0
  5
14DC3
 10
-201.227
 20
-533.652
 30
0.00000
  70
    32
  0
VERTEX
  8
0
  5
14DC4
 10
-200.003
 20
-534.041
 30
0.00000
  70
    32
  0
VERTEX
  8
0
  5
14DC5
 10
-198.766
 20
-534.344
 30
0.00000
  70
    32
  0
VERTEX
  8
0
  5
14DC6
 10
-197.521
 20
-534.561
 30
0.00000
  70
    32
  0
VERTEX
  8
0
  5
14DC7
 10
-196.270
 20
-534.692
 30
0.00000
  70
    32
  0
VERTEX
  8
0
  5
14DC8
 10
-195.016
 20
-534.735
 30
0.00000
  70
    32
  0
VERTEX
  8
0
  5
14DC9
 10
-193.762
 20
-534.692
 30
0.00000
  70
    32
  0
VERTEX
  8
0
  5
14DCA
 10
-192.510
 20
-534.561
 30
0.00000
  70
    32
  0
VERTEX
  8
0
  5
14DCB
 10
-191.265
 20
-534.344
 30
0.00000
  70
    32
  0
VERTEX
  8
0
  5
14DCC
 10
-190.029
 20
-534.041
 30
0.00000
  70
    32
  0
VERTEX
  8
0
  5
14DCD
 10
-188.805
 20
-533.652
 30
0.00000
  70
    32
  0
VERTEX
  8
0
  5
14DCE
 10
-187.596
 20
-533.179
 30
0.00000
  70
    32
  0
VERTEX
  8
0
  5
14DCF
 10
-186.404
 20
-532.622
 30
0.00000
  70
    32
  0
VERTEX
  8
0
  5
14DD0
 10
-185.234
 20
-531.984
 30
0.00000
  70
    32
  0
VERTEX
  8
0
  5
14DD1
 10
-184.087
 20
-531.264
 30
0.00000
  70
    32
  0
VERTEX
  8
0
  5
14DD2
 10
-182.966
 20
-530.467
 30
0.00000
  70
    32
  0
VERTEX
  8
0
  5
14DD3
 10
-181.874
 20
-529.592
 30
0.00000
  70
    32
  0
VERTEX
  8
0
  5
14DD4
 10
-180.814
 20
-528.643
 30
0.00000
  70
    32
  0
VERTEX
  8
0
  5
14DD5
 10
-179.789
 20
-527.621
 30
0.00000
  70
    32
  0
VERTEX
  8
0
  5
14DD6
 10
-178.799
 20
-526.530
 30
0.00000
  70
    32
  0
VERTEX
  8
0
  5
14DD7
 10
-177.849
 20
-525.371
 30
0.00000
  70
    32
  0
VERTEX
  8
0
  5
14DD8
 10
-176.941
 20
-524.147
 30
0.00000
  70
    32
  0
VERTEX
  8
0
  5
14DD9
 10
-176.076
 20
-522.862
 30
0.00000
  70
    32
  0
VERTEX
  8
0
  5
14DDA
 10
-175.256
 20
-521.519
 30
0.00000
  70
    32
  0
VERTEX
  8
0
  5
14DDB
 10
-174.484
 20
-520.120
 30
0.00000
  70
    32
  0
VERTEX
  8
0
  5
14DDC
 10
-173.762
 20
-518.669
 30
0.00000
  70
    32
  0
VERTEX
  8
0
  5
14DDD
 10
-173.091
 20
-517.170
 30
0.00000
  70
    32
  0
VERTEX
  8
0
  5
14DDE
 10
-172.472
 20
-515.626
 30
0.00000
  70
    32
  0
VERTEX
  8
0
  5
14DDF
 10
-171.908
 20
-514.041
 30
0.00000
  70
    32
  0
VERTEX
  8
0
  5
14DE0
 10
-171.400
 20
-512.419
 30
0.00000
  70
    32
  0
VERTEX
  8
0
  5
14DE1
 10
-170.948
 20
-510.764
 30
0.00000
  70
    32
  0
VERTEX
  8
0
  5
14DE2
 10
-170.555
 20
-509.079
 30
0.00000
  70
    32
  0
VERTEX
  8
0
  5
14DE3
 10
-170.220
 20
-507.369
 30
0.00000
  70
    32
  0
VERTEX
  8
0
  5
14DE4
 10
-169.945
 20
-505.638
 30
0.00000
  70
    32
  0
VERTEX
  8
0
  5
14DE5
 10
-169.731
 20
-503.890
 30
0.00000
  70
    32
  0
VERTEX
  8
0
  5
14DE6
 10
-169.577
 20
-502.129
 30
0.00000
  70
    32
  0
VERTEX
  8
0
  5
14DE7
 10
-169.485
 20
-500.359
 30
0.00000
  70
    32
  0
VERTEX
  8
0
  5
14DE8
 10
-169.454
 20
-498.585
 30
0.00000
  70
    32
  0
VERTEX
  8
0
  5
14DE9
 10
-169.485
 20
-496.811
 30
0.00000
  70
    32
  0
VERTEX
  8
0
  5
14DEA
 10
-169.577
 20
-495.042
 30
0.00000
  70
    32
  0
VERTEX
  8
0
  5
14DEB
 10
-169.731
 20
-493.281
 30
0.00000
  70
    32
  0
VERTEX
  8
0
  5
14DEC
 10
-169.945
 20
-491.533
 30
0.00000
  70
    32
  0
VERTEX
  8
0
  5
14DED
 10
-170.220
 20
-489.802
 30
0.00000
  70
    32
  0
VERTEX
  8
0
  5
14DEE
 10
-170.555
 20
-488.091
 30
0.00000
  70
    32
  0
VERTEX
  8
0
  5
14DEF
 10
-170.948
 20
-486.407
 30
0.00000
  70
    32
  0
VERTEX
  8
0
  5
14DF0
 10
-171.400
 20
-484.751
 30
0.00000
  70
    32
  0
VERTEX
  8
0
  5
14DF1
 10
-171.908
 20
-483.129
 30
0.00000
  70
    32
  0
VERTEX
  8
0
  5
14DF2
 10
-172.472
 20
-481.544
 30
0.00000
  70
    32
  0
VERTEX
  8
0
  5
14DF3
 10
-173.091
 20
-480.000
 30
0.00000
  70
    32
  0
VERTEX
  8
0
  5
14DF4
 10
-173.762
 20
-478.501
 30
0.00000
  70
    32
  0
VERTEX
  8
0
  5
14DF5
 10
-174.484
 20
-477.051
 30
0.00000
  70
    32
  0
VERTEX
  8
0
  5
14DF6
 10
-175.256
 20
-475.652
 30
0.00000
  70
    32
  0
VERTEX
  8
0
  5
14DF7
 10
-176.076
 20
-474.308
 30
0.00000
  70
    32
  0
VERTEX
  8
0
  5
14DF8
 10
-176.941
 20
-473.023
 30
0.00000
  70
    32
  0
VERTEX
  8
0
  5
14DF9
 10
-177.849
 20
-471.800
 30
0.00000
  70
    32
  0
VERTEX
  8
0
  5
14DFA
 10
-178.799
 20
-470.641
 30
0.00000
  70
    32
  0
VERTEX
  8
0
  5
14DFB
 10
-179.789
 20
-469.549
 30
0.00000
  70
    32
  0
VERTEX
  8
0
  5
14DFC
 10
-180.814
 20
-468.528
 30
0.00000
  70
    32
  0
VERTEX
  8
0
  5
14DFD
 10
-181.874
 20
-467.578
 30
0.00000
  70
    32
  0
VERTEX
  8
0
  5
14DFE
 10
-182.966
 20
-466.704
 30
0.00000
  70
    32
  0
VERTEX
  8
0
  5
14DFF
 10
-184.087
 20
-465.906
 30
0.00000
  70
    32
  0
VERTEX
  8
0
  5
14E00
 10
-185.234
 20
-465.187
 30
0.00000
  70
    32
  0
VERTEX
  8
0
  5
14E01
 10
-186.404
 20
-464.548
 30
0.00000
  70
    32
  0
VERTEX
  8
0
  5
14E02
 10
-187.596
 20
-463.992
 30
0.00000
  70
    32
  0
VERTEX
  8
0
  5
14E03
 10
-188.805
 20
-463.519
 30
0.00000
  70
    32
  0
VERTEX
  8
0
  5
14E04
 10
-190.029
 20
-463.130
 30
0.00000
  70
    32
  0
VERTEX
  8
0
  5
14E05
 10
-191.265
 20
-462.827
 30
0.00000
  70
    32
  0
VERTEX
  8
0
  5
14E06
 10
-192.510
 20
-462.609
 30
0.00000
  70
    32
  0
VERTEX
  8
0
  5
14E07
 10
-193.762
 20
-462.479
 30
0.00000
  70
    32
  0
VERTEX
  8
0
  5
14E08
 10
-195.016
 20
-462.435
 30
0.00000
  70
    32
  0
SEQEND
  8
0
  5
14E09
  0
LINE
  5
14BFB
  8
0
 10
175.4357458092289903
 20
-536.7352732935296444
 30
0.0
 11
90.7962526673550343
 21
-536.7352732935296444
 31
0.0
  0
LINE
  5
14BFC
  8
0
 10
175.4357458092289903
 20
-460.4352732935295194
 30
0.0
 11
90.7962526673550343
 21
-460.4352732935295194
 31
0.0
  0
POLYLINE
  5
14BFD
  8
0
 10
194.9842186079850137
 20
-453.0852732935294966
 30
0.0
 66
     1
 70
     8
  0
VERTEX
  8
0
  5
14E0A
 10
194.984
 20
-453.085
 30
0.00000
  70
    32
  0
VERTEX
  8
0
  5
14E0B
 10
196.563
 20
-453.140
 30
0.00000
  70
    32
  0
VERTEX
  8
0
  5
14E0C
 10
198.138
 20
-453.304
 30
0.00000
  70
    32
  0
VERTEX
  8
0
  5
14E0D
 10
199.705
 20
-453.578
 30
0.00000
  70
    32
  0
VERTEX
  8
0
  5
14E0E
 10
201.261
 20
-453.960
 30
0.00000
  70
    32
  0
VERTEX
  8
0
  5
14E0F
 10
202.802
 20
-454.449
 30
0.00000
  70
    32
  0
VERTEX
  8
0
  5
14E10
 10
204.324
 20
-455.044
 30
0.00000
  70
    32
  0
VERTEX
  8
0
  5
14E11
 10
205.823
 20
-455.745
 30
0.00000
  70
    32
  0
VERTEX
  8
0
  5
14E12
 10
207.296
 20
-456.549
 30
0.00000
  70
    32
  0
VERTEX
  8
0
  5
14E13
 10
208.740
 20
-457.454
 30
0.00000
  70
    32
  0
VERTEX
  8
0
  5
14E14
 10
210.151
 20
-458.458
 30
0.00000
  70
    32
  0
VERTEX
  8
0
  5
14E15
 10
211.525
 20
-459.559
 30
0.00000
  70
    32
  0
VERTEX
  8
0
  5
14E16
 10
212.859
 20
-460.753
 30
0.00000
  70
    32
  0
VERTEX
  8
0
  5
14E17
 10
214.150
 20
-462.039
 30
0.00000
  70
    32
  0
VERTEX
  8
0
  5
14E18
 10
215.395
 20
-463.413
 30
0.00000
  70
    32
  0
VERTEX
  8
0
  5
14E19
 10
216.591
 20
-464.872
 30
0.00000
  70
    32
  0
VERTEX
  8
0
  5
14E1A
 10
217.734
 20
-466.412
 30
0.00000
  70
    32
  0
VERTEX
  8
0
  5
14E1B
 10
218.823
 20
-468.029
 30
0.00000
  70
    32
  0
VERTEX
  8
0
  5
14E1C
 10
219.855
 20
-469.720
 30
0.00000
  70
    32
  0
VERTEX
  8
0
  5
14E1D
 10
220.826
 20
-471.481
 30
0.00000
  70
    32
  0
VERTEX
  8
0
  5
14E1E
 10
221.735
 20
-473.307
 30
0.00000
  70
    32
  0
VERTEX
  8
0
  5
14E1F
 10
222.580
 20
-475.194
 30
0.00000
  70
    32
  0
VERTEX
  8
0
  5
14E20
 10
223.359
 20
-477.137
 30
0.00000
  70
    32
  0
VERTEX
  8
0
  5
14E21
 10
224.069
 20
-479.132
 30
0.00000
  70
    32
  0
VERTEX
  8
0
  5
14E22
 10
224.709
 20
-481.173
 30
0.00000
  70
    32
  0
VERTEX
  8
0
  5
14E23
 10
225.277
 20
-483.257
 30
0.00000
  70
    32
  0
VERTEX
  8
0
  5
14E24
 10
225.772
 20
-485.377
 30
0.00000
  70
    32
  0
VERTEX
  8
0
  5
14E25
 10
226.193
 20
-487.530
 30
0.00000
  70
    32
  0
VERTEX
  8
0
  5
14E26
 10
226.539
 20
-489.709
 30
0.00000
  70
    32
  0
VERTEX
  8
0
  5
14E27
 10
226.809
 20
-491.909
 30
0.00000
  70
    32
  0
VERTEX
  8
0
  5
14E28
 10
227.003
 20
-494.125
 30
0.00000
  70
    32
  0
VERTEX
  8
0
  5
14E29
 10
227.119
 20
-496.353
 30
0.00000
  70
    32
  0
VERTEX
  8
0
  5
14E2A
 10
227.158
 20
-498.585
 30
0.00000
  70
    32
  0
VERTEX
  8
0
  5
14E2B
 10
227.119
 20
-500.818
 30
0.00000
  70
    32
  0
VERTEX
  8
0
  5
14E2C
 10
227.003
 20
-503.045
 30
0.00000
  70
    32
  0
VERTEX
  8
0
  5
14E2D
 10
226.809
 20
-505.262
 30
0.00000
  70
    32
  0
VERTEX
  8
0
  5
14E2E
 10
226.539
 20
-507.462
 30
0.00000
  70
    32
  0
VERTEX
  8
0
  5
14E2F
 10
226.193
 20
-509.641
 30
0.00000
  70
    32
  0
VERTEX
  8
0
  5
14E30
 10
225.772
 20
-511.793
 30
0.00000
  70
    32
  0
VERTEX
  8
0
  5
14E31
 10
225.277
 20
-513.914
 30
0.00000
  70
    32
  0
VERTEX
  8
0
  5
14E32
 10
224.709
 20
-515.997
 30
0.00000
  70
    32
  0
VERTEX
  8
0
  5
14E33
 10
224.069
 20
-518.039
 30
0.00000
  70
    32
  0
VERTEX
  8
0
  5
14E34
 10
223.359
 20
-520.034
 30
0.00000
  70
    32
  0
VERTEX
  8
0
  5
14E35
 10
222.580
 20
-521.977
 30
0.00000
  70
    32
  0
VERTEX
  8
0
  5
14E36
 10
221.735
 20
-523.864
 30
0.00000
  70
    32
  0
VERTEX
  8
0
  5
14E37
 10
220.826
 20
-525.690
 30
0.00000
  70
    32
  0
VERTEX
  8
0
  5
14E38
 10
219.855
 20
-527.450
 30
0.00000
  70
    32
  0
VERTEX
  8
0
  5
14E39
 10
218.823
 20
-529.141
 30
0.00000
  70
    32
  0
VERTEX
  8
0
  5
14E3A
 10
217.734
 20
-530.759
 30
0.00000
  70
    32
  0
VERTEX
  8
0
  5
14E3B
 10
216.591
 20
-532.299
 30
0.00000
  70
    32
  0
VERTEX
  8
0
  5
14E3C
 10
215.395
 20
-533.757
 30
0.00000
  70
    32
  0
VERTEX
  8
0
  5
14E3D
 10
214.150
 20
-535.131
 30
0.00000
  70
    32
  0
VERTEX
  8
0
  5
14E3E
 10
212.859
 20
-536.417
 30
0.00000
  70
    32
  0
VERTEX
  8
0
  5
14E3F
 10
211.525
 20
-537.612
 30
0.00000
  70
    32
  0
VERTEX
  8
0
  5
14E40
 10
210.151
 20
-538.713
 30
0.00000
  70
    32
  0
VERTEX
  8
0
  5
14E41
 10
208.740
 20
-539.717
 30
0.00000
  70
    32
  0
VERTEX
  8
0
  5
14E42
 10
207.296
 20
-540.622
 30
0.00000
  70
    32
  0
VERTEX
  8
0
  5
14E43
 10
205.823
 20
-541.426
 30
0.00000
  70
    32
  0
VERTEX
  8
0
  5
14E44
 10
204.324
 20
-542.126
 30
0.00000
  70
    32
  0
VERTEX
  8
0
  5
14E45
 10
202.802
 20
-542.722
 30
0.00000
  70
    32
  0
VERTEX
  8
0
  5
14E46
 10
201.261
 20
-543.211
 30
0.00000
  70
    32
  0
VERTEX
  8
0
  5
14E47
 10
199.705
 20
-543.593
 30
0.00000
  70
    32
  0
VERTEX
  8
0
  5
14E48
 10
198.138
 20
-543.866
 30
0.00000
  70
    32
  0
VERTEX
  8
0
  5
14E49
 10
196.563
 20
-544.030
 30
0.00000
  70
    32
  0
VERTEX
  8
0
  5
14E4A
 10
194.984
 20
-544.085
 30
0.00000
  70
    32
  0
VERTEX
  8
0
  5
14E4B
 10
193.406
 20
-544.030
 30
0.00000
  70
    32
  0
VERTEX
  8
0
  5
14E4C
 10
191.831
 20
-543.866
 30
0.00000
  70
    32
  0
VERTEX
  8
0
  5
14E4D
 10
190.263
 20
-543.593
 30
0.00000
  70
    32
  0
VERTEX
  8
0
  5
14E4E
 10
188.708
 20
-543.211
 30
0.00000
  70
    32
  0
VERTEX
  8
0
  5
14E4F
 10
187.167
 20
-542.722
 30
0.00000
  70
    32
  0
VERTEX
  8
0
  5
14E50
 10
185.645
 20
-542.126
 30
0.00000
  70
    32
  0
VERTEX
  8
0
  5
14E51
 10
184.145
 20
-541.426
 30
0.00000
  70
    32
  0
VERTEX
  8
0
  5
14E52
 10
182.672
 20
-540.622
 30
0.00000
  70
    32
  0
VERTEX
  8
0
  5
14E53
 10
181.228
 20
-539.717
 30
0.00000
  70
    32
  0
VERTEX
  8
0
  5
14E54
 10
179.818
 20
-538.713
 30
0.00000
  70
    32
  0
VERTEX
  8
0
  5
14E55
 10
178.444
 20
-537.612
 30
0.00000
  70
    32
  0
VERTEX
  8
0
  5
14E56
 10
177.110
 20
-536.417
 30
0.00000
  70
    32
  0
VERTEX
  8
0
  5
14E57
 10
175.819
 20
-535.131
 30
0.00000
  70
    32
  0
VERTEX
  8
0
  5
14E58
 10
174.574
 20
-533.757
 30
0.00000
  70
    32
  0
VERTEX
  8
0
  5
14E59
 10
173.378
 20
-532.299
 30
0.00000
  70
    32
  0
VERTEX
  8
0
  5
14E5A
 10
172.234
 20
-530.759
 30
0.00000
  70
    32
  0
VERTEX
  8
0
  5
14E5B
 10
171.145
 20
-529.141
 30
0.00000
  70
    32
  0
VERTEX
  8
0
  5
14E5C
 10
170.114
 20
-527.450
 30
0.00000
  70
    32
  0
VERTEX
  8
0
  5
14E5D
 10
169.142
 20
-525.690
 30
0.00000
  70
    32
  0
VERTEX
  8
0
  5
14E5E
 10
168.233
 20
-523.864
 30
0.00000
  70
    32
  0
VERTEX
  8
0
  5
14E5F
 10
167.388
 20
-521.977
 30
0.00000
  70
    32
  0
VERTEX
  8
0
  5
14E60
 10
166.610
 20
-520.034
 30
0.00000
  70
    32
  0
VERTEX
  8
0
  5
14E61
 10
165.900
 20
-518.039
 30
0.00000
  70
    32
  0
VERTEX
  8
0
  5
14E62
 10
165.260
 20
-515.997
 30
0.00000
  70
    32
  0
VERTEX
  8
0
  5
14E63
 10
164.692
 20
-513.914
 30
0.00000
  70
    32
  0
VERTEX
  8
0
  5
14E64
 10
164.196
 20
-511.793
 30
0.00000
  70
    32
  0
VERTEX
  8
0
  5
14E65
 10
163.775
 20
-509.641
 30
0.00000
  70
    32
  0
VERTEX
  8
0
  5
14E66
 10
163.429
 20
-507.462
 30
0.00000
  70
    32
  0
VERTEX
  8
0
  5
14E67
 10
163.159
 20
-505.262
 30
0.00000
  70
    32
  0
VERTEX
  8
0
  5
14E68
 10
162.966
 20
-503.045
 30
0.00000
  70
    32
  0
VERTEX
  8
0
  5
14E69
 10
162.850
 20
-500.818
 30
0.00000
  70
    32
  0
VERTEX
  8
0
  5
14E6A
 10
162.811
 20
-498.585
 30
0.00000
  70
    32
  0
VERTEX
  8
0
  5
14E6B
 10
162.850
 20
-496.353
 30
0.00000
  70
    32
  0
VERTEX
  8
0
  5
14E6C
 10
162.966
 20
-494.125
 30
0.00000
  70
    32
  0
VERTEX
  8
0
  5
14E6D
 10
163.159
 20
-491.909
 30
0.00000
  70
    32
  0
VERTEX
  8
0
  5
14E6E
 10
163.429
 20
-489.709
 30
0.00000
  70
    32
  0
VERTEX
  8
0
  5
14E6F
 10
163.775
 20
-487.530
 30
0.00000
  70
    32
  0
VERTEX
  8
0
  5
14E70
 10
164.196
 20
-485.377
 30
0.00000
  70
    32
  0
VERTEX
  8
0
  5
14E71
 10
164.692
 20
-483.257
 30
0.00000
  70
    32
  0
VERTEX
  8
0
  5
14E72
 10
165.260
 20
-481.173
 30
0.00000
  70
    32
  0
VERTEX
  8
0
  5
14E73
 10
165.900
 20
-479.132
 30
0.00000
  70
    32
  0
VERTEX
  8
0
  5
14E74
 10
166.610
 20
-477.137
 30
0.00000
  70
    32
  0
VERTEX
  8
0
  5
14E75
 10
167.388
 20
-475.194
 30
0.00000
  70
    32
  0
VERTEX
  8
0
  5
14E76
 10
168.233
 20
-473.307
 30
0.00000
  70
    32
  0
VERTEX
  8
0
  5
14E77
 10
169.142
 20
-471.481
 30
0.00000
  70
    32
  0
VERTEX
  8
0
  5
14E78
 10
170.114
 20
-469.720
 30
0.00000
  70
    32
  0
VERTEX
  8
0
  5
14E79
 10
171.145
 20
-468.029
 30
0.00000
  70
    32
  0
VERTEX
  8
0
  5
14E7A
 10
172.234
 20
-466.412
 30
0.00000
  70
    32
  0
VERTEX
  8
0
  5
14E7B
 10
173.378
 20
-464.872
 30
0.00000
  70
    32
  0
VERTEX
  8
0
  5
14E7C
 10
174.574
 20
-463.413
 30
0.00000
  70
    32
  0
VERTEX
  8
0
  5
14E7D
 10
175.819
 20
-462.039
 30
0.00000
  70
    32
  0
VERTEX
  8
0
  5
14E7E
 10
177.110
 20
-460.753
 30
0.00000
  70
    32
  0
VERTEX
  8
0
  5
14E7F
 10
178.444
 20
-459.559
 30
0.00000
  70
    32
  0
VERTEX
  8
0
  5
14E80
 10
179.818
 20
-458.458
 30
0.00000
  70
    32
  0
VERTEX
  8
0
  5
14E81
 10
181.228
 20
-457.454
 30
0.00000
  70
    32
  0
VERTEX
  8
0
  5
14E82
 10
182.672
 20
-456.549
 30
0.00000
  70
    32
  0
VERTEX
  8
0
  5
14E83
 10
184.145
 20
-455.745
 30
0.00000
  70
    32
  0
VERTEX
  8
0
  5
14E84
 10
185.645
 20
-455.044
 30
0.00000
  70
    32
  0
VERTEX
  8
0
  5
14E85
 10
187.167
 20
-454.449
 30
0.00000
  70
    32
  0
VERTEX
  8
0
  5
14E86
 10
188.708
 20
-453.960
 30
0.00000
  70
    32
  0
VERTEX
  8
0
  5
14E87
 10
190.263
 20
-453.578
 30
0.00000
  70
    32
  0
VERTEX
  8
0
  5
14E88
 10
191.831
 20
-453.304
 30
0.00000
  70
    32
  0
VERTEX
  8
0
  5
14E89
 10
193.406
 20
-453.140
 30
0.00000
  70
    32
  0
VERTEX
  8
0
  5
14E8A
 10
194.984
 20
-453.085
 30
0.00000
  70
    32
  0
SEQEND
  8
0
  5
14E8B
  0
POLYLINE
  5
14BFE
  8
0
 10
192.9689642816028936
 20
-544.0852732935294398
 30
0.0
 66
     1
 70
     8
  0
VERTEX
  8
0
  5
14E8C
 10
192.969
 20
-544.085
 30
0.00000
  70
    32
  0
VERTEX
  8
0
  5
14E8D
 10
192.179
 20
-544.072
 30
0.00000
  70
    32
  0
VERTEX
  8
0
  5
14E8E
 10
191.390
 20
-544.030
 30
0.00000
  70
    32
  0
VERTEX
  8
0
  5
14E8F
 10
190.602
 20
-543.962
 30
0.00000
  70
    32
  0
VERTEX
  8
0
  5
14E90
 10
189.815
 20
-543.866
 30
0.00000
  70
    32
  0
VERTEX
  8
0
  5
14E91
 10
189.031
 20
-543.743
 30
0.00000
  70
    32
  0
VERTEX
  8
0
  5
14E92
 10
188.248
 20
-543.593
 30
0.00000
  70
    32
  0
VERTEX
  8
0
  5
14E93
 10
187.469
 20
-543.415
 30
0.00000
  70
    32
  0
VERTEX
  8
0
  5
14E94
 10
186.692
 20
-543.211
 30
0.00000
  70
    32
  0
VERTEX
  8
0
  5
14E95
 10
185.920
 20
-542.980
 30
0.00000
  70
    32
  0
VERTEX
  8
0
  5
14E96
 10
185.151
 20
-542.722
 30
0.00000
  70
    32
  0
VERTEX
  8
0
  5
14E97
 10
184.388
 20
-542.437
 30
0.00000
  70
    32
  0
VERTEX
  8
0
  5
14E98
 10
183.630
 20
-542.126
 30
0.00000
  70
    32
  0
VERTEX
  8
0
  5
14E99
 10
182.877
 20
-541.789
 30
0.00000
  70
    32
  0
VERTEX
  8
0
  5
14E9A
 10
182.130
 20
-541.426
 30
0.00000
  70
    32
  0
VERTEX
  8
0
  5
14E9B
 10
181.390
 20
-541.036
 30
0.00000
  70
    32
  0
VERTEX
  8
0
  5
14E9C
 10
180.657
 20
-540.622
 30
0.00000
  70
    32
  0
VERTEX
  8
0
  5
14E9D
 10
179.931
 20
-540.182
 30
0.00000
  70
    32
  0
VERTEX
  8
0
  5
14E9E
 10
179.213
 20
-539.717
 30
0.00000
  70
    32
  0
VERTEX
  8
0
  5
14E9F
 10
178.503
 20
-539.227
 30
0.00000
  70
    32
  0
VERTEX
  8
0
  5
14EA0
 10
177.803
 20
-538.713
 30
0.00000
  70
    32
  0
VERTEX
  8
0
  5
14EA1
 10
177.111
 20
-538.174
 30
0.00000
  70
    32
  0
VERTEX
  8
0
  5
14EA2
 10
176.429
 20
-537.612
 30
0.00000
  70
    32
  0
VERTEX
  8
0
  5
14EA3
 10
175.756
 20
-537.026
 30
0.00000
  70
    32
  0
VERTEX
  8
0
  5
14EA4
 10
175.094
 20
-536.417
 30
0.00000
  70
    32
  0
VERTEX
  8
0
  5
14EA5
 10
174.443
 20
-535.785
 30
0.00000
  70
    32
  0
VERTEX
  8
0
  5
14EA6
 10
173.803
 20
-535.131
 30
0.00000
  70
    32
  0
VERTEX
  8
0
  5
14EA7
 10
173.175
 20
-534.455
 30
0.00000
  70
    32
  0
VERTEX
  8
0
  5
14EA8
 10
172.558
 20
-533.757
 30
0.00000
  70
    32
  0
VERTEX
  8
0
  5
14EA9
 10
171.954
 20
-533.038
 30
0.00000
  70
    32
  0
VERTEX
  8
0
  5
14EAA
 10
171.363
 20
-532.299
 30
0.00000
  70
    32
  0
VERTEX
  8
0
  5
14EAB
 10
170.784
 20
-531.539
 30
0.00000
  70
    32
  0
VERTEX
  8
0
  5
14EAC
 10
170.219
 20
-530.759
 30
0.00000
  70
    32
  0
VERTEX
  8
0
  5
14EAD
 10
169.668
 20
-529.959
 30
0.00000
  70
    32
  0
VERTEX
  8
0
  5
14EAE
 10
169.130
 20
-529.141
 30
0.00000
  70
    32
  0
VERTEX
  8
0
  5
14EAF
 10
168.607
 20
-528.305
 30
0.00000
  70
    32
  0
VERTEX
  8
0
  5
14EB0
 10
168.099
 20
-527.450
 30
0.00000
  70
    32
  0
VERTEX
  8
0
  5
14EB1
 10
167.605
 20
-526.578
 30
0.00000
  70
    32
  0
VERTEX
  8
0
  5
14EB2
 10
167.127
 20
-525.690
 30
0.00000
  70
    32
  0
VERTEX
  8
0
  5
14EB3
 10
166.665
 20
-524.785
 30
0.00000
  70
    32
  0
VERTEX
  8
0
  5
14EB4
 10
166.218
 20
-523.864
 30
0.00000
  70
    32
  0
VERTEX
  8
0
  5
14EB5
 10
165.787
 20
-522.928
 30
0.00000
  70
    32
  0
VERTEX
  8
0
  5
14EB6
 10
165.373
 20
-521.977
 30
0.00000
  70
    32
  0
VERTEX
  8
0
  5
14EB7
 10
164.975
 20
-521.012
 30
0.00000
  70
    32
  0
VERTEX
  8
0
  5
14EB8
 10
164.595
 20
-520.034
 30
0.00000
  70
    32
  0
VERTEX
  8
0
  5
14EB9
 10
164.231
 20
-519.043
 30
0.00000
  70
    32
  0
VERTEX
  8
0
  5
14EBA
 10
163.885
 20
-518.039
 30
0.00000
  70
    32
  0
VERTEX
  8
0
  5
14EBB
 10
163.556
 20
-517.024
 30
0.00000
  70
    32
  0
VERTEX
  8
0
  5
14EBC
 10
163.245
 20
-515.997
 30
0.00000
  70
    32
  0
VERTEX
  8
0
  5
14EBD
 10
162.951
 20
-514.960
 30
0.00000
  70
    32
  0
VERTEX
  8
0
  5
14EBE
 10
162.676
 20
-513.914
 30
0.00000
  70
    32
  0
VERTEX
  8
0
  5
14EBF
 10
162.419
 20
-512.858
 30
0.00000
  70
    32
  0
VERTEX
  8
0
  5
14EC0
 10
162.181
 20
-511.793
 30
0.00000
  70
    32
  0
VERTEX
  8
0
  5
14EC1
 10
161.961
 20
-510.721
 30
0.00000
  70
    32
  0
VERTEX
  8
0
  5
14EC2
 10
161.760
 20
-509.641
 30
0.00000
  70
    32
  0
VERTEX
  8
0
  5
14EC3
 10
161.577
 20
-508.554
 30
0.00000
  70
    32
  0
VERTEX
  8
0
  5
14EC4
 10
161.414
 20
-507.462
 30
0.00000
  70
    32
  0
VERTEX
  8
0
  5
14EC5
 10
161.269
 20
-506.364
 30
0.00000
  70
    32
  0
VERTEX
  8
0
  5
14EC6
 10
161.144
 20
-505.262
 30
0.00000
  70
    32
  0
VERTEX
  8
0
  5
14EC7
 10
161.038
 20
-504.155
 30
0.00000
  70
    32
  0
VERTEX
  8
0
  5
14EC8
 10
160.951
 20
-503.045
 30
0.00000
  70
    32
  0
VERTEX
  8
0
  5
14EC9
 10
160.883
 20
-501.932
 30
0.00000
  70
    32
  0
VERTEX
  8
0
  5
14ECA
 10
160.834
 20
-500.818
 30
0.00000
  70
    32
  0
VERTEX
  8
0
  5
14ECB
 10
160.805
 20
-499.702
 30
0.00000
  70
    32
  0
VERTEX
  8
0
  5
14ECC
 10
160.796
 20
-498.585
 30
0.00000
  70
    32
  0
VERTEX
  8
0
  5
14ECD
 10
160.805
 20
-497.469
 30
0.00000
  70
    32
  0
VERTEX
  8
0
  5
14ECE
 10
160.834
 20
-496.353
 30
0.00000
  70
    32
  0
VERTEX
  8
0
  5
14ECF
 10
160.883
 20
-495.238
 30
0.00000
  70
    32
  0
VERTEX
  8
0
  5
14ED0
 10
160.951
 20
-494.125
 30
0.00000
  70
    32
  0
VERTEX
  8
0
  5
14ED1
 10
161.038
 20
-493.016
 30
0.00000
  70
    32
  0
VERTEX
  8
0
  5
14ED2
 10
161.144
 20
-491.909
 30
0.00000
  70
    32
  0
VERTEX
  8
0
  5
14ED3
 10
161.269
 20
-490.807
 30
0.00000
  70
    32
  0
VERTEX
  8
0
  5
14ED4
 10
161.414
 20
-489.709
 30
0.00000
  70
    32
  0
VERTEX
  8
0
  5
14ED5
 10
161.577
 20
-488.616
 30
0.00000
  70
    32
  0
VERTEX
  8
0
  5
14ED6
 10
161.760
 20
-487.530
 30
0.00000
  70
    32
  0
VERTEX
  8
0
  5
14ED7
 10
161.961
 20
-486.450
 30
0.00000
  70
    32
  0
VERTEX
  8
0
  5
14ED8
 10
162.181
 20
-485.377
 30
0.00000
  70
    32
  0
VERTEX
  8
0
  5
14ED9
 10
162.419
 20
-484.313
 30
0.00000
  70
    32
  0
VERTEX
  8
0
  5
14EDA
 10
162.676
 20
-483.257
 30
0.00000
  70
    32
  0
VERTEX
  8
0
  5
14EDB
 10
162.951
 20
-482.210
 30
0.00000
  70
    32
  0
VERTEX
  8
0
  5
14EDC
 10
163.245
 20
-481.173
 30
0.00000
  70
    32
  0
VERTEX
  8
0
  5
14EDD
 10
163.556
 20
-480.147
 30
0.00000
  70
    32
  0
VERTEX
  8
0
  5
14EDE
 10
163.885
 20
-479.132
 30
0.00000
  70
    32
  0
VERTEX
  8
0
  5
14EDF
 10
164.231
 20
-478.128
 30
0.00000
  70
    32
  0
VERTEX
  8
0
  5
14EE0
 10
164.595
 20
-477.137
 30
0.00000
  70
    32
  0
VERTEX
  8
0
  5
14EE1
 10
164.975
 20
-476.158
 30
0.00000
  70
    32
  0
VERTEX
  8
0
  5
14EE2
 10
165.373
 20
-475.194
 30
0.00000
  70
    32
  0
VERTEX
  8
0
  5
14EE3
 10
165.787
 20
-474.243
 30
0.00000
  70
    32
  0
VERTEX
  8
0
  5
14EE4
 10
166.218
 20
-473.307
 30
0.00000
  70
    32
  0
VERTEX
  8
0
  5
14EE5
 10
166.665
 20
-472.386
 30
0.00000
  70
    32
  0
VERTEX
  8
0
  5
14EE6
 10
167.127
 20
-471.481
 30
0.00000
  70
    32
  0
VERTEX
  8
0
  5
14EE7
 10
167.605
 20
-470.592
 30
0.00000
  70
    32
  0
VERTEX
  8
0
  5
14EE8
 10
168.099
 20
-469.720
 30
0.00000
  70
    32
  0
VERTEX
  8
0
  5
14EE9
 10
168.607
 20
-468.866
 30
0.00000
  70
    32
  0
VERTEX
  8
0
  5
14EEA
 10
169.130
 20
-468.029
 30
0.00000
  70
    32
  0
VERTEX
  8
0
  5
14EEB
 10
169.668
 20
-467.211
 30
0.00000
  70
    32
  0
VERTEX
  8
0
  5
14EEC
 10
170.219
 20
-466.412
 30
0.00000
  70
    32
  0
VERTEX
  8
0
  5
14EED
 10
170.784
 20
-465.632
 30
0.00000
  70
    32
  0
VERTEX
  8
0
  5
14EEE
 10
171.363
 20
-464.872
 30
0.00000
  70
    32
  0
VERTEX
  8
0
  5
14EEF
 10
171.954
 20
-464.132
 30
0.00000
  70
    32
  0
VERTEX
  8
0
  5
14EF0
 10
172.558
 20
-463.413
 30
0.00000
  70
    32
  0
VERTEX
  8
0
  5
14EF1
 10
173.175
 20
-462.716
 30
0.00000
  70
    32
  0
VERTEX
  8
0
  5
14EF2
 10
173.803
 20
-462.039
 30
0.00000
  70
    32
  0
VERTEX
  8
0
  5
14EF3
 10
174.443
 20
-461.385
 30
0.00000
  70
    32
  0
VERTEX
  8
0
  5
14EF4
 10
175.094
 20
-460.753
 30
0.00000
  70
    32
  0
VERTEX
  8
0
  5
14EF5
 10
175.756
 20
-460.144
 30
0.00000
  70
    32
  0
VERTEX
  8
0
  5
14EF6
 10
176.429
 20
-459.559
 30
0.00000
  70
    32
  0
VERTEX
  8
0
  5
14EF7
 10
177.111
 20
-458.996
 30
0.00000
  70
    32
  0
VERTEX
  8
0
  5
14EF8
 10
177.803
 20
-458.458
 30
0.00000
  70
    32
  0
VERTEX
  8
0
  5
14EF9
 10
178.503
 20
-457.944
 30
0.00000
  70
    32
  0
VERTEX
  8
0
  5
14EFA
 10
179.213
 20
-457.454
 30
0.00000
  70
    32
  0
VERTEX
  8
0
  5
14EFB
 10
179.931
 20
-456.989
 30
0.00000
  70
    32
  0
VERTEX
  8
0
  5
14EFC
 10
180.657
 20
-456.549
 30
0.00000
  70
    32
  0
VERTEX
  8
0
  5
14EFD
 10
181.390
 20
-456.134
 30
0.00000
  70
    32
  0
VERTEX
  8
0
  5
14EFE
 10
182.130
 20
-455.745
 30
0.00000
  70
    32
  0
VERTEX
  8
0
  5
14EFF
 10
182.877
 20
-455.382
 30
0.00000
  70
    32
  0
VERTEX
  8
0
  5
14F00
 10
183.630
 20
-455.044
 30
0.00000
  70
    32
  0
VERTEX
  8
0
  5
14F01
 10
184.388
 20
-454.733
 30
0.00000
  70
    32
  0
VERTEX
  8
0
  5
14F02
 10
185.151
 20
-454.449
 30
0.00000
  70
    32
  0
VERTEX
  8
0
  5
14F03
 10
185.920
 20
-454.191
 30
0.00000
  70
    32
  0
VERTEX
  8
0
  5
14F04
 10
186.692
 20
-453.960
 30
0.00000
  70
    32
  0
VERTEX
  8
0
  5
14F05
 10
187.469
 20
-453.755
 30
0.00000
  70
    32
  0
VERTEX
  8
0
  5
14F06
 10
188.248
 20
-453.578
 30
0.00000
  70
    32
  0
VERTEX
  8
0
  5
14F07
 10
189.031
 20
-453.427
 30
0.00000
  70
    32
  0
VERTEX
  8
0
  5
14F08
 10
189.815
 20
-453.304
 30
0.00000
  70
    32
  0
VERTEX
  8
0
  5
14F09
 10
190.602
 20
-453.209
 30
0.00000
  70
    32
  0
VERTEX
  8
0
  5
14F0A
 10
191.390
 20
-453.140
 30
0.00000
  70
    32
  0
VERTEX
  8
0
  5
14F0B
 10
192.179
 20
-453.099
 30
0.00000
  70
    32
  0
VERTEX
  8
0
  5
14F0C
 10
192.969
 20
-453.085
 30
0.00000
  70
    32
  0
SEQEND
  8
0
  5
14F0D
  0
LINE
  5
14BFF
  8
0
 10
192.9689642816028936
 20
-453.0852732935294966
 30
0.0
 11
194.9842186079850137
 21
-453.0852732935294966
 31
0.0
  0
LINE
  5
14C00
  8
0
 10
192.9689642816028936
 20
-544.0852732935295535
 30
0.0
 11
194.9842186079850137
 21
-544.0852732935295535
 31
0.0
  0
POLYLINE
  5
14C01
  8
0
 10
194.9842186079850137
 20
-462.4352732935294057
 30
0.0
 66
     1
 70
     8
  0
VERTEX
  8
0
  5
14F0E
 10
194.984
 20
-462.435
 30
0.00000
  70
    32
  0
VERTEX
  8
0
  5
14F0F
 10
196.238
 20
-462.479
 30
0.00000
  70
    32
  0
VERTEX
  8
0
  5
14F10
 10
197.490
 20
-462.609
 30
0.00000
  70
    32
  0
VERTEX
  8
0
  5
14F11
 10
198.735
 20
-462.827
 30
0.00000
  70
    32
  0
VERTEX
  8
0
  5
14F12
 10
199.971
 20
-463.130
 30
0.00000
  70
    32
  0
VERTEX
  8
0
  5
14F13
 10
201.195
 20
-463.519
 30
0.00000
  70
    32
  0
VERTEX
  8
0
  5
14F14
 10
202.404
 20
-463.992
 30
0.00000
  70
    32
  0
VERTEX
  8
0
  5
14F15
 10
203.596
 20
-464.548
 30
0.00000
  70
    32
  0
VERTEX
  8
0
  5
14F16
 10
204.766
 20
-465.187
 30
0.00000
  70
    32
  0
VERTEX
  8
0
  5
14F17
 10
205.913
 20
-465.906
 30
0.00000
  70
    32
  0
VERTEX
  8
0
  5
14F18
 10
207.034
 20
-466.704
 30
0.00000
  70
    32
  0
VERTEX
  8
0
  5
14F19
 10
208.126
 20
-467.578
 30
0.00000
  70
    32
  0
VERTEX
  8
0
  5
14F1A
 10
209.186
 20
-468.528
 30
0.00000
  70
    32
  0
VERTEX
  8
0
  5
14F1B
 10
210.211
 20
-469.549
 30
0.00000
  70
    32
  0
VERTEX
  8
0
  5
14F1C
 10
211.201
 20
-470.641
 30
0.00000
  70
    32
  0
VERTEX
  8
0
  5
14F1D
 10
212.151
 20
-471.800
 30
0.00000
  70
    32
  0
VERTEX
  8
0
  5
14F1E
 10
213.059
 20
-473.023
 30
0.00000
  70
    32
  0
VERTEX
  8
0
  5
14F1F
 10
213.924
 20
-474.308
 30
0.00000
  70
    32
  0
VERTEX
  8
0
  5
14F20
 10
214.744
 20
-475.652
 30
0.00000
  70
    32
  0
VERTEX
  8
0
  5
14F21
 10
215.516
 20
-477.051
 30
0.00000
  70
    32
  0
VERTEX
  8
0
  5
14F22
 10
216.238
 20
-478.501
 30
0.00000
  70
    32
  0
VERTEX
  8
0
  5
14F23
 10
216.909
 20
-480.000
 30
0.00000
  70
    32
  0
VERTEX
  8
0
  5
14F24
 10
217.528
 20
-481.544
 30
0.00000
  70
    32
  0
VERTEX
  8
0
  5
14F25
 10
218.092
 20
-483.129
 30
0.00000
  70
    32
  0
VERTEX
  8
0
  5
14F26
 10
218.600
 20
-484.751
 30
0.00000
  70
    32
  0
VERTEX
  8
0
  5
14F27
 10
219.052
 20
-486.407
 30
0.00000
  70
    32
  0
VERTEX
  8
0
  5
14F28
 10
219.445
 20
-488.091
 30
0.00000
  70
    32
  0
VERTEX
  8
0
  5
14F29
 10
219.780
 20
-489.802
 30
0.00000
  70
    32
  0
VERTEX
  8
0
  5
14F2A
 10
220.055
 20
-491.533
 30
0.00000
  70
    32
  0
VERTEX
  8
0
  5
14F2B
 10
220.269
 20
-493.281
 30
0.00000
  70
    32
  0
VERTEX
  8
0
  5
14F2C
 10
220.423
 20
-495.042
 30
0.00000
  70
    32
  0
VERTEX
  8
0
  5
14F2D
 10
220.515
 20
-496.811
 30
0.00000
  70
    32
  0
VERTEX
  8
0
  5
14F2E
 10
220.546
 20
-498.585
 30
0.00000
  70
    32
  0
VERTEX
  8
0
  5
14F2F
 10
220.515
 20
-500.359
 30
0.00000
  70
    32
  0
VERTEX
  8
0
  5
14F30
 10
220.423
 20
-502.129
 30
0.00000
  70
    32
  0
VERTEX
  8
0
  5
14F31
 10
220.269
 20
-503.890
 30
0.00000
  70
    32
  0
VERTEX
  8
0
  5
14F32
 10
220.055
 20
-505.638
 30
0.00000
  70
    32
  0
VERTEX
  8
0
  5
14F33
 10
219.780
 20
-507.369
 30
0.00000
  70
    32
  0
VERTEX
  8
0
  5
14F34
 10
219.445
 20
-509.079
 30
0.00000
  70
    32
  0
VERTEX
  8
0
  5
14F35
 10
219.052
 20
-510.764
 30
0.00000
  70
    32
  0
VERTEX
  8
0
  5
14F36
 10
218.600
 20
-512.419
 30
0.00000
  70
    32
  0
VERTEX
  8
0
  5
14F37
 10
218.092
 20
-514.041
 30
0.00000
  70
    32
  0
VERTEX
  8
0
  5
14F38
 10
217.528
 20
-515.626
 30
0.00000
  70
    32
  0
VERTEX
  8
0
  5
14F39
 10
216.909
 20
-517.170
 30
0.00000
  70
    32
  0
VERTEX
  8
0
  5
14F3A
 10
216.238
 20
-518.669
 30
0.00000
  70
    32
  0
VERTEX
  8
0
  5
14F3B
 10
215.516
 20
-520.120
 30
0.00000
  70
    32
  0
VERTEX
  8
0
  5
14F3C
 10
214.744
 20
-521.519
 30
0.00000
  70
    32
  0
VERTEX
  8
0
  5
14F3D
 10
213.924
 20
-522.862
 30
0.00000
  70
    32
  0
VERTEX
  8
0
  5
14F3E
 10
213.059
 20
-524.147
 30
0.00000
  70
    32
  0
VERTEX
  8
0
  5
14F3F
 10
212.151
 20
-525.371
 30
0.00000
  70
    32
  0
VERTEX
  8
0
  5
14F40
 10
211.201
 20
-526.530
 30
0.00000
  70
    32
  0
VERTEX
  8
0
  5
14F41
 10
210.211
 20
-527.621
 30
0.00000
  70
    32
  0
VERTEX
  8
0
  5
14F42
 10
209.186
 20
-528.643
 30
0.00000
  70
    32
  0
VERTEX
  8
0
  5
14F43
 10
208.126
 20
-529.592
 30
0.00000
  70
    32
  0
VERTEX
  8
0
  5
14F44
 10
207.034
 20
-530.467
 30
0.00000
  70
    32
  0
VERTEX
  8
0
  5
14F45
 10
205.913
 20
-531.264
 30
0.00000
  70
    32
  0
VERTEX
  8
0
  5
14F46
 10
204.766
 20
-531.984
 30
0.00000
  70
    32
  0
VERTEX
  8
0
  5
14F47
 10
203.596
 20
-532.622
 30
0.00000
  70
    32
  0
VERTEX
  8
0
  5
14F48
 10
202.404
 20
-533.179
 30
0.00000
  70
    32
  0
VERTEX
  8
0
  5
14F49
 10
201.195
 20
-533.652
 30
0.00000
  70
    32
  0
VERTEX
  8
0
  5
14F4A
 10
199.971
 20
-534.041
 30
0.00000
  70
    32
  0
VERTEX
  8
0
  5
14F4B
 10
198.735
 20
-534.344
 30
0.00000
  70
    32
  0
VERTEX
  8
0
  5
14F4C
 10
197.490
 20
-534.561
 30
0.00000
  70
    32
  0
VERTEX
  8
0
  5
14F4D
 10
196.238
 20
-534.692
 30
0.00000
  70
    32
  0
VERTEX
  8
0
  5
14F4E
 10
194.984
 20
-534.735
 30
0.00000
  70
    32
  0
VERTEX
  8
0
  5
14F4F
 10
193.730
 20
-534.692
 30
0.00000
  70
    32
  0
VERTEX
  8
0
  5
14F50
 10
192.479
 20
-534.561
 30
0.00000
  70
    32
  0
VERTEX
  8
0
  5
14F51
 10
191.234
 20
-534.344
 30
0.00000
  70
    32
  0
VERTEX
  8
0
  5
14F52
 10
189.997
 20
-534.041
 30
0.00000
  70
    32
  0
VERTEX
  8
0
  5
14F53
 10
188.773
 20
-533.652
 30
0.00000
  70
    32
  0
VERTEX
  8
0
  5
14F54
 10
187.564
 20
-533.179
 30
0.00000
  70
    32
  0
VERTEX
  8
0
  5
14F55
 10
186.373
 20
-532.622
 30
0.00000
  70
    32
  0
VERTEX
  8
0
  5
14F56
 10
185.202
 20
-531.984
 30
0.00000
  70
    32
  0
VERTEX
  8
0
  5
14F57
 10
184.055
 20
-531.264
 30
0.00000
  70
    32
  0
VERTEX
  8
0
  5
14F58
 10
182.934
 20
-530.467
 30
0.00000
  70
    32
  0
VERTEX
  8
0
  5
14F59
 10
181.843
 20
-529.592
 30
0.00000
  70
    32
  0
VERTEX
  8
0
  5
14F5A
 10
180.783
 20
-528.643
 30
0.00000
  70
    32
  0
VERTEX
  8
0
  5
14F5B
 10
179.757
 20
-527.621
 30
0.00000
  70
    32
  0
VERTEX
  8
0
  5
14F5C
 10
178.768
 20
-526.530
 30
0.00000
  70
    32
  0
VERTEX
  8
0
  5
14F5D
 10
177.818
 20
-525.371
 30
0.00000
  70
    32
  0
VERTEX
  8
0
  5
14F5E
 10
176.909
 20
-524.147
 30
0.00000
  70
    32
  0
VERTEX
  8
0
  5
14F5F
 10
176.044
 20
-522.862
 30
0.00000
  70
    32
  0
VERTEX
  8
0
  5
14F60
 10
175.225
 20
-521.519
 30
0.00000
  70
    32
  0
VERTEX
  8
0
  5
14F61
 10
174.453
 20
-520.120
 30
0.00000
  70
    32
  0
VERTEX
  8
0
  5
14F62
 10
173.730
 20
-518.669
 30
0.00000
  70
    32
  0
VERTEX
  8
0
  5
14F63
 10
173.059
 20
-517.170
 30
0.00000
  70
    32
  0
VERTEX
  8
0
  5
14F64
 10
172.441
 20
-515.626
 30
0.00000
  70
    32
  0
VERTEX
  8
0
  5
14F65
 10
171.877
 20
-514.041
 30
0.00000
  70
    32
  0
VERTEX
  8
0
  5
14F66
 10
171.368
 20
-512.419
 30
0.00000
  70
    32
  0
VERTEX
  8
0
  5
14F67
 10
170.917
 20
-510.764
 30
0.00000
  70
    32
  0
VERTEX
  8
0
  5
14F68
 10
170.523
 20
-509.079
 30
0.00000
  70
    32
  0
VERTEX
  8
0
  5
14F69
 10
170.188
 20
-507.369
 30
0.00000
  70
    32
  0
VERTEX
  8
0
  5
14F6A
 10
169.913
 20
-505.638
 30
0.00000
  70
    32
  0
VERTEX
  8
0
  5
14F6B
 10
169.699
 20
-503.890
 30
0.00000
  70
    32
  0
VERTEX
  8
0
  5
14F6C
 10
169.545
 20
-502.129
 30
0.00000
  70
    32
  0
VERTEX
  8
0
  5
14F6D
 10
169.453
 20
-500.359
 30
0.00000
  70
    32
  0
VERTEX
  8
0
  5
14F6E
 10
169.422
 20
-498.585
 30
0.00000
  70
    32
  0
VERTEX
  8
0
  5
14F6F
 10
169.453
 20
-496.811
 30
0.00000
  70
    32
  0
VERTEX
  8
0
  5
14F70
 10
169.545
 20
-495.042
 30
0.00000
  70
    32
  0
VERTEX
  8
0
  5
14F71
 10
169.699
 20
-493.281
 30
0.00000
  70
    32
  0
VERTEX
  8
0
  5
14F72
 10
169.913
 20
-491.533
 30
0.00000
  70
    32
  0
VERTEX
  8
0
  5
14F73
 10
170.188
 20
-489.802
 30
0.00000
  70
    32
  0
VERTEX
  8
0
  5
14F74
 10
170.523
 20
-488.091
 30
0.00000
  70
    32
  0
VERTEX
  8
0
  5
14F75
 10
170.917
 20
-486.407
 30
0.00000
  70
    32
  0
VERTEX
  8
0
  5
14F76
 10
171.368
 20
-484.751
 30
0.00000
  70
    32
  0
VERTEX
  8
0
  5
14F77
 10
171.877
 20
-483.129
 30
0.00000
  70
    32
  0
VERTEX
  8
0
  5
14F78
 10
172.441
 20
-481.544
 30
0.00000
  70
    32
  0
VERTEX
  8
0
  5
14F79
 10
173.059
 20
-480.000
 30
0.00000
  70
    32
  0
VERTEX
  8
0
  5
14F7A
 10
173.730
 20
-478.501
 30
0.00000
  70
    32
  0
VERTEX
  8
0
  5
14F7B
 10
174.453
 20
-477.051
 30
0.00000
  70
    32
  0
VERTEX
  8
0
  5
14F7C
 10
175.225
 20
-475.652
 30
0.00000
  70
    32
  0
VERTEX
  8
0
  5
14F7D
 10
176.044
 20
-474.308
 30
0.00000
  70
    32
  0
VERTEX
  8
0
  5
14F7E
 10
176.909
 20
-473.023
 30
0.00000
  70
    32
  0
VERTEX
  8
0
  5
14F7F
 10
177.818
 20
-471.800
 30
0.00000
  70
    32
  0
VERTEX
  8
0
  5
14F80
 10
178.768
 20
-470.641
 30
0.00000
  70
    32
  0
VERTEX
  8
0
  5
14F81
 10
179.757
 20
-469.549
 30
0.00000
  70
    32
  0
VERTEX
  8
0
  5
14F82
 10
180.783
 20
-468.528
 30
0.00000
  70
    32
  0
VERTEX
  8
0
  5
14F83
 10
181.843
 20
-467.578
 30
0.00000
  70
    32
  0
VERTEX
  8
0
  5
14F84
 10
182.934
 20
-466.704
 30
0.00000
  70
    32
  0
VERTEX
  8
0
  5
14F85
 10
184.055
 20
-465.906
 30
0.00000
  70
    32
  0
VERTEX
  8
0
  5
14F86
 10
185.202
 20
-465.187
 30
0.00000
  70
    32
  0
VERTEX
  8
0
  5
14F87
 10
186.373
 20
-464.548
 30
0.00000
  70
    32
  0
VERTEX
  8
0
  5
14F88
 10
187.564
 20
-463.992
 30
0.00000
  70
    32
  0
VERTEX
  8
0
  5
14F89
 10
188.773
 20
-463.519
 30
0.00000
  70
    32
  0
VERTEX
  8
0
  5
14F8A
 10
189.997
 20
-463.130
 30
0.00000
  70
    32
  0
VERTEX
  8
0
  5
14F8B
 10
191.234
 20
-462.827
 30
0.00000
  70
    32
  0
VERTEX
  8
0
  5
14F8C
 10
192.479
 20
-462.609
 30
0.00000
  70
    32
  0
VERTEX
  8
0
  5
14F8D
 10
193.730
 20
-462.479
 30
0.00000
  70
    32
  0
VERTEX
  8
0
  5
14F8E
 10
194.984
 20
-462.435
 30
0.00000
  70
    32
  0
SEQEND
  8
0
  5
14F8F
  0
ARC
  5
14C02
  8
0
 10
-0.0157813920154695
 20
-498.5852732935294966
 30
0.0
 40
126.4999999999884039
 50
17.5525880807799304
 51
162.4474119192200021
  0
ARC
  5
14C03
  8
0
 10
-0.0157813920154695
 20
-498.5852732935294966
 30
0.0
 40
126.4999999999884039
 50
197.5525880807799126
 51
342.4474119192200874
  0
ENDSEC
  0
EOF
