  0
SECTION
  2
HEADER
  9
$ACADVER
  1
AC1009
  9
$INSBASE
 10
0.0
 20
0.0
 30
0.0
  9
$EXTMIN
 10
-387.5
 20
-638.6489305578761559
 30
0.0
  9
$EXTMAX
 10
387.5
 20
225.0
 30
0.0
  9
$LIMMIN
 10
0.0
 20
0.0
  9
$LIMMAX
 10
420.0
 20
297.0
  9
$ORTHOMODE
 70
     0
  9
$REGENMODE
 70
     1
  9
$FILLMODE
 70
     1
  9
$QTEXTMODE
 70
     0
  9
$MIRRTEXT
 70
     0
  9
$DRAGMODE
 70
     2
  9
$LTSCALE
 40
1.0
  9
$OSMODE
 70
  2751
  9
$ATTMODE
 70
     1
  9
$TEXTSIZE
 40
2.5
  9
$TRACEWID
 40
1.0
  9
$TEXTSTYLE
  7
STANDARD
  9
$CLAYER
  8
0
  9
$CELTYPE
  6
BYLAYER
  9
$CECOLOR
 62
     7
  9
$DIMSCALE
 40
1.0
  9
$DIMASZ
 40
0.18
  9
$DIMEXO
 40
0.0625
  9
$DIMDLI
 40
0.38
  9
$DIMRND
 40
0.0
  9
$DIMDLE
 40
0.0
  9
$DIMEXE
 40
0.18
  9
$DIMTP
 40
0.0
  9
$DIMTM
 40
0.0
  9
$DIMTXT
 40
0.18
  9
$DIMCEN
 40
0.09
  9
$DIMTSZ
 40
0.0
  9
$DIMTOL
 70
     0
  9
$DIMLIM
 70
     0
  9
$DIMTIH
 70
     1
  9
$DIMTOH
 70
     1
  9
$DIMSE1
 70
     0
  9
$DIMSE2
 70
     0
  9
$DIMTAD
 70
     0
  9
$DIMZIN
 70
     0
  9
$DIMBLK
  1

  9
$DIMASO
 70
     1
  9
$DIMSHO
 70
     1
  9
$DIMPOST
  1

  9
$DIMAPOST
  1

  9
$DIMALT
 70
     0
  9
$DIMALTD
 70
     2
  9
$DIMALTF
 40
25.3999999999999986
  9
$DIMLFAC
 40
1.0
  9
$DIMTOFL
 70
     0
  9
$DIMTVP
 40
0.0
  9
$DIMTIX
 70
     0
  9
$DIMSOXD
 70
     0
  9
$DIMSAH
 70
     0
  9
$DIMBLK1
  1

  9
$DIMBLK2
  1

  9
$DIMSTYLE
  2
STANDARD
  9
$DIMCLRD
 70
     0
  9
$DIMCLRE
 70
     0
  9
$DIMCLRT
 70
     0
  9
$DIMTFAC
 40
1.0
  9
$DIMGAP
 40
0.09
  9
$LUNITS
 70
     2
  9
$LUPREC
 70
     8
  9
$SKETCHINC
 40
1.0
  9
$FILLETRAD
 40
0.0
  9
$AUNITS
 70
     0
  9
$AUPREC
 70
     0
  9
$MENU
  1
.
  9
$ELEVATION
 40
0.0
  9
$PELEVATION
 40
0.0
  9
$THICKNESS
 40
0.0
  9
$LIMCHECK
 70
     0
  9
$BLIPMODE
 70
     0
  9
$CHAMFERA
 40
0.0
  9
$CHAMFERB
 40
0.0
  9
$SKPOLY
 70
     0
  9
$TDCREATE
 40
2455533.587210648227483
  9
$TDUPDATE
 40
2459951.647754630073905
  9
$TDINDWG
 40
9.2945499652999999
  9
$TDUSRTIMER
 40
9.2945497801000005
  9
$USRTIMER
 70
     1
  9
$ANGBASE
 50
0.0
  9
$ANGDIR
 70
     0
  9
$PDMODE
 70
     0
  9
$PDSIZE
 40
0.0
  9
$PLINEWID
 40
0.0
  9
$COORDS
 70
     1
  9
$SPLFRAME
 70
     0
  9
$SPLINETYPE
 70
     6
  9
$SPLINESEGS
 70
     8
  9
$ATTDIA
 70
     1
  9
$ATTREQ
 70
     1
  9
$HANDLING
 70
     1
  9
$HANDSEED
  5
14FAF
  9
$SURFTAB1
 70
     6
  9
$SURFTAB2
 70
     6
  9
$SURFTYPE
 70
     6
  9
$SURFU
 70
     6
  9
$SURFV
 70
     6
  9
$UCSNAME
  2

  9
$UCSORG
 10
0.0
 20
0.0
 30
0.0
  9
$UCSXDIR
 10
1.0
 20
0.0
 30
0.0
  9
$UCSYDIR
 10
0.0
 20
1.0
 30
0.0
  9
$PUCSNAME
  2

  9
$PUCSORG
 10
0.0
 20
0.0
 30
0.0
  9
$PUCSXDIR
 10
1.0
 20
0.0
 30
0.0
  9
$PUCSYDIR
 10
0.0
 20
1.0
 30
0.0
  9
$USERI1
 70
     0
  9
$USERI2
 70
     0
  9
$USERI3
 70
     0
  9
$USERI4
 70
     0
  9
$USERI5
 70
     0
  9
$USERR1
 40
0.0
  9
$USERR2
 40
0.0
  9
$USERR3
 40
0.0
  9
$USERR4
 40
0.0
  9
$USERR5
 40
0.0
  9
$WORLDVIEW
 70
     1
  9
$SHADEDGE
 70
     3
  9
$SHADEDIF
 70
    70
  9
$TILEMODE
 70
     1
  9
$MAXACTVP
 70
    64
  9
$PLIMCHECK
 70
     0
  9
$PEXTMIN
 10
0.0
 20
0.0
 30
0.0
  9
$PEXTMAX
 10
0.0
 20
0.0
 30
0.0
  9
$PLIMMIN
 10
0.0
 20
0.0
  9
$PLIMMAX
 10
12.0
 20
9.0
  9
$UNITMODE
 70
     0
  9
$VISRETAIN
 70
     1
  9
$PLINEGEN
 70
     0
  9
$PSLTSCALE
 70
     1
  0
ENDSEC
  0
SECTION
  2
TABLES
  0
TABLE
  2
VPORT
 70
     1
  0
VPORT
  2
*ACTIVE
 70
     0
 10
0.0
 20
0.0
 11
1.0
 21
1.0
 12
183.1274048864335953
 22
-310.4577120926077782
 13
0.0
 23
0.0
 14
10.0
 24
10.0
 15
10.0
 25
10.0
 16
0.0
 26
0.0
 36
1.0
 17
0.0
 27
0.0
 37
0.0
 40
1614.9551528406279886
 41
2.198717948717948
 42
50.0
 43
0.0
 44
0.0
 50
0.0
 51
0.0
 71
     0
 72
  1000
 73
     1
 74
     3
 75
     0
 76
     0
 77
     0
 78
     0
  0
ENDTAB
  0
TABLE
  2
LTYPE
 70
     2
  0
LTYPE
  2
CONTINUOUS
 70
     0
  3
Solid line
 72
    65
 73
     0
 40
0.0
  0
LTYPE
  2
CENTER
 70
     0
  3
Center ____ _ ____ _ ____ _ ____ _ ____ _ ____
 72
    65
 73
     4
 40
50.7999999999999972
 49
31.75
 49
-6.3499999999999988
 49
6.3499999999999988
 49
-6.3499999999999988
  0
ENDTAB
  0
TABLE
  2
LAYER
 70
     2
  0
LAYER
  2
0
 70
     0
 62
     7
  6
CONTINUOUS
  0
LAYER
  2
DEFPOINTS
 70
     0
 62
     7
  6
CONTINUOUS
  0
ENDTAB
  0
TABLE
  2
STYLE
 70
     2
  0
STYLE
  2
STANDARD
 70
     0
 40
0.0
 41
1.0
 50
0.0
 71
     0
 42
2.5
  3
txt.shx
  4

  0
STYLE
  2
1-1
 70
     0
 40
3.2000000000000002
 41
0.85
 50
0.0
 71
     0
 42
600.0
  3
romans.shx
  4
BIGFONT.shx
  0
ENDTAB
  0
TABLE
  2
VIEW
 70
     0
  0
ENDTAB
  0
TABLE
  2
UCS
 70
     0
  0
ENDTAB
  0
TABLE
  2
APPID
 70
    43
  0
APPID
  2
ACAD
 70
     0
  0
APPID
  2
ACAD_PSEXT
 70
     0
  0
APPID
  2
ACAD_EXEMPT_FROM_CAD_STANDARDS
 70
     0
  0
APPID
  2
ACAECLAYERSTANDARD
 70
     0
  0
APPID
  2
ACAD_DSTYLE_DIMTEXT_FILL
 70
     0
  0
APPID
  2
ACAD_DSTYLE_DIMEXT_LENGTH
 70
     0
  0
APPID
  2
ACAD_DSTYLE_DIMEXT_ENABLED
 70
     0
  0
APPID
  2
ACAD_DSTYLE_DIM_LINETYPE
 70
     0
  0
APPID
  2
ACAD_DSTYLE_DIM_EXT1_LINETYPE
 70
     0
  0
APPID
  2
ACAD_DSTYLE_DIM_EXT2_LINETYPE
 70
     0
  0
APPID
  2
ACAD_DSTYLE_DIMJOGGED_JOGA
 70
     0
  0
APPID
  2
ACAD_DSTYLE_DIMARC_LENGTH_
 70
     0
  0
APPID
  2
MCAD_NO_VIS
 70
     0
  0
APPID
  2
ACAD_TEMP_GRAPHIC
 70
     0
  0
APPID
  2
AD_DRAW
 70
     0
  0
APPID
  2
ACATTRIBSERVICES
 70
     0
  0
APPID
  2
DESIGNERASSEMBLIES
 70
     0
  0
APPID
  2
ACADM_DIM_EDIT
 70
     0
  0
APPID
  2
AMDT_DM_ADJ
 70
     0
  0
APPID
  2
ACAD_DSTYLE_DIMJAG
 70
     0
  0
APPID
  2
ACAD_DSTYLE_DIMBREAK
 70
     0
  0
APPID
  2
ACAD_DSTYLE_DIMINSPECT
 70
     0
  0
APPID
  2
ACDBDYNAMICBLOCKGUID
 70
     0
  0
APPID
  2
GENIUS_GENDIMSH_14
 70
     0
  0
APPID
  2
GENIUS_GENODEF_13
 70
     0
  0
APPID
  2
GENIUS_GENOBJ-N-FIL_13
 70
     0
  0
APPID
  2
GENIUS_GENOBJ-N-CEN_13
 70
     0
  0
APPID
  2
GENIUS_GENCEN_19
 70
     0
  0
APPID
  2
ACAUTHENVIRON
 70
     0
  0
APPID
  2
ACADANNOPO
 70
     0
  0
APPID
  2
GENIUS_GENOBJ-N-HTC_13
 70
     0
  0
APPID
  2
GENIUS_GENHATCH_13
 70
     0
  0
APPID
  2
GENIUS_GENDTOL_13
 70
     0
  0
APPID
  2
ACAD_DSTYLE_DIMRADIAL_EXTENSION
 70
     0
  0
APPID
  2
ACAD_DSTYLE_DIMANGULAR_EXT
 70
     0
  0
APPID
  2
GENIUS_AMGTXT_16
 70
     0
  0
APPID
  2
GRADIENTCOLOR1ACI
 70
     0
  0
APPID
  2
GRADIENTCOLOR2ACI
 70
     0
  0
APPID
  2
ACAD_DSTYLE_DIMTALN
 70
     0
  0
APPID
  2
ACAD_NAV_VCDISPLAY
 70
     0
  0
APPID
  2
ACADANNOMONITORALERTICONDI
 70
     0
  0
APPID
  2
ACCMTRANSPARENCY
 70
     0
  0
APPID
  2
ACAD_MLEADERVER
 70
     0
  0
ENDTAB
  0
TABLE
  2
DIMSTYLE
 70
     1
  0
DIMSTYLE
  2
STANDARD
 70
     0
  3

  4

  5

  6

  7

 40
1.0
 41
0.18
 42
0.0625
 43
0.38
 44
0.18
 45
0.0
 46
0.0
 47
0.0
 48
0.0
140
0.18
141
0.09
142
0.0
143
25.3999999999999986
144
1.0
145
0.0
146
1.0
147
0.09
 71
     0
 72
     0
 73
     1
 74
     1
 75
     0
 76
     0
 77
     0
 78
     0
170
     0
171
     2
172
     0
173
     0
174
     0
175
     0
176
     0
177
     0
178
     0
  0
ENDTAB
  0
ENDSEC
  0
SECTION
  2
BLOCKS
  0
BLOCK
  8
0
  2
$MODEL_SPACE
 70
     0
 10
0.0
 20
0.0
 30
0.0
  3
$MODEL_SPACE
  1

  0
ENDBLK
  5
21
  8
0
  0
BLOCK
 67
     1
  8
0
  2
$PAPER_SPACE
 70
     0
 10
0.0
 20
0.0
 30
0.0
  3
$PAPER_SPACE
  1

  0
ENDBLK
  5
D5
 67
     1
  8
0
  0
BLOCK
  8
0
  2
_OPEN
 70
     0
 10
0.0
 20
0.0
 30
0.0
  3
_OPEN
  1

  0
LINE
  5
14A17
  8
0
  6
BYBLOCK
 62
     0
 10
-1.0
 20
0.1666666666666666
 30
0.0
 11
0.0
 21
0.0
 31
0.0
  0
LINE
  5
14A18
  8
0
  6
BYBLOCK
 62
     0
 10
0.0
 20
0.0
 30
0.0
 11
-1.0
 21
-0.1666666666666666
 31
0.0
  0
LINE
  5
14A19
  8
0
  6
BYBLOCK
 62
     0
 10
0.0
 20
0.0
 30
0.0
 11
-1.0
 21
0.0
 31
0.0
  0
ENDBLK
  5
14A1A
  8
0
  0
ENDSEC
  0
SECTION
  2
ENTITIES
  0
TEXT
  5
1400F
  8
0
  6
CONTINUOUS
 10
-387.5
 20
175.0
 30
0.0
 40
50.0
  1
DMC2T17RD0PY 2.5S
 72
     4
 11
0.0
 21
200.0
 31
0.0
  0
LINE
  5
14B1E
  8
0
 10
126.5000584623973054
 20
100.5907675141454973
 30
0.0
 11
-126.4999415374856966
 21
100.5907675143933062
 31
0.0
  0
LINE
  5
14B1F
  8
0
 10
84.7500584624892781
 20
48.0406298210877409
 30
0.0
 11
-84.7499415375070839
 21
48.0406298210971769
 31
0.0
  0
LINE
  5
14B20
  8
0
 10
84.7500584624906423
 20
72.5406298210901355
 30
0.0
 11
-84.7499415375082208
 21
72.5406298210901355
 31
0.0
  0
LINE
  5
14B21
  8
0
 10
-84.7499415375084482
 20
72.5406298210901355
 30
0.0
 11
-84.7499415375070839
 21
48.0406298210971769
 31
0.0
  0
LINE
  5
14B22
  8
0
 10
-74.7499415375066292
 20
48.0406298210950311
 30
0.0
 11
-75.7499415375066292
 21
48.0406298210950311
 31
0.0
  0
LINE
  5
14B23
  8
0
 10
-69.9998815375204231
 20
-33.4593201788957799
 30
0.0
 11
-69.9998815375060985
 21
48.0406298211013905
 31
0.0
  0
LINE
  5
14B24
  8
0
 10
-126.4999415373925018
 20
76.5906298210946375
 30
0.0
 11
-126.499941537370006
 21
100.5907675143933062
 31
0.0
  0
LINE
  5
14B25
  8
0
 10
-126.4999415373903986
 20
76.5906298210946375
 30
0.0
 11
126.500058462374696
 21
76.5906298210939553
 31
0.0
  0
LINE
  5
14B26
  8
0
 10
-39.4999688842196974
 20
-126.7093700789060051
 30
0.0
 11
-39.4999688842196974
 21
-116.2094142078791066
 31
0.0
  0
LINE
  5
14B27
  8
0
 10
0.0000584624910971
 20
-126.7093700789060051
 30
0.0
 11
39.4997081034186976
 21
-126.7093700789060051
 31
0.0
  0
LINE
  5
14B28
  8
0
 10
52.4996936034183292
 20
-126.7093700789060051
 30
0.0
 11
84.0000401806362333
 21
-126.7093700789060051
 31
0.0
  0
LINE
  5
14B29
  8
0
 10
84.0000401806362333
 20
-126.7093700789060051
 30
0.0
 11
84.0000401806362333
 21
-134.7093700789060051
 31
0.0
  0
LINE
  5
14B2A
  8
0
 10
0.0000401806362333
 20
-126.7093700789060051
 30
0.0
 11
-39.5003246784356179
 21
-126.7093700789060051
 31
0.0
  0
LINE
  5
14B2B
  8
0
 10
-52.5003101784357114
 20
-126.7093700789060051
 30
0.0
 11
-83.9999598193637667
 21
-126.7093700789060051
 31
0.0
  0
LINE
  5
14B2C
  8
0
 10
-83.9999598193637667
 20
-126.7093700789060051
 30
0.0
 11
-83.9999598193637667
 21
-134.7093700789060051
 31
0.0
  0
LINE
  5
14B2D
  8
0
 10
98.5004251806360571
 20
-134.7093700789060051
 30
0.0
 11
-98.5006793193640533
 21
-134.7093700789060051
 31
0.0
  0
LINE
  5
14B2E
  8
0
 10
98.5004251806360571
 20
-134.7093700789060051
 30
0.0
 11
98.5000401806362333
 21
-156.0905679253887968
 31
0.0
  0
LINE
  5
14B2F
  8
0
 10
98.5000401806362333
 20
-140.7093700789060051
 30
0.0
 11
-98.4999598193637667
 21
-140.7093700789060051
 31
0.0
  0
LINE
  5
14B30
  8
0
 10
-98.4999598193637667
 20
-134.7093700789060051
 30
0.0
 11
-98.4999598193637667
 21
-156.0905679253887968
 31
0.0
  0
LINE
  5
14B31
  8
0
 10
94.5000401806362333
 20
-163.0187711556650925
 30
0.0
 11
91.5000401806362333
 21
-164.7508219632331929
 31
0.0
  0
ARC
  5
14B32
  8
0
 10
90.5000401806362191
 20
-156.0905679253887968
 30
0.0
 40
8.0
 50
300.0000000000072191
 51
0.0
1001
GENIUS_GENODEF_13
1002
{
1000
HIER
1070
     0
1002
}
1002
{
1000
MANEDIT
1070
     0
1002
}
1002
{
1000
NOSEL
1070
     0
1002
}
1002
{
1000
BEHIND
1070
     0
1002
}
1002
{
1000
OTHER
1070
     0
1002
}
1002
{
1000
REACTOR
1002
}
1001
GENIUS_GENOBJ-N-FIL_13
1002
{
1000
OWNER
1000
GEN
1002
}
  0
LINE
  5
14B33
  8
0
 10
-94.4999598193637667
 20
-163.0187711556650925
 30
0.0
 11
-91.4999598193637667
 21
-164.7508219632331929
 31
0.0
  0
ARC
  5
14B34
  8
0
 10
-90.4999598193637667
 20
-156.0905679253887968
 30
0.0
 40
8.0
 50
180.0
 51
239.9999999999928093
1001
GENIUS_GENODEF_13
1002
{
1000
HIER
1070
     0
1002
}
1002
{
1000
MANEDIT
1070
     0
1002
}
1002
{
1000
NOSEL
1070
     0
1002
}
1002
{
1000
BEHIND
1070
     0
1002
}
1002
{
1000
OTHER
1070
     0
1002
}
1002
{
1000
REACTOR
1002
}
1001
GENIUS_GENOBJ-N-FIL_13
1002
{
1000
OWNER
1000
GEN
1002
}
  0
ARC
  5
14B35
  8
0
 10
75.5217668522930126
 20
-250.7093750789067883
 30
0.0
 40
8.0
 50
270.0
 51
347.9999999999843112
1001
GENIUS_GENODEF_13
1002
{
1000
HIER
1070
     0
1002
}
1002
{
1000
MANEDIT
1070
     0
1002
}
1002
{
1000
NOSEL
1070
     0
1002
}
1002
{
1000
BEHIND
1070
     0
1002
}
1002
{
1000
OTHER
1070
     0
1002
}
1002
{
1000
REACTOR
1002
}
1001
GENIUS_GENOBJ-N-FIL_13
1002
{
1000
OWNER
1000
GEN
1002
}
  0
LINE
  5
14B36
  8
0
 10
-23.9999748193638389
 20
-263.7093700789069999
 30
0.0
 11
24.0000252840734483
 21
-263.7093651139061876
 31
0.0
  0
LINE
  5
14B37
  8
0
 10
75.5217668522930126
 20
-258.7093750789068167
 30
0.0
 11
-75.5216875538037584
 21
-258.7093750789068167
 31
0.0
  0
ARC
  5
14B38
  8
0
 10
-75.5216875538037584
 20
-250.7093750789067883
 30
0.0
 40
8.0
 50
192.0000000000156888
 51
270.0
1001
GENIUS_GENODEF_13
1002
{
1000
HIER
1070
     0
1002
}
1002
{
1000
MANEDIT
1070
     0
1002
}
1002
{
1000
NOSEL
1070
     0
1002
}
1002
{
1000
BEHIND
1070
     0
1002
}
1002
{
1000
OTHER
1070
     0
1002
}
1002
{
1000
REACTOR
1002
}
1001
GENIUS_GENOBJ-N-FIL_13
1002
{
1000
OWNER
1000
GEN
1002
}
  0
LINE
  5
14B39
  8
0
 10
-24.9999798193637197
 20
-258.7093750789068167
 30
0.0
 11
-24.9999798193637197
 21
-262.7093650789062167
 31
0.0
  0
LINE
  5
14B3A
  8
0
 10
25.0000301806360312
 20
-258.7093750789068167
 30
0.0
 11
25.0000301806360312
 21
-262.7093650789062167
 31
0.0
  0
ARC
  5
14B3B
  8
0
 10
-23.9999748193638389
 20
-262.7093650789062167
 30
0.0
 40
1.000000035
 50
180.0
 51
270.0000100000009979
  0
ARC
  5
14B3C
  8
0
 10
24.0000251806361611
 20
-262.7093650789062167
 30
0.0
 40
1.000000035
 50
269.9999899999990021
 51
0.0000039999795585
  0
LINE
  5
14B3D
  8
0
 10
83.3469476581637849
 20
-252.3726686054484105
 30
0.0
 11
87.907420217326262
 21
-230.9173320901604995
 31
0.0
  0
ARC
  5
14B3E
  8
0
 10
39.0000401806362404
 20
-220.5217475492723054
 30
0.0
 40
50.0
 50
347.9999999999843112
 51
0.0
1001
GENIUS_GENODEF_13
1002
{
1000
HIER
1070
     0
1002
}
1002
{
1000
MANEDIT
1070
     0
1002
}
1002
{
1000
NOSEL
1070
     0
1002
}
1002
{
1000
BEHIND
1070
     0
1002
}
1002
{
1000
OTHER
1070
     0
1002
}
1002
{
1000
REACTOR
1002
}
1001
GENIUS_GENOBJ-N-FIL_13
1002
{
1000
OWNER
1000
GEN
1002
}
  0
LINE
  5
14B3F
  8
0
 10
89.0000401806362333
 20
-220.5217475492723054
 30
0.0
 11
89.0000401806362333
 21
-169.0809489821554052
 31
0.0
  0
ARC
  5
14B40
  8
0
 10
94.0000401806362333
 20
-169.0809489821554052
 30
0.0
 40
5.0
 50
120.0000000000072049
 51
180.0
1001
GENIUS_GENODEF_13
1002
{
1000
HIER
1070
     0
1002
}
1002
{
1000
MANEDIT
1070
     0
1002
}
1002
{
1000
NOSEL
1070
     0
1002
}
1002
{
1000
BEHIND
1070
     0
1002
}
1002
{
1000
OTHER
1070
     0
1002
}
1002
{
1000
REACTOR
1002
}
1001
GENIUS_GENOBJ-N-FIL_13
1002
{
1000
OWNER
1000
GEN
1002
}
  0
LINE
  5
14B41
  8
0
 10
-88.9999598193637667
 20
-169.0809489821554052
 30
0.0
 11
-88.9999598193637667
 21
-220.5217525492722075
 31
0.0
  0
ARC
  5
14B42
  8
0
 10
-93.9999598193637667
 20
-169.0809489821554052
 30
0.0
 40
5.0
 50
0.0
 51
59.999999999992788
1001
GENIUS_GENODEF_13
1002
{
1000
HIER
1070
     0
1002
}
1002
{
1000
MANEDIT
1070
     0
1002
}
1002
{
1000
NOSEL
1070
     0
1002
}
1002
{
1000
BEHIND
1070
     0
1002
}
1002
{
1000
OTHER
1070
     0
1002
}
1002
{
1000
REACTOR
1002
}
1001
GENIUS_GENOBJ-N-FIL_13
1002
{
1000
OWNER
1000
GEN
1002
}
  0
LINE
  5
14B43
  8
0
 10
-87.9073398560542643
 20
-230.9173370901613112
 30
0.0
 11
-83.346868359674076
 21
-252.3726686054484105
 31
0.0
  0
ARC
  5
14B44
  8
0
 10
-38.9999598193637667
 20
-220.5217525492722075
 30
0.0
 40
50.0
 50
180.0
 51
192.0000000000156888
1001
GENIUS_GENODEF_13
1002
{
1000
HIER
1070
     0
1002
}
1002
{
1000
MANEDIT
1070
     0
1002
}
1002
{
1000
NOSEL
1070
     0
1002
}
1002
{
1000
BEHIND
1070
     0
1002
}
1002
{
1000
OTHER
1070
     0
1002
}
1002
{
1000
REACTOR
1002
}
1001
GENIUS_GENOBJ-N-FIL_13
1002
{
1000
OWNER
1000
GEN
1002
}
  0
LINE
  5
14B45
  8
0
 10
-94.4999598193637667
 20
-160.7093700789060051
 30
0.0
 11
94.5000401806362333
 21
-160.7093700789060051
 31
0.0
  0
LINE
  5
14B46
  8
0
 10
-88.9999598193637667
 20
-166.1941976362072921
 30
0.0
 11
89.0000401806362333
 21
-166.1941976362072921
 31
0.0
  0
LINE
  5
14B47
  8
0
 10
-87.9073398560542643
 20
-225.7769643125562027
 30
0.0
 11
87.9074202173258072
 21
-225.7769643125562027
 31
0.0
  0
LINE
  5
14B48
  8
0
 10
85.7222251806358599
 20
-125.2093900789063952
 30
0.0
 11
85.7222251806358599
 21
-131.4593800789066904
 31
0.0
  0
LINE
  5
14B49
  8
0
 10
98.5004251806360571
 20
-132.7093900789064094
 30
0.0
 11
98.5004251806360571
 21
-134.7093700789060051
 31
0.0
  0
LINE
  5
14B4A
  8
0
 10
97.6344451806360212
 20
-124.7094400789060984
 30
0.0
 11
98.5004731806359501
 21
-125.2094350789061963
 31
0.0
  0
LINE
  5
14B4B
  8
0
 10
86.3716051806361378
 20
-125.2093900789063952
 30
0.0
 11
86.3716051806361378
 21
-131.4593800789066904
 31
0.0
  0
LINE
  5
14B4C
  8
0
 10
86.3667451806361441
 20
-124.7094250789064063
 30
0.0
 11
85.5007201806358808
 21
-125.2094200789055947
 31
0.0
  0
LINE
  5
14B4D
  8
0
 10
85.500765180636094
 20
-131.4593800789066904
 30
0.0
 11
98.5007851806360577
 21
-131.4593800789066904
 31
0.0
  0
LINE
  5
14B4E
  8
0
 10
87.4045501806360789
 20
-125.2093900789063952
 30
0.0
 11
87.4045501806360789
 21
-131.4593800789066904
 31
0.0
  0
LINE
  5
14B4F
  8
0
 10
96.5969551806358453
 20
-125.2093900789063952
 30
0.0
 11
96.5969551806358453
 21
-131.4593800789066904
 31
0.0
  0
LINE
  5
14B50
  8
0
 10
85.500765180636094
 20
-125.2093900789063952
 30
0.0
 11
85.500765180636094
 21
-132.7093900789064094
 31
0.0
  0
LINE
  5
14B51
  8
0
 10
93.6831001806360746
 20
-125.2093900789063952
 30
0.0
 11
93.6831001806360746
 21
-131.4593800789066904
 31
0.0
  0
LINE
  5
14B52
  8
0
 10
95.2507651806361082
 20
-125.2093900789063952
 30
0.0
 11
95.2507651806361082
 21
-131.4593800789066904
 31
0.0
  0
LINE
  5
14B53
  8
0
 10
90.3184501806360913
 20
-125.2093900789063952
 30
0.0
 11
90.3184501806360913
 21
-131.4593800789066904
 31
0.0
  0
LINE
  5
14B54
  8
0
 10
97.6347451806361732
 20
-124.709365078906103
 30
0.0
 11
98.5008001806361335
 21
-125.2093900789063952
 31
0.0
  0
LINE
  5
14B55
  8
0
 10
88.7507851806360577
 20
-125.2093900789063952
 30
0.0
 11
88.7507851806360577
 21
-131.4593800789066904
 31
0.0
  0
LINE
  5
14B56
  8
0
 10
85.500765180636094
 20
-125.2093900789063952
 30
0.0
 11
98.5007851806360577
 21
-125.2093900789063952
 31
0.0
  0
LINE
  5
14B57
  8
0
 10
92.0007751806358556
 20
-125.2093900789063952
 30
0.0
 11
92.0007751806358556
 21
-131.4593800789066904
 31
0.0
  0
LINE
  5
14B58
  8
0
 10
97.6299451806360139
 20
-125.2093900789063952
 30
0.0
 11
97.6299451806360139
 21
-131.4593800789066904
 31
0.0
  0
LINE
  5
14B59
  8
0
 10
85.500765180636094
 20
-132.7093900789064094
 30
0.0
 11
98.5007851806360577
 21
-132.7093900789064094
 31
0.0
  0
LINE
  5
14B5A
  8
0
 10
98.5007851806360577
 20
-125.2093900789063952
 30
0.0
 11
98.5007851806360577
 21
-132.7093900789064094
 31
0.0
  0
LINE
  5
14B5B
  8
0
 10
98.2792801806360927
 20
-125.2093900789063952
 30
0.0
 11
98.2792801806360927
 21
-131.4593800789066904
 31
0.0
  0
LINE
  5
14B5C
  8
0
 10
86.3667601806357652
 20
-124.7093800789067046
 30
0.0
 11
97.6347451806361732
 21
-124.7093800789067046
 31
0.0
  0
LINE
  5
14B5D
  8
0
 10
85.500765180636094
 20
-132.7093900789064094
 30
0.0
 11
85.500765180636094
 21
-134.7093700789060051
 31
0.0
  0
LINE
  5
14B5E
  8
0
 10
-85.5003338193639593
 20
-125.2093900789063952
 30
0.0
 11
-85.5003338193639593
 21
-132.7093900789064094
 31
0.0
  0
LINE
  5
14B5F
  8
0
 10
-97.6343213193638348
 20
-124.7093800789067046
 30
0.0
 11
-86.3663318193637366
 21
-124.7093800789067046
 31
0.0
  0
LINE
  5
14B60
  8
0
 10
-98.500319319363598
 20
-125.2093900789063952
 30
0.0
 11
-98.500319319363598
 21
-132.7093900789064094
 31
0.0
  0
LINE
  5
14B61
  8
0
 10
-98.500319319363598
 20
-125.2093900789063952
 30
0.0
 11
-85.5003338193639593
 21
-125.2093900789063952
 31
0.0
  0
LINE
  5
14B62
  8
0
 10
-93.6826763193637362
 20
-125.2093900789063952
 30
0.0
 11
-93.6826763193637362
 21
-131.4593800789066904
 31
0.0
  0
LINE
  5
14B63
  8
0
 10
-86.3711843193639055
 20
-125.2093900789063952
 30
0.0
 11
-86.3711843193639055
 21
-131.4593800789066904
 31
0.0
  0
LINE
  5
14B64
  8
0
 10
-87.4041278193637936
 20
-125.2093900789063952
 30
0.0
 11
-87.4041278193637936
 21
-131.4593800789066904
 31
0.0
  0
LINE
  5
14B65
  8
0
 10
-88.750319319363598
 20
-125.2093900789063952
 30
0.0
 11
-88.750319319363598
 21
-131.4593800789066904
 31
0.0
  0
LINE
  5
14B66
  8
0
 10
-85.5003338193639593
 20
-132.7093900789064094
 30
0.0
 11
-85.5003338193639593
 21
-134.7093700789060051
 31
0.0
  0
LINE
  5
14B67
  8
0
 10
-96.5965253193637636
 20
-125.2093900789063952
 30
0.0
 11
-96.5965253193637636
 21
-131.4593800789066904
 31
0.0
  0
LINE
  5
14B68
  8
0
 10
-95.2503338193639451
 20
-125.2093900789063952
 30
0.0
 11
-95.2503338193639451
 21
-131.4593800789066904
 31
0.0
  0
LINE
  5
14B69
  8
0
 10
-85.721799819363909
 20
-125.2093900789063952
 30
0.0
 11
-85.721799819363909
 21
-131.4593800789066904
 31
0.0
  0
LINE
  5
14B6A
  8
0
 10
-90.3180218193640343
 20
-125.2093900789063952
 30
0.0
 11
-90.3180218193640343
 21
-131.4593800789066904
 31
0.0
  0
LINE
  5
14B6B
  8
0
 10
-92.0003033193640789
 20
-125.2093900789063952
 30
0.0
 11
-92.0003033193640789
 21
-131.4593800789066904
 31
0.0
  0
LINE
  5
14B6C
  8
0
 10
-86.3663723193637907
 20
-124.709365078906103
 30
0.0
 11
-85.5003218193640038
 21
-125.2093900789063952
 31
0.0
  0
LINE
  5
14B6D
  8
0
 10
-97.629515319363918
 20
-125.2093900789063952
 30
0.0
 11
-97.629515319363918
 21
-131.4593800789066904
 31
0.0
  0
LINE
  5
14B6E
  8
0
 10
-85.5003338193639593
 20
-132.7093900789064094
 30
0.0
 11
-98.500319319363598
 21
-132.7093900789064094
 31
0.0
  0
LINE
  5
14B6F
  8
0
 10
-98.2788533193640887
 20
-125.2093900789063952
 30
0.0
 11
-98.2788533193640887
 21
-131.4593800789066904
 31
0.0
  0
LINE
  5
14B70
  8
0
 10
-98.5006793193640533
 20
-132.7093900789064094
 30
0.0
 11
-98.5006793193640533
 21
-134.7093700789068862
 31
0.0
  0
LINE
  5
14B71
  8
0
 10
-97.6335473193637426
 20
-124.709365078906103
 30
0.0
 11
-98.4995978193639985
 21
-125.2093900789063952
 31
0.0
  0
LINE
  5
14B72
  8
0
 10
-98.4996015693639038
 20
-132.7093900789064094
 30
0.0
 11
-85.4995815693639543
 21
-132.7093900789064094
 31
0.0
  0
LINE
  5
14B73
  8
0
 10
-98.5003140693636539
 20
-131.4593800789066904
 30
0.0
 11
-85.5002940693636901
 21
-131.4593800789066904
 31
0.0
  0
LINE
  5
14B74
  8
0
 10
-39.5003246784356179
 20
-125.2093900789063952
 30
0.0
 11
-39.5003246784356179
 21
-132.7093900789064094
 31
0.0
  0
LINE
  5
14B75
  8
0
 10
-51.6343121784359411
 20
-124.7093800789067046
 30
0.0
 11
-40.3663226784358287
 21
-124.7093800789067046
 31
0.0
  0
LINE
  5
14B76
  8
0
 10
-52.5003101784357114
 20
-125.2093900789063952
 30
0.0
 11
-52.5003101784357114
 21
-132.7093900789064094
 31
0.0
  0
LINE
  5
14B77
  8
0
 10
-52.5003101784357114
 20
-125.2093900789063952
 30
0.0
 11
-39.5003246784356179
 21
-125.2093900789063952
 31
0.0
  0
LINE
  5
14B78
  8
0
 10
-47.6826671784358496
 20
-125.2093900789063952
 30
0.0
 11
-47.6826671784358496
 21
-131.4593800789066904
 31
0.0
  0
LINE
  5
14B79
  8
0
 10
-40.3711751784360331
 20
-125.2093900789063952
 30
0.0
 11
-40.3711751784360331
 21
-131.4593800789066904
 31
0.0
  0
LINE
  5
14B7A
  8
0
 10
-41.404118678435907
 20
-125.2093900789063952
 30
0.0
 11
-41.404118678435907
 21
-131.4593800789066904
 31
0.0
  0
LINE
  5
14B7B
  8
0
 10
-42.7503101784357114
 20
-125.2093900789063952
 30
0.0
 11
-42.7503101784357114
 21
-131.4593800789066904
 31
0.0
  0
LINE
  5
14B7C
  8
0
 10
-39.5003246784356179
 20
-132.7093900789064094
 30
0.0
 11
-39.5003246784356179
 21
-134.7093700789060051
 31
0.0
  0
LINE
  5
14B7D
  8
0
 10
-50.596516178435877
 20
-125.2093900789063952
 30
0.0
 11
-50.596516178435877
 21
-131.4593800789066904
 31
0.0
  0
LINE
  5
14B7E
  8
0
 10
-49.2503246784356108
 20
-125.2093900789063952
 30
0.0
 11
-49.2503246784356108
 21
-131.4593800789066904
 31
0.0
  0
LINE
  5
14B7F
  8
0
 10
-39.7217906784355819
 20
-125.2093900789063952
 30
0.0
 11
-39.7217906784355819
 21
-131.4593800789066904
 31
0.0
  0
LINE
  5
14B80
  8
0
 10
-44.3180126784357
 20
-125.2093900789063952
 30
0.0
 11
-44.3180126784357
 21
-131.4593800789066904
 31
0.0
  0
LINE
  5
14B81
  8
0
 10
-46.0002941784357375
 20
-125.2093900789063952
 30
0.0
 11
-46.0002941784357375
 21
-131.4593800789066904
 31
0.0
  0
LINE
  5
14B82
  8
0
 10
-40.3663631784358969
 20
-124.709365078906103
 30
0.0
 11
-39.5003126784356482
 21
-125.2093900789063952
 31
0.0
  0
LINE
  5
14B83
  8
0
 10
-51.6295061784360314
 20
-125.2093900789063952
 30
0.0
 11
-51.6295061784360314
 21
-131.4593800789066904
 31
0.0
  0
LINE
  5
14B84
  8
0
 10
-39.5003246784356179
 20
-132.7093900789064094
 30
0.0
 11
-52.5003101784357114
 21
-132.7093900789064094
 31
0.0
  0
LINE
  5
14B85
  8
0
 10
-52.2788441784357474
 20
-125.2093900789063952
 30
0.0
 11
-52.2788441784357474
 21
-131.4593800789066904
 31
0.0
  0
LINE
  5
14B86
  8
0
 10
-52.5006701784357119
 20
-132.7093900789064094
 30
0.0
 11
-52.5006701784357119
 21
-134.7093700789068862
 31
0.0
  0
LINE
  5
14B87
  8
0
 10
-51.6335381784358489
 20
-124.709365078906103
 30
0.0
 11
-52.4995886784361119
 21
-125.2093900789063952
 31
0.0
  0
LINE
  5
14B88
  8
0
 10
-52.49959242843601
 20
-132.7093900789064094
 30
0.0
 11
-39.4995724284356129
 21
-132.7093900789064094
 31
0.0
  0
LINE
  5
14B89
  8
0
 10
-52.500304928435753
 20
-131.4593800789066904
 30
0.0
 11
-39.5002849284358106
 21
-131.4593800789066904
 31
0.0
  0
LINE
  5
14B8A
  8
0
 10
52.4996936034183292
 20
-125.2093900789063952
 30
0.0
 11
52.4996936034183292
 21
-132.7093900789064094
 31
0.0
  0
LINE
  5
14B8B
  8
0
 10
40.3657061034184608
 20
-124.7093800789067046
 30
0.0
 11
51.6336956034185732
 21
-124.7093800789067046
 31
0.0
  0
LINE
  5
14B8C
  8
0
 10
39.4997081034186976
 20
-125.2093900789063952
 30
0.0
 11
39.4997081034186976
 21
-132.7093900789064094
 31
0.0
  0
LINE
  5
14B8D
  8
0
 10
39.4997081034186976
 20
-125.2093900789063952
 30
0.0
 11
52.4996936034183292
 21
-125.2093900789063952
 31
0.0
  0
LINE
  5
14B8E
  8
0
 10
44.3173511034185594
 20
-125.2093900789063952
 30
0.0
 11
44.3173511034185594
 21
-131.4593800789066904
 31
0.0
  0
LINE
  5
14B8F
  8
0
 10
51.6288431034183688
 20
-125.2093900789063952
 30
0.0
 11
51.6288431034183688
 21
-131.4593800789066904
 31
0.0
  0
LINE
  5
14B90
  8
0
 10
50.595899603418502
 20
-125.2093900789063952
 30
0.0
 11
50.595899603418502
 21
-131.4593800789066904
 31
0.0
  0
LINE
  5
14B91
  8
0
 10
49.2497081034186976
 20
-125.2093900789063952
 30
0.0
 11
49.2497081034186976
 21
-131.4593800789066904
 31
0.0
  0
LINE
  5
14B92
  8
0
 10
52.4996936034183292
 20
-132.7093900789064094
 30
0.0
 11
52.4996936034183292
 21
-134.7093700789060051
 31
0.0
  0
LINE
  5
14B93
  8
0
 10
41.403502103418532
 20
-125.2093900789063952
 30
0.0
 11
41.403502103418532
 21
-131.4593800789066904
 31
0.0
  0
LINE
  5
14B94
  8
0
 10
42.7496936034183435
 20
-125.2093900789063952
 30
0.0
 11
42.7496936034183435
 21
-131.4593800789066904
 31
0.0
  0
LINE
  5
14B95
  8
0
 10
52.2782276034183724
 20
-125.2093900789063952
 30
0.0
 11
52.2782276034183724
 21
-131.4593800789066904
 31
0.0
  0
LINE
  5
14B96
  8
0
 10
47.68200560341824
 20
-125.2093900789063952
 30
0.0
 11
47.68200560341824
 21
-131.4593800789066904
 31
0.0
  0
LINE
  5
14B97
  8
0
 10
45.9997241034182025
 20
-125.2093900789063952
 30
0.0
 11
45.9997241034182025
 21
-131.4593800789066904
 31
0.0
  0
LINE
  5
14B98
  8
0
 10
51.6336551034185121
 20
-124.709365078906103
 30
0.0
 11
52.4997056034182989
 21
-125.2093900789063952
 31
0.0
  0
LINE
  5
14B99
  8
0
 10
40.3705121034183776
 20
-125.2093900789063952
 30
0.0
 11
40.3705121034183776
 21
-131.4593800789066904
 31
0.0
  0
LINE
  5
14B9A
  8
0
 10
52.4996936034183292
 20
-132.7093900789064094
 30
0.0
 11
39.4997081034186976
 21
-132.7093900789064094
 31
0.0
  0
LINE
  5
14B9B
  8
0
 10
39.7211741034182069
 20
-125.2093900789063952
 30
0.0
 11
39.7211741034182069
 21
-131.4593800789066904
 31
0.0
  0
LINE
  5
14B9C
  8
0
 10
39.4993481034182423
 20
-132.7093900789064094
 30
0.0
 11
39.4993481034182423
 21
-134.7093700789068862
 31
0.0
  0
LINE
  5
14B9D
  8
0
 10
40.366480103418553
 20
-124.709365078906103
 30
0.0
 11
39.5004296034182971
 21
-125.2093900789063952
 31
0.0
  0
LINE
  5
14B9E
  8
0
 10
39.5004258534183919
 20
-132.7093900789064094
 30
0.0
 11
52.5004458534183414
 21
-132.7093900789064094
 31
0.0
  0
LINE
  5
14B9F
  8
0
 10
39.4997133534186631
 20
-131.4593800789066904
 30
0.0
 11
52.4997333534185984
 21
-131.4593800789066904
 31
0.0
  0
LINE
  5
14BA0
  8
0
 10
100.5000601806360976
 20
-154.9261600789064062
 30
0.0
 11
100.5000601806360976
 21
-145.4925700789067946
 31
0.0
  0
LINE
  5
14BA1
  8
0
 10
101.5653701806360942
 20
-145.4593300789061061
 30
0.0
 11
98.5000401806362333
 21
-145.5551200789064126
 31
0.0
  0
LINE
  5
14BA2
  8
0
 10
116.0639701806360051
 20
-155.2093100789066114
 30
0.0
 11
116.0639701806360051
 21
-145.2093100789066114
 31
0.0
  0
LINE
  5
14BA3
  8
0
 10
116.0639701806360051
 20
-145.2093100789066114
 30
0.0
 11
103.5640301806358963
 21
-145.2093100789066114
 31
0.0
  0
LINE
  5
14BA4
  8
0
 10
116.0639701806360051
 20
-155.2093100789066114
 30
0.0
 11
103.5640301806358963
 21
-155.2093100789066114
 31
0.0
  0
LINE
  5
14BA5
  8
0
 10
103.5640301806358963
 20
-155.2093100789066114
 30
0.0
 11
103.5640301806358963
 21
-145.2093100789066114
 31
0.0
  0
LINE
  5
14BA6
  8
0
 10
103.5640301806358963
 20
-154.9593100789066114
 30
0.0
 11
101.5640301806358963
 21
-154.9593100789066114
 31
0.0
  0
LINE
  5
14BA7
  8
0
 10
103.5640301806358963
 20
-145.4593100789066114
 30
0.0
 11
101.5640301806358963
 21
-145.4593100789066114
 31
0.0
  0
LINE
  5
14BA8
  8
0
 10
101.5639901806358978
 20
-154.9593400789059103
 30
0.0
 11
98.5000401806362333
 21
-154.8635869572694901
 31
0.0
  0
LINE
  5
14BA9
  8
0
 10
-52.4499988787961229
 20
-116.2094153311019937
 30
0.0
 11
-52.450002104653997
 21
-99.209379810658163
 31
0.0
  0
LINE
  5
14BAA
  8
0
 10
-52.4500021046541178
 20
-99.2093795623495112
 30
0.0
 11
52.450119029632333
 21
-99.2093994677715614
 31
0.0
  0
LINE
  5
14BAB
  8
0
 10
-52.4499988787953271
 20
-116.2094200471981935
 30
0.0
 11
52.4501158037735422
 21
-116.2094399526189932
 31
0.0
  0
LINE
  5
14BAC
  8
0
 10
-69.9998815375076902
 20
72.540629821095024
 30
0.0
 11
-69.9998815375076902
 21
76.5906298210938417
 31
0.0
  0
LINE
  5
14BAD
  8
0
 10
-65.7499515375187684
 20
-51.9593601788964676
 30
0.0
 11
-47.2999415375088574
 21
-70.4093701789061583
 31
0.0
  0
LINE
  5
14BAE
  8
0
 10
-47.2999415375088574
 20
-70.4093701789061583
 30
0.0
 11
0.0000584624910971
 21
-70.4093701789061583
 31
0.0
  0
LINE
  5
14BAF
  8
0
 10
-14.9999412528744607
 20
-99.2093724559777712
 30
0.0
 11
-14.9999415375088994
 21
-70.4093701789061583
 31
0.0
  0
LINE
  5
14BB0
  8
0
  6
CONTINUOUS
 10
-94.1583736135023628
 20
-31.7093701789044111
 30
0.0
 11
-69.9998815375081449
 21
-31.7093701789045213
 31
0.0
  0
ARC
  5
14BB1
  8
0
 10
-94.074974851523379
 20
-101.5599672280749957
 30
0.0
 40
69.8506468300376895
 50
90.0691888801228799
 51
134.930821050300608
  0
ARC
  5
14BB2
  8
0
 10
-94.0750973604956471
 20
-101.5596714890935033
 30
0.0
 40
133.3503167617419933
 50
90.0361893998179426
 51
134.9638157946232013
  0
LINE
  5
14BB3
  8
0
 10
-150.8210439353377126
 20
-68.6774342626649172
 30
0.0
 11
-153.1406502749497918
 21
-63.7030327594281403
 31
0.0
  0
LINE
  5
14BB4
  8
0
 10
-152.5995519987538955
 20
-71.2003898351899238
 30
0.0
 11
-150.9803906069232085
 21
-69.5812284433799846
 31
0.0
  0
ARC
  5
14BB5
  8
0
 10
-151.5460901740304962
 20
-69.0155288762830992
 30
0.0
 40
0.8000000099999997
 50
314.9999999999449756
 51
24.9999999999501412
  0
LINE
  5
14BB6
  8
0
 10
-152.7422489365197009
 20
-61.4435812297456891
 30
0.0
 11
-143.4071691466234881
 21
-52.1085014398382214
 31
0.0
  0
ARC
  5
14BB7
  8
0
 10
-151.3280353741455997
 20
-62.8577947921179998
 30
0.0
 40
2.0
 50
135.0000000000370903
 51
205.0000456386395058
  0
LINE
  5
14BB8
  8
0
 10
-204.8828049766719062
 20
-14.6185859588270493
 30
0.0
 11
-199.9029599096199945
 21
-16.9407058347674706
 31
0.0
  0
ARC
  5
14BB9
  8
0
 10
-199.0577293703005921
 20
-15.1280874702457009
 30
0.0
 40
2.0
 50
245.0001891559194007
 51
315.0000000000740101
  0
LINE
  5
14BBA
  8
0
 10
-207.4003275407173987
 20
-16.3996142932386988
 30
0.0
 11
-205.7783363146050135
 21
-14.7776230671261697
 31
0.0
  0
LINE
  5
14BBB
  8
0
 10
-152.5995519987538955
 20
-71.2003898351899238
 30
0.0
 11
-207.4003275407173987
 21
-16.3996142932386988
 31
0.0
  0
ARC
  5
14BBC
  8
0
 10
-205.2154877950110858
 20
-15.3461312552738605
 30
0.0
 40
0.8000000099999997
 50
64.9999999999283631
 51
135.0000100000476948
  0
LINE
  5
14BBD
  8
0
 10
-197.6435158079256951
 20
-16.5423010326169901
 30
0.0
 11
-188.3084426808964054
 21
-7.2072279055642516
 31
0.0
  0
LINE
  5
14BBE
  8
0
 10
-69.999881537508827
 20
31.7906199867822501
 30
0.0
 11
-94.159324639529359
 21
31.790618672654599
 31
0.0
  0
LINE
  5
14BBF
  8
0
 10
-151.0891500748884937
 20
-68.6803055914480751
 30
0.0
 11
-204.8802397614514916
 21
-14.8892159049091202
 31
0.0
  0
LINE
  5
14BC0
  8
0
 10
-153.7324817916502866
 20
-62.4338140848907983
 30
0.0
 11
-198.6337553259511139
 21
-17.5325405506449101
 31
0.0
  0
LINE
  5
14BC1
  8
0
 10
8.000060146961232
 20
-263.7093684239038112
 30
0.0
 11
7.9998146928621727
 21
-276.7793630127962956
 31
0.0
  0
LINE
  5
14BC2
  8
0
 10
11.0000686318032894
 20
-276.7793630127962956
 30
0.0
 11
-10.9999523419658107
 21
-276.7793630127962956
 31
0.0
  0
LINE
  5
14BC3
  8
0
 10
10.0000636318034104
 20
-280.5114230127966266
 30
0.0
 11
-9.9999323419658595
 21
-280.5114980127964941
 31
0.0
  0
LINE
  5
14BC4
  8
0
 10
11.0000686318032894
 20
-276.7793630127962956
 30
0.0
 11
10.0000486318033293
 21
-280.5114980127964941
 31
0.0
  0
LINE
  5
14BC5
  8
0
 10
10.0000636318034104
 20
-280.5114230127966266
 30
0.0
 11
10.0000636318034104
 21
-306.7791830127962953
 31
0.0
  0
LINE
  5
14BC6
  8
0
 10
-6.9999473419659353
 20
-309.7791830127962953
 30
0.0
 11
7.0000636318034131
 21
-309.7791830127962953
 31
0.0
  0
ARC
  5
14BC7
  8
0
 10
7.0000636318034131
 20
-306.7791830127962953
 30
0.0
 40
3.0
 50
270.0
 51
0.0
  0
LINE
  5
14BC8
  8
0
 10
-9.9999088349247813
 20
-280.5114980127082731
 30
0.0
 11
-9.9999473419659353
 21
-306.7791830127962953
 31
0.0
  0
LINE
  5
14BC9
  8
0
 10
-10.9999523419658107
 20
-276.7793630127962956
 30
0.0
 11
-9.9999323419658595
 21
-280.5114980127964941
 31
0.0
  0
ARC
  5
14BCA
  8
0
 10
-6.9999473419659353
 20
-306.7791830127962953
 30
0.0
 40
3.0
 50
180.0
 51
270.0
  0
LINE
  5
14BCB
  8
0
 10
-7.9999458266963748
 20
-263.7093684239038112
 30
0.0
 11
-7.9997003725973173
 21
-276.7793630127962956
 31
0.0
  0
LINE
  5
14BCC
  8
0
 10
78.7500584624913245
 20
-33.4593201789231784
 30
0.0
 11
-78.7499415375120861
 21
-33.4593201788941883
 31
0.0
  0
LINE
  5
14BCD
  8
0
 10
-78.7499415375120861
 20
-51.9593601788940802
 30
0.0
 11
-78.7499415375120861
 21
-33.4593201788941883
 31
0.0
  0
LINE
  5
14BCE
  8
0
 10
78.7500584624879139
 20
-51.9593601789230704
 30
0.0
 11
-78.7499415375120861
 21
-51.9593601788940802
 31
0.0
  0
LINE
  5
14BCF
  8
0
 10
78.7500584624879139
 20
-51.9593601789084119
 30
0.0
 11
78.7500584624913245
 21
-33.4593201789085128
 31
0.0
  0
LINE
  5
14BD0
  8
0
 10
84.7500584624906423
 20
72.5406298210901355
 30
0.0
 11
84.7500584624892781
 21
48.0406298210971769
 31
0.0
  0
LINE
  5
14BD1
  8
0
 10
69.999998462502603
 20
-33.4593201788957799
 30
0.0
 11
69.9999984624882927
 21
48.0406298211013905
 31
0.0
  0
LINE
  5
14BD2
  8
0
 10
126.500058462374696
 20
76.5906298210939553
 30
0.0
 11
126.5000584623973054
 21
100.5907675141456963
 31
0.0
  0
LINE
  5
14BD3
  8
0
 10
69.9999984624898843
 20
72.540629821095024
 30
0.0
 11
69.9999984624898843
 21
76.5906298210938417
 31
0.0
  0
LINE
  5
14BD4
  8
0
  6
CONTINUOUS
 10
94.158490538484557
 20
-31.7093701789044111
 30
0.0
 11
69.9999984624903391
 21
-31.7093701789045213
 31
0.0
  0
ARC
  5
14BD5
  8
0
 10
94.0750917765055732
 20
-101.5599672280749957
 30
0.0
 40
69.8506468300376895
 50
45.0691789497005502
 51
89.9308111198706257
  0
ARC
  5
14BD6
  8
0
 10
94.0752142854778413
 20
-101.5596714890935033
 30
0.0
 40
133.3503167617419933
 50
45.0361842053860428
 51
89.9638106001755631
  0
LINE
  5
14BD7
  8
0
 10
150.8211608603199068
 20
-68.6774342626649172
 30
0.0
 11
153.1407671999319859
 21
-63.7030327594281403
 31
0.0
  0
LINE
  5
14BD8
  8
0
 10
152.5996689237360897
 20
-71.2003898351899238
 30
0.0
 11
150.9805075319054026
 21
-69.5812284433799846
 31
0.0
  0
ARC
  5
14BD9
  8
0
 10
151.5462070990126904
 20
-69.0155288762830992
 30
0.0
 40
0.8000000099999997
 50
155.0000000000439115
 51
225.0000000000468958
  0
LINE
  5
14BDA
  8
0
 10
152.7423658615018098
 20
-61.4435812297456891
 30
0.0
 11
143.4072860716057107
 21
-52.1085014398382214
 31
0.0
  0
ARC
  5
14BDB
  8
0
 10
151.3281522991277939
 20
-62.8577947921179998
 30
0.0
 40
2.0
 50
334.9999543613604942
 51
44.9999999999720828
  0
LINE
  5
14BDC
  8
0
 10
204.8829219016541003
 20
-14.6185859588270493
 30
0.0
 11
199.9030768346021887
 21
-16.9407058347674706
 31
0.0
  0
ARC
  5
14BDD
  8
0
 10
199.0578462952827863
 20
-15.1280874702457009
 30
0.0
 40
2.0
 50
224.9999999999351985
 51
294.9998108440806277
  0
LINE
  5
14BDE
  8
0
 10
207.4004444656995929
 20
-16.3996142932386988
 30
0.0
 11
205.7784532395872077
 21
-14.7776230671261697
 31
0.0
  0
LINE
  5
14BDF
  8
0
 10
152.5996689237360897
 20
-71.2003898351899238
 30
0.0
 11
207.4004444656995929
 21
-16.3996142932386988
 31
0.0
  0
ARC
  5
14BE0
  8
0
 10
205.2156047199933084
 20
-15.3461312552738605
 30
0.0
 40
0.8000000099999997
 50
44.9999899999522484
 51
115.0000000000642046
  0
LINE
  5
14BE1
  8
0
 10
197.6436327329078892
 20
-16.5423010326169901
 30
0.0
 11
188.3085596058785995
 21
-7.2072279055642516
 31
0.0
  0
LINE
  5
14BE2
  8
0
 10
69.9999984624910212
 20
31.7906199867822501
 30
0.0
 11
94.1594415645115532
 21
31.790618672654599
 31
0.0
  0
LINE
  5
14BE3
  8
0
 10
151.0892669998706879
 20
-68.6803055914480751
 30
0.0
 11
204.8803566864337995
 21
-14.8892159049091202
 31
0.0
  0
LINE
  5
14BE4
  8
0
 10
153.7325987166325092
 20
-62.4338140848907983
 30
0.0
 11
198.6338722509333081
 21
-17.5325405506449101
 31
0.0
  0
LINE
  5
14BE5
  8
0
 10
-165.9285151562706062
 20
-29.7285767867971913
 30
0.0
 11
-196.2633953533351985
 21
-60.0634584151956119
 31
0.0
1001
GENIUS_GENODEF_13
1002
{
1000
HIER
1070
     0
1002
}
1002
{
1000
MANEDIT
1070
     0
1002
}
1002
{
1000
NOSEL
1070
     0
1002
}
1002
{
1000
BEHIND
1070
     0
1002
}
1002
{
1000
OTHER
1070
     0
1002
}
1002
{
1000
REACTOR
1002
}
1001
GENIUS_GENOBJ-N-CEN_13
1002
{
1000
OWNER
1000
GEN
1002
}
1001
GENIUS_GENCEN_19
1002
{
1040
3.0
1002
}
  0
ARC
  5
14BE6
  8
0
  6
CENTER
 10
-94.2272569019107635
 20
-101.3310865530641962
 30
0.0
 40
101.3310901948987066
 50
89.9898902829697676
 51
135.0394816602832861
  0
LINE
  5
14BE7
  8
0
 10
165.9286317492766898
 20
-29.7285771187732202
 30
0.0
 11
196.2635126620081962
 21
-60.063458031504922
 31
0.0
1001
GENIUS_GENODEF_13
1002
{
1000
HIER
1070
     0
1002
}
1002
{
1000
MANEDIT
1070
     0
1002
}
1002
{
1000
NOSEL
1070
     0
1002
}
1002
{
1000
BEHIND
1070
     0
1002
}
1002
{
1000
OTHER
1070
     0
1002
}
1002
{
1000
REACTOR
1002
}
1001
GENIUS_GENOBJ-N-CEN_13
1002
{
1000
OWNER
1000
GEN
1002
}
1001
GENIUS_GENCEN_19
1002
{
1040
3.0
1002
}
  0
ARC
  5
14BE8
  8
0
  6
CENTER
 10
94.2273751841780722
 20
-101.3310885766310037
 30
0.0
 40
101.3310901948987066
 50
44.9605196914581882
 51
90.0154467318916289
  0
LINE
  5
14BE9
  8
0
  6
CENTER
 10
-94.2093772491400614
 20
0.0000020644213805
 30
0.0
 11
94.2000566944591355
 21
-0.0000020642145842
 31
0.0
1001
GENIUS_GENODEF_13
1002
{
1000
HIER
1070
     0
1002
}
1002
{
1000
MANEDIT
1070
     0
1002
}
1002
{
1000
NOSEL
1070
     0
1002
}
1002
{
1000
BEHIND
1070
     0
1002
}
1002
{
1000
OTHER
1070
     0
1002
}
1002
{
1000
REACTOR
1002
}
1001
GENIUS_GENOBJ-N-CEN_13
1002
{
1000
OWNER
1000
GEN
1002
}
1001
GENIUS_GENCEN_19
1002
{
1040
3.0
1002
}
  0
LINE
  5
14BEA
  8
0
 10
39.5000858092018916
 20
-126.7093700789060051
 30
0.0
 11
39.5000858092018916
 21
-116.2094142078791066
 31
0.0
  0
LINE
  5
14BEB
  8
0
 10
52.45011580377831
 20
-116.2094153311019937
 30
0.0
 11
52.4501190296361983
 21
-99.209379810658163
 31
0.0
  0
LINE
  5
14BEC
  8
0
 10
15.0000581778566602
 20
-99.2093724559777712
 30
0.0
 11
15.00005846249109
 21
-70.4093701789061583
 31
0.0
  0
LINE
  5
14BED
  8
0
 10
65.7500684625009626
 20
-51.9593601788964676
 30
0.0
 11
47.3000584624910516
 21
-70.4093701789061583
 31
0.0
  0
LINE
  5
14BEE
  8
0
 10
47.3000584624910516
 20
-70.4093701789061583
 30
0.0
 11
0.0000584624910971
 21
-70.4093701789061583
 31
0.0
  0
LINE
  5
14BEF
  8
0
  6
CENTER
 10
0.0000584624558542
 20
115.6950436077567019
 30
0.0
 11
0.0000584624544899
 21
-332.6160019702891191
 31
0.0
1001
GENIUS_GENOBJ-N-CEN_13
1002
{
1000
OWNER
1000
GEN
1002
}
1001
GENIUS_GENODEF_13
1002
{
1000
HIER
1070
     0
1002
}
1002
{
1000
MANEDIT
1070
     0
1002
}
1002
{
1000
NOSEL
1070
     0
1002
}
1002
{
1000
BEHIND
1070
     0
1002
}
1002
{
1000
OTHER
1070
     0
1002
}
1002
{
1000
REACTOR
1002
}
1001
GENIUS_GENCEN_19
1002
{
1040
3.0
1002
}
  0
POLYLINE
  5
14BF0
  8
0
 10
-179.9999397697355903
 20
-460.748930558067741
 30
0.0
 66
     1
 70
     8
  0
VERTEX
  8
0
  5
14CA3
 10
-180.000
 20
-460.749
 30
0.00000
  70
    32
  0
VERTEX
  8
0
  5
14CA4
 10
-181.344
 20
-460.796
 30
0.00000
  70
    32
  0
VERTEX
  8
0
  5
14CA5
 10
-182.686
 20
-460.936
 30
0.00000
  70
    32
  0
VERTEX
  8
0
  5
14CA6
 10
-184.020
 20
-461.168
 30
0.00000
  70
    32
  0
VERTEX
  8
0
  5
14CA7
 10
-185.345
 20
-461.494
 30
0.00000
  70
    32
  0
VERTEX
  8
0
  5
14CA8
 10
-186.658
 20
-461.910
 30
0.00000
  70
    32
  0
VERTEX
  8
0
  5
14CA9
 10
-187.954
 20
-462.417
 30
0.00000
  70
    32
  0
VERTEX
  8
0
  5
14CAA
 10
-189.231
 20
-463.014
 30
0.00000
  70
    32
  0
VERTEX
  8
0
  5
14CAB
 10
-190.486
 20
-463.699
 30
0.00000
  70
    32
  0
VERTEX
  8
0
  5
14CAC
 10
-191.715
 20
-464.469
 30
0.00000
  70
    32
  0
VERTEX
  8
0
  5
14CAD
 10
-192.916
 20
-465.324
 30
0.00000
  70
    32
  0
VERTEX
  8
0
  5
14CAE
 10
-194.087
 20
-466.262
 30
0.00000
  70
    32
  0
VERTEX
  8
0
  5
14CAF
 10
-195.223
 20
-467.279
 30
0.00000
  70
    32
  0
VERTEX
  8
0
  5
14CB0
 10
-196.322
 20
-468.375
 30
0.00000
  70
    32
  0
VERTEX
  8
0
  5
14CB1
 10
-197.383
 20
-469.545
 30
0.00000
  70
    32
  0
VERTEX
  8
0
  5
14CB2
 10
-198.401
 20
-470.787
 30
0.00000
  70
    32
  0
VERTEX
  8
0
  5
14CB3
 10
-199.375
 20
-472.099
 30
0.00000
  70
    32
  0
VERTEX
  8
0
  5
14CB4
 10
-200.302
 20
-473.476
 30
0.00000
  70
    32
  0
VERTEX
  8
0
  5
14CB5
 10
-201.181
 20
-474.916
 30
0.00000
  70
    32
  0
VERTEX
  8
0
  5
14CB6
 10
-202.008
 20
-476.416
 30
0.00000
  70
    32
  0
VERTEX
  8
0
  5
14CB7
 10
-202.783
 20
-477.971
 30
0.00000
  70
    32
  0
VERTEX
  8
0
  5
14CB8
 10
-203.502
 20
-479.577
 30
0.00000
  70
    32
  0
VERTEX
  8
0
  5
14CB9
 10
-204.165
 20
-481.232
 30
0.00000
  70
    32
  0
VERTEX
  8
0
  5
14CBA
 10
-204.770
 20
-482.931
 30
0.00000
  70
    32
  0
VERTEX
  8
0
  5
14CBB
 10
-205.315
 20
-484.670
 30
0.00000
  70
    32
  0
VERTEX
  8
0
  5
14CBC
 10
-205.799
 20
-486.444
 30
0.00000
  70
    32
  0
VERTEX
  8
0
  5
14CBD
 10
-206.220
 20
-488.250
 30
0.00000
  70
    32
  0
VERTEX
  8
0
  5
14CBE
 10
-206.579
 20
-490.083
 30
0.00000
  70
    32
  0
VERTEX
  8
0
  5
14CBF
 10
-206.874
 20
-491.939
 30
0.00000
  70
    32
  0
VERTEX
  8
0
  5
14CC0
 10
-207.104
 20
-493.813
 30
0.00000
  70
    32
  0
VERTEX
  8
0
  5
14CC1
 10
-207.268
 20
-495.701
 30
0.00000
  70
    32
  0
VERTEX
  8
0
  5
14CC2
 10
-207.367
 20
-497.598
 30
0.00000
  70
    32
  0
VERTEX
  8
0
  5
14CC3
 10
-207.400
 20
-499.499
 30
0.00000
  70
    32
  0
VERTEX
  8
0
  5
14CC4
 10
-207.367
 20
-501.400
 30
0.00000
  70
    32
  0
VERTEX
  8
0
  5
14CC5
 10
-207.268
 20
-503.297
 30
0.00000
  70
    32
  0
VERTEX
  8
0
  5
14CC6
 10
-207.104
 20
-505.185
 30
0.00000
  70
    32
  0
VERTEX
  8
0
  5
14CC7
 10
-206.874
 20
-507.059
 30
0.00000
  70
    32
  0
VERTEX
  8
0
  5
14CC8
 10
-206.579
 20
-508.914
 30
0.00000
  70
    32
  0
VERTEX
  8
0
  5
14CC9
 10
-206.220
 20
-510.747
 30
0.00000
  70
    32
  0
VERTEX
  8
0
  5
14CCA
 10
-205.799
 20
-512.553
 30
0.00000
  70
    32
  0
VERTEX
  8
0
  5
14CCB
 10
-205.315
 20
-514.328
 30
0.00000
  70
    32
  0
VERTEX
  8
0
  5
14CCC
 10
-204.770
 20
-516.067
 30
0.00000
  70
    32
  0
VERTEX
  8
0
  5
14CCD
 10
-204.165
 20
-517.766
 30
0.00000
  70
    32
  0
VERTEX
  8
0
  5
14CCE
 10
-203.502
 20
-519.420
 30
0.00000
  70
    32
  0
VERTEX
  8
0
  5
14CCF
 10
-202.783
 20
-521.027
 30
0.00000
  70
    32
  0
VERTEX
  8
0
  5
14CD0
 10
-202.008
 20
-522.582
 30
0.00000
  70
    32
  0
VERTEX
  8
0
  5
14CD1
 10
-201.181
 20
-524.082
 30
0.00000
  70
    32
  0
VERTEX
  8
0
  5
14CD2
 10
-200.302
 20
-525.522
 30
0.00000
  70
    32
  0
VERTEX
  8
0
  5
14CD3
 10
-199.375
 20
-526.899
 30
0.00000
  70
    32
  0
VERTEX
  8
0
  5
14CD4
 10
-198.401
 20
-528.211
 30
0.00000
  70
    32
  0
VERTEX
  8
0
  5
14CD5
 10
-197.383
 20
-529.453
 30
0.00000
  70
    32
  0
VERTEX
  8
0
  5
14CD6
 10
-196.322
 20
-530.623
 30
0.00000
  70
    32
  0
VERTEX
  8
0
  5
14CD7
 10
-195.223
 20
-531.718
 30
0.00000
  70
    32
  0
VERTEX
  8
0
  5
14CD8
 10
-194.087
 20
-532.736
 30
0.00000
  70
    32
  0
VERTEX
  8
0
  5
14CD9
 10
-192.916
 20
-533.673
 30
0.00000
  70
    32
  0
VERTEX
  8
0
  5
14CDA
 10
-191.715
 20
-534.529
 30
0.00000
  70
    32
  0
VERTEX
  8
0
  5
14CDB
 10
-190.486
 20
-535.299
 30
0.00000
  70
    32
  0
VERTEX
  8
0
  5
14CDC
 10
-189.231
 20
-535.984
 30
0.00000
  70
    32
  0
VERTEX
  8
0
  5
14CDD
 10
-187.954
 20
-536.580
 30
0.00000
  70
    32
  0
VERTEX
  8
0
  5
14CDE
 10
-186.658
 20
-537.088
 30
0.00000
  70
    32
  0
VERTEX
  8
0
  5
14CDF
 10
-185.345
 20
-537.504
 30
0.00000
  70
    32
  0
VERTEX
  8
0
  5
14CE0
 10
-184.020
 20
-537.830
 30
0.00000
  70
    32
  0
VERTEX
  8
0
  5
14CE1
 10
-182.686
 20
-538.062
 30
0.00000
  70
    32
  0
VERTEX
  8
0
  5
14CE2
 10
-181.344
 20
-538.202
 30
0.00000
  70
    32
  0
VERTEX
  8
0
  5
14CE3
 10
-180.000
 20
-538.249
 30
0.00000
  70
    32
  0
VERTEX
  8
0
  5
14CE4
 10
-178.655
 20
-538.202
 30
0.00000
  70
    32
  0
VERTEX
  8
0
  5
14CE5
 10
-177.314
 20
-538.062
 30
0.00000
  70
    32
  0
VERTEX
  8
0
  5
14CE6
 10
-175.979
 20
-537.830
 30
0.00000
  70
    32
  0
VERTEX
  8
0
  5
14CE7
 10
-174.654
 20
-537.504
 30
0.00000
  70
    32
  0
VERTEX
  8
0
  5
14CE8
 10
-173.342
 20
-537.088
 30
0.00000
  70
    32
  0
VERTEX
  8
0
  5
14CE9
 10
-172.046
 20
-536.580
 30
0.00000
  70
    32
  0
VERTEX
  8
0
  5
14CEA
 10
-170.769
 20
-535.984
 30
0.00000
  70
    32
  0
VERTEX
  8
0
  5
14CEB
 10
-169.514
 20
-535.299
 30
0.00000
  70
    32
  0
VERTEX
  8
0
  5
14CEC
 10
-168.285
 20
-534.529
 30
0.00000
  70
    32
  0
VERTEX
  8
0
  5
14CED
 10
-167.083
 20
-533.673
 30
0.00000
  70
    32
  0
VERTEX
  8
0
  5
14CEE
 10
-165.913
 20
-532.736
 30
0.00000
  70
    32
  0
VERTEX
  8
0
  5
14CEF
 10
-164.777
 20
-531.718
 30
0.00000
  70
    32
  0
VERTEX
  8
0
  5
14CF0
 10
-163.678
 20
-530.623
 30
0.00000
  70
    32
  0
VERTEX
  8
0
  5
14CF1
 10
-162.617
 20
-529.453
 30
0.00000
  70
    32
  0
VERTEX
  8
0
  5
14CF2
 10
-161.599
 20
-528.211
 30
0.00000
  70
    32
  0
VERTEX
  8
0
  5
14CF3
 10
-160.625
 20
-526.899
 30
0.00000
  70
    32
  0
VERTEX
  8
0
  5
14CF4
 10
-159.698
 20
-525.522
 30
0.00000
  70
    32
  0
VERTEX
  8
0
  5
14CF5
 10
-158.819
 20
-524.082
 30
0.00000
  70
    32
  0
VERTEX
  8
0
  5
14CF6
 10
-157.992
 20
-522.582
 30
0.00000
  70
    32
  0
VERTEX
  8
0
  5
14CF7
 10
-157.217
 20
-521.027
 30
0.00000
  70
    32
  0
VERTEX
  8
0
  5
14CF8
 10
-156.498
 20
-519.420
 30
0.00000
  70
    32
  0
VERTEX
  8
0
  5
14CF9
 10
-155.835
 20
-517.766
 30
0.00000
  70
    32
  0
VERTEX
  8
0
  5
14CFA
 10
-155.230
 20
-516.067
 30
0.00000
  70
    32
  0
VERTEX
  8
0
  5
14CFB
 10
-154.685
 20
-514.328
 30
0.00000
  70
    32
  0
VERTEX
  8
0
  5
14CFC
 10
-154.201
 20
-512.553
 30
0.00000
  70
    32
  0
VERTEX
  8
0
  5
14CFD
 10
-153.779
 20
-510.747
 30
0.00000
  70
    32
  0
VERTEX
  8
0
  5
14CFE
 10
-153.421
 20
-508.914
 30
0.00000
  70
    32
  0
VERTEX
  8
0
  5
14CFF
 10
-153.126
 20
-507.059
 30
0.00000
  70
    32
  0
VERTEX
  8
0
  5
14D00
 10
-152.896
 20
-505.185
 30
0.00000
  70
    32
  0
VERTEX
  8
0
  5
14D01
 10
-152.731
 20
-503.297
 30
0.00000
  70
    32
  0
VERTEX
  8
0
  5
14D02
 10
-152.633
 20
-501.400
 30
0.00000
  70
    32
  0
VERTEX
  8
0
  5
14D03
 10
-152.600
 20
-499.499
 30
0.00000
  70
    32
  0
VERTEX
  8
0
  5
14D04
 10
-152.633
 20
-497.598
 30
0.00000
  70
    32
  0
VERTEX
  8
0
  5
14D05
 10
-152.731
 20
-495.701
 30
0.00000
  70
    32
  0
VERTEX
  8
0
  5
14D06
 10
-152.896
 20
-493.813
 30
0.00000
  70
    32
  0
VERTEX
  8
0
  5
14D07
 10
-153.126
 20
-491.939
 30
0.00000
  70
    32
  0
VERTEX
  8
0
  5
14D08
 10
-153.421
 20
-490.083
 30
0.00000
  70
    32
  0
VERTEX
  8
0
  5
14D09
 10
-153.779
 20
-488.250
 30
0.00000
  70
    32
  0
VERTEX
  8
0
  5
14D0A
 10
-154.201
 20
-486.444
 30
0.00000
  70
    32
  0
VERTEX
  8
0
  5
14D0B
 10
-154.685
 20
-484.670
 30
0.00000
  70
    32
  0
VERTEX
  8
0
  5
14D0C
 10
-155.230
 20
-482.931
 30
0.00000
  70
    32
  0
VERTEX
  8
0
  5
14D0D
 10
-155.835
 20
-481.232
 30
0.00000
  70
    32
  0
VERTEX
  8
0
  5
14D0E
 10
-156.498
 20
-479.577
 30
0.00000
  70
    32
  0
VERTEX
  8
0
  5
14D0F
 10
-157.217
 20
-477.971
 30
0.00000
  70
    32
  0
VERTEX
  8
0
  5
14D10
 10
-157.992
 20
-476.416
 30
0.00000
  70
    32
  0
VERTEX
  8
0
  5
14D11
 10
-158.819
 20
-474.916
 30
0.00000
  70
    32
  0
VERTEX
  8
0
  5
14D12
 10
-159.698
 20
-473.476
 30
0.00000
  70
    32
  0
VERTEX
  8
0
  5
14D13
 10
-160.625
 20
-472.099
 30
0.00000
  70
    32
  0
VERTEX
  8
0
  5
14D14
 10
-161.599
 20
-470.787
 30
0.00000
  70
    32
  0
VERTEX
  8
0
  5
14D15
 10
-162.617
 20
-469.545
 30
0.00000
  70
    32
  0
VERTEX
  8
0
  5
14D16
 10
-163.678
 20
-468.375
 30
0.00000
  70
    32
  0
VERTEX
  8
0
  5
14D17
 10
-164.777
 20
-467.279
 30
0.00000
  70
    32
  0
VERTEX
  8
0
  5
14D18
 10
-165.913
 20
-466.262
 30
0.00000
  70
    32
  0
VERTEX
  8
0
  5
14D19
 10
-167.083
 20
-465.324
 30
0.00000
  70
    32
  0
VERTEX
  8
0
  5
14D1A
 10
-168.285
 20
-464.469
 30
0.00000
  70
    32
  0
VERTEX
  8
0
  5
14D1B
 10
-169.514
 20
-463.699
 30
0.00000
  70
    32
  0
VERTEX
  8
0
  5
14D1C
 10
-170.769
 20
-463.014
 30
0.00000
  70
    32
  0
VERTEX
  8
0
  5
14D1D
 10
-172.046
 20
-462.417
 30
0.00000
  70
    32
  0
VERTEX
  8
0
  5
14D1E
 10
-173.342
 20
-461.910
 30
0.00000
  70
    32
  0
VERTEX
  8
0
  5
14D1F
 10
-174.654
 20
-461.494
 30
0.00000
  70
    32
  0
VERTEX
  8
0
  5
14D20
 10
-175.979
 20
-461.168
 30
0.00000
  70
    32
  0
VERTEX
  8
0
  5
14D21
 10
-177.314
 20
-460.936
 30
0.00000
  70
    32
  0
VERTEX
  8
0
  5
14D22
 10
-178.655
 20
-460.796
 30
0.00000
  70
    32
  0
VERTEX
  8
0
  5
14D23
 10
-180.000
 20
-460.749
 30
0.00000
  70
    32
  0
SEQEND
  8
0
  5
14D24
  0
POLYLINE
  5
14BF1
  8
0
 10
-177.9846854433542092
 20
-538.2489305580675136
 30
0.0
 66
     1
 70
     8
  0
VERTEX
  8
0
  5
14D25
 10
-177.985
 20
-538.249
 30
0.00000
  70
    32
  0
VERTEX
  8
0
  5
14D26
 10
-177.312
 20
-538.237
 30
0.00000
  70
    32
  0
VERTEX
  8
0
  5
14D27
 10
-176.640
 20
-538.202
 30
0.00000
  70
    32
  0
VERTEX
  8
0
  5
14D28
 10
-175.969
 20
-538.144
 30
0.00000
  70
    32
  0
VERTEX
  8
0
  5
14D29
 10
-175.299
 20
-538.062
 30
0.00000
  70
    32
  0
VERTEX
  8
0
  5
14D2A
 10
-174.631
 20
-537.958
 30
0.00000
  70
    32
  0
VERTEX
  8
0
  5
14D2B
 10
-173.964
 20
-537.830
 30
0.00000
  70
    32
  0
VERTEX
  8
0
  5
14D2C
 10
-173.300
 20
-537.678
 30
0.00000
  70
    32
  0
VERTEX
  8
0
  5
14D2D
 10
-172.639
 20
-537.504
 30
0.00000
  70
    32
  0
VERTEX
  8
0
  5
14D2E
 10
-171.981
 20
-537.307
 30
0.00000
  70
    32
  0
VERTEX
  8
0
  5
14D2F
 10
-171.327
 20
-537.088
 30
0.00000
  70
    32
  0
VERTEX
  8
0
  5
14D30
 10
-170.677
 20
-536.845
 30
0.00000
  70
    32
  0
VERTEX
  8
0
  5
14D31
 10
-170.031
 20
-536.580
 30
0.00000
  70
    32
  0
VERTEX
  8
0
  5
14D32
 10
-169.390
 20
-536.293
 30
0.00000
  70
    32
  0
VERTEX
  8
0
  5
14D33
 10
-168.754
 20
-535.984
 30
0.00000
  70
    32
  0
VERTEX
  8
0
  5
14D34
 10
-168.123
 20
-535.652
 30
0.00000
  70
    32
  0
VERTEX
  8
0
  5
14D35
 10
-167.499
 20
-535.299
 30
0.00000
  70
    32
  0
VERTEX
  8
0
  5
14D36
 10
-166.881
 20
-534.925
 30
0.00000
  70
    32
  0
VERTEX
  8
0
  5
14D37
 10
-166.270
 20
-534.529
 30
0.00000
  70
    32
  0
VERTEX
  8
0
  5
14D38
 10
-165.665
 20
-534.111
 30
0.00000
  70
    32
  0
VERTEX
  8
0
  5
14D39
 10
-165.068
 20
-533.673
 30
0.00000
  70
    32
  0
VERTEX
  8
0
  5
14D3A
 10
-164.479
 20
-533.215
 30
0.00000
  70
    32
  0
VERTEX
  8
0
  5
14D3B
 10
-163.898
 20
-532.736
 30
0.00000
  70
    32
  0
VERTEX
  8
0
  5
14D3C
 10
-163.326
 20
-532.237
 30
0.00000
  70
    32
  0
VERTEX
  8
0
  5
14D3D
 10
-162.762
 20
-531.718
 30
0.00000
  70
    32
  0
VERTEX
  8
0
  5
14D3E
 10
-162.207
 20
-531.180
 30
0.00000
  70
    32
  0
VERTEX
  8
0
  5
14D3F
 10
-161.662
 20
-530.623
 30
0.00000
  70
    32
  0
VERTEX
  8
0
  5
14D40
 10
-161.127
 20
-530.047
 30
0.00000
  70
    32
  0
VERTEX
  8
0
  5
14D41
 10
-160.602
 20
-529.453
 30
0.00000
  70
    32
  0
VERTEX
  8
0
  5
14D42
 10
-160.087
 20
-528.841
 30
0.00000
  70
    32
  0
VERTEX
  8
0
  5
14D43
 10
-159.584
 20
-528.211
 30
0.00000
  70
    32
  0
VERTEX
  8
0
  5
14D44
 10
-159.091
 20
-527.564
 30
0.00000
  70
    32
  0
VERTEX
  8
0
  5
14D45
 10
-158.610
 20
-526.899
 30
0.00000
  70
    32
  0
VERTEX
  8
0
  5
14D46
 10
-158.140
 20
-526.219
 30
0.00000
  70
    32
  0
VERTEX
  8
0
  5
14D47
 10
-157.682
 20
-525.522
 30
0.00000
  70
    32
  0
VERTEX
  8
0
  5
14D48
 10
-157.237
 20
-524.809
 30
0.00000
  70
    32
  0
VERTEX
  8
0
  5
14D49
 10
-156.804
 20
-524.082
 30
0.00000
  70
    32
  0
VERTEX
  8
0
  5
14D4A
 10
-156.384
 20
-523.339
 30
0.00000
  70
    32
  0
VERTEX
  8
0
  5
14D4B
 10
-155.976
 20
-522.582
 30
0.00000
  70
    32
  0
VERTEX
  8
0
  5
14D4C
 10
-155.583
 20
-521.811
 30
0.00000
  70
    32
  0
VERTEX
  8
0
  5
14D4D
 10
-155.202
 20
-521.027
 30
0.00000
  70
    32
  0
VERTEX
  8
0
  5
14D4E
 10
-154.835
 20
-520.230
 30
0.00000
  70
    32
  0
VERTEX
  8
0
  5
14D4F
 10
-154.483
 20
-519.420
 30
0.00000
  70
    32
  0
VERTEX
  8
0
  5
14D50
 10
-154.144
 20
-518.599
 30
0.00000
  70
    32
  0
VERTEX
  8
0
  5
14D51
 10
-153.820
 20
-517.766
 30
0.00000
  70
    32
  0
VERTEX
  8
0
  5
14D52
 10
-153.510
 20
-516.921
 30
0.00000
  70
    32
  0
VERTEX
  8
0
  5
14D53
 10
-153.215
 20
-516.067
 30
0.00000
  70
    32
  0
VERTEX
  8
0
  5
14D54
 10
-152.935
 20
-515.202
 30
0.00000
  70
    32
  0
VERTEX
  8
0
  5
14D55
 10
-152.670
 20
-514.328
 30
0.00000
  70
    32
  0
VERTEX
  8
0
  5
14D56
 10
-152.420
 20
-513.445
 30
0.00000
  70
    32
  0
VERTEX
  8
0
  5
14D57
 10
-152.186
 20
-512.553
 30
0.00000
  70
    32
  0
VERTEX
  8
0
  5
14D58
 10
-151.967
 20
-511.654
 30
0.00000
  70
    32
  0
VERTEX
  8
0
  5
14D59
 10
-151.764
 20
-510.747
 30
0.00000
  70
    32
  0
VERTEX
  8
0
  5
14D5A
 10
-151.577
 20
-509.834
 30
0.00000
  70
    32
  0
VERTEX
  8
0
  5
14D5B
 10
-151.405
 20
-508.914
 30
0.00000
  70
    32
  0
VERTEX
  8
0
  5
14D5C
 10
-151.250
 20
-507.989
 30
0.00000
  70
    32
  0
VERTEX
  8
0
  5
14D5D
 10
-151.111
 20
-507.059
 30
0.00000
  70
    32
  0
VERTEX
  8
0
  5
14D5E
 10
-150.988
 20
-506.124
 30
0.00000
  70
    32
  0
VERTEX
  8
0
  5
14D5F
 10
-150.881
 20
-505.185
 30
0.00000
  70
    32
  0
VERTEX
  8
0
  5
14D60
 10
-150.790
 20
-504.242
 30
0.00000
  70
    32
  0
VERTEX
  8
0
  5
14D61
 10
-150.716
 20
-503.297
 30
0.00000
  70
    32
  0
VERTEX
  8
0
  5
14D62
 10
-150.659
 20
-502.350
 30
0.00000
  70
    32
  0
VERTEX
  8
0
  5
14D63
 10
-150.617
 20
-501.400
 30
0.00000
  70
    32
  0
VERTEX
  8
0
  5
14D64
 10
-150.593
 20
-500.450
 30
0.00000
  70
    32
  0
VERTEX
  8
0
  5
14D65
 10
-150.584
 20
-499.499
 30
0.00000
  70
    32
  0
VERTEX
  8
0
  5
14D66
 10
-150.593
 20
-498.548
 30
0.00000
  70
    32
  0
VERTEX
  8
0
  5
14D67
 10
-150.617
 20
-497.598
 30
0.00000
  70
    32
  0
VERTEX
  8
0
  5
14D68
 10
-150.659
 20
-496.648
 30
0.00000
  70
    32
  0
VERTEX
  8
0
  5
14D69
 10
-150.716
 20
-495.701
 30
0.00000
  70
    32
  0
VERTEX
  8
0
  5
14D6A
 10
-150.790
 20
-494.756
 30
0.00000
  70
    32
  0
VERTEX
  8
0
  5
14D6B
 10
-150.881
 20
-493.813
 30
0.00000
  70
    32
  0
VERTEX
  8
0
  5
14D6C
 10
-150.988
 20
-492.874
 30
0.00000
  70
    32
  0
VERTEX
  8
0
  5
14D6D
 10
-151.111
 20
-491.939
 30
0.00000
  70
    32
  0
VERTEX
  8
0
  5
14D6E
 10
-151.250
 20
-491.009
 30
0.00000
  70
    32
  0
VERTEX
  8
0
  5
14D6F
 10
-151.405
 20
-490.083
 30
0.00000
  70
    32
  0
VERTEX
  8
0
  5
14D70
 10
-151.577
 20
-489.164
 30
0.00000
  70
    32
  0
VERTEX
  8
0
  5
14D71
 10
-151.764
 20
-488.250
 30
0.00000
  70
    32
  0
VERTEX
  8
0
  5
14D72
 10
-151.967
 20
-487.344
 30
0.00000
  70
    32
  0
VERTEX
  8
0
  5
14D73
 10
-152.186
 20
-486.444
 30
0.00000
  70
    32
  0
VERTEX
  8
0
  5
14D74
 10
-152.420
 20
-485.553
 30
0.00000
  70
    32
  0
VERTEX
  8
0
  5
14D75
 10
-152.670
 20
-484.670
 30
0.00000
  70
    32
  0
VERTEX
  8
0
  5
14D76
 10
-152.935
 20
-483.796
 30
0.00000
  70
    32
  0
VERTEX
  8
0
  5
14D77
 10
-153.215
 20
-482.931
 30
0.00000
  70
    32
  0
VERTEX
  8
0
  5
14D78
 10
-153.510
 20
-482.076
 30
0.00000
  70
    32
  0
VERTEX
  8
0
  5
14D79
 10
-153.820
 20
-481.232
 30
0.00000
  70
    32
  0
VERTEX
  8
0
  5
14D7A
 10
-154.144
 20
-480.399
 30
0.00000
  70
    32
  0
VERTEX
  8
0
  5
14D7B
 10
-154.483
 20
-479.577
 30
0.00000
  70
    32
  0
VERTEX
  8
0
  5
14D7C
 10
-154.835
 20
-478.768
 30
0.00000
  70
    32
  0
VERTEX
  8
0
  5
14D7D
 10
-155.202
 20
-477.971
 30
0.00000
  70
    32
  0
VERTEX
  8
0
  5
14D7E
 10
-155.583
 20
-477.186
 30
0.00000
  70
    32
  0
VERTEX
  8
0
  5
14D7F
 10
-155.976
 20
-476.416
 30
0.00000
  70
    32
  0
VERTEX
  8
0
  5
14D80
 10
-156.384
 20
-475.659
 30
0.00000
  70
    32
  0
VERTEX
  8
0
  5
14D81
 10
-156.804
 20
-474.916
 30
0.00000
  70
    32
  0
VERTEX
  8
0
  5
14D82
 10
-157.237
 20
-474.188
 30
0.00000
  70
    32
  0
VERTEX
  8
0
  5
14D83
 10
-157.682
 20
-473.476
 30
0.00000
  70
    32
  0
VERTEX
  8
0
  5
14D84
 10
-158.140
 20
-472.779
 30
0.00000
  70
    32
  0
VERTEX
  8
0
  5
14D85
 10
-158.610
 20
-472.099
 30
0.00000
  70
    32
  0
VERTEX
  8
0
  5
14D86
 10
-159.091
 20
-471.434
 30
0.00000
  70
    32
  0
VERTEX
  8
0
  5
14D87
 10
-159.584
 20
-470.787
 30
0.00000
  70
    32
  0
VERTEX
  8
0
  5
14D88
 10
-160.087
 20
-470.157
 30
0.00000
  70
    32
  0
VERTEX
  8
0
  5
14D89
 10
-160.602
 20
-469.545
 30
0.00000
  70
    32
  0
VERTEX
  8
0
  5
14D8A
 10
-161.127
 20
-468.951
 30
0.00000
  70
    32
  0
VERTEX
  8
0
  5
14D8B
 10
-161.662
 20
-468.375
 30
0.00000
  70
    32
  0
VERTEX
  8
0
  5
14D8C
 10
-162.207
 20
-467.818
 30
0.00000
  70
    32
  0
VERTEX
  8
0
  5
14D8D
 10
-162.762
 20
-467.279
 30
0.00000
  70
    32
  0
VERTEX
  8
0
  5
14D8E
 10
-163.326
 20
-466.761
 30
0.00000
  70
    32
  0
VERTEX
  8
0
  5
14D8F
 10
-163.898
 20
-466.262
 30
0.00000
  70
    32
  0
VERTEX
  8
0
  5
14D90
 10
-164.479
 20
-465.783
 30
0.00000
  70
    32
  0
VERTEX
  8
0
  5
14D91
 10
-165.068
 20
-465.324
 30
0.00000
  70
    32
  0
VERTEX
  8
0
  5
14D92
 10
-165.665
 20
-464.886
 30
0.00000
  70
    32
  0
VERTEX
  8
0
  5
14D93
 10
-166.270
 20
-464.469
 30
0.00000
  70
    32
  0
VERTEX
  8
0
  5
14D94
 10
-166.881
 20
-464.073
 30
0.00000
  70
    32
  0
VERTEX
  8
0
  5
14D95
 10
-167.499
 20
-463.699
 30
0.00000
  70
    32
  0
VERTEX
  8
0
  5
14D96
 10
-168.123
 20
-463.345
 30
0.00000
  70
    32
  0
VERTEX
  8
0
  5
14D97
 10
-168.754
 20
-463.014
 30
0.00000
  70
    32
  0
VERTEX
  8
0
  5
14D98
 10
-169.390
 20
-462.705
 30
0.00000
  70
    32
  0
VERTEX
  8
0
  5
14D99
 10
-170.031
 20
-462.417
 30
0.00000
  70
    32
  0
VERTEX
  8
0
  5
14D9A
 10
-170.677
 20
-462.153
 30
0.00000
  70
    32
  0
VERTEX
  8
0
  5
14D9B
 10
-171.327
 20
-461.910
 30
0.00000
  70
    32
  0
VERTEX
  8
0
  5
14D9C
 10
-171.981
 20
-461.690
 30
0.00000
  70
    32
  0
VERTEX
  8
0
  5
14D9D
 10
-172.639
 20
-461.494
 30
0.00000
  70
    32
  0
VERTEX
  8
0
  5
14D9E
 10
-173.300
 20
-461.319
 30
0.00000
  70
    32
  0
VERTEX
  8
0
  5
14D9F
 10
-173.964
 20
-461.168
 30
0.00000
  70
    32
  0
VERTEX
  8
0
  5
14DA0
 10
-174.631
 20
-461.040
 30
0.00000
  70
    32
  0
VERTEX
  8
0
  5
14DA1
 10
-175.299
 20
-460.936
 30
0.00000
  70
    32
  0
VERTEX
  8
0
  5
14DA2
 10
-175.969
 20
-460.854
 30
0.00000
  70
    32
  0
VERTEX
  8
0
  5
14DA3
 10
-176.640
 20
-460.796
 30
0.00000
  70
    32
  0
VERTEX
  8
0
  5
14DA4
 10
-177.312
 20
-460.761
 30
0.00000
  70
    32
  0
VERTEX
  8
0
  5
14DA5
 10
-177.985
 20
-460.749
 30
0.00000
  70
    32
  0
SEQEND
  8
0
  5
14DA6
  0
LINE
  5
14BF2
  8
0
 10
-177.9846854433542092
 20
-460.7489305580677978
 30
0.0
 11
-179.9999397697355903
 21
-460.7489305580677978
 31
0.0
  0
LINE
  5
14BF3
  8
0
 10
-177.9846854433542092
 20
-538.248930558067741
 30
0.0
 11
-179.9999397697355903
 21
-538.248930558067741
 31
0.0
  0
POLYLINE
  5
14BF4
  8
0
 10
-179.9999397697357892
 20
-469.7489305580676273
 30
0.0
 66
     1
 70
     8
  0
VERTEX
  8
0
  5
14DA7
 10
-180.000
 20
-469.749
 30
0.00000
  70
    32
  0
VERTEX
  8
0
  5
14DA8
 10
-181.032
 20
-469.785
 30
0.00000
  70
    32
  0
VERTEX
  8
0
  5
14DA9
 10
-182.062
 20
-469.892
 30
0.00000
  70
    32
  0
VERTEX
  8
0
  5
14DAA
 10
-183.087
 20
-470.071
 30
0.00000
  70
    32
  0
VERTEX
  8
0
  5
14DAB
 10
-184.104
 20
-470.321
 30
0.00000
  70
    32
  0
VERTEX
  8
0
  5
14DAC
 10
-185.111
 20
-470.641
 30
0.00000
  70
    32
  0
VERTEX
  8
0
  5
14DAD
 10
-186.106
 20
-471.030
 30
0.00000
  70
    32
  0
VERTEX
  8
0
  5
14DAE
 10
-187.087
 20
-471.488
 30
0.00000
  70
    32
  0
VERTEX
  8
0
  5
14DAF
 10
-188.050
 20
-472.014
 30
0.00000
  70
    32
  0
VERTEX
  8
0
  5
14DB0
 10
-188.994
 20
-472.605
 30
0.00000
  70
    32
  0
VERTEX
  8
0
  5
14DB1
 10
-189.916
 20
-473.262
 30
0.00000
  70
    32
  0
VERTEX
  8
0
  5
14DB2
 10
-190.815
 20
-473.982
 30
0.00000
  70
    32
  0
VERTEX
  8
0
  5
14DB3
 10
-191.687
 20
-474.763
 30
0.00000
  70
    32
  0
VERTEX
  8
0
  5
14DB4
 10
-192.531
 20
-475.604
 30
0.00000
  70
    32
  0
VERTEX
  8
0
  5
14DB5
 10
-193.345
 20
-476.502
 30
0.00000
  70
    32
  0
VERTEX
  8
0
  5
14DB6
 10
-194.127
 20
-477.456
 30
0.00000
  70
    32
  0
VERTEX
  8
0
  5
14DB7
 10
-194.875
 20
-478.463
 30
0.00000
  70
    32
  0
VERTEX
  8
0
  5
14DB8
 10
-195.587
 20
-479.520
 30
0.00000
  70
    32
  0
VERTEX
  8
0
  5
14DB9
 10
-196.261
 20
-480.626
 30
0.00000
  70
    32
  0
VERTEX
  8
0
  5
14DBA
 10
-196.897
 20
-481.777
 30
0.00000
  70
    32
  0
VERTEX
  8
0
  5
14DBB
 10
-197.491
 20
-482.971
 30
0.00000
  70
    32
  0
VERTEX
  8
0
  5
14DBC
 10
-198.043
 20
-484.204
 30
0.00000
  70
    32
  0
VERTEX
  8
0
  5
14DBD
 10
-198.552
 20
-485.475
 30
0.00000
  70
    32
  0
VERTEX
  8
0
  5
14DBE
 10
-199.017
 20
-486.779
 30
0.00000
  70
    32
  0
VERTEX
  8
0
  5
14DBF
 10
-199.435
 20
-488.114
 30
0.00000
  70
    32
  0
VERTEX
  8
0
  5
14DC0
 10
-199.807
 20
-489.476
 30
0.00000
  70
    32
  0
VERTEX
  8
0
  5
14DC1
 10
-200.131
 20
-490.863
 30
0.00000
  70
    32
  0
VERTEX
  8
0
  5
14DC2
 10
-200.406
 20
-492.270
 30
0.00000
  70
    32
  0
VERTEX
  8
0
  5
14DC3
 10
-200.632
 20
-493.695
 30
0.00000
  70
    32
  0
VERTEX
  8
0
  5
14DC4
 10
-200.809
 20
-495.134
 30
0.00000
  70
    32
  0
VERTEX
  8
0
  5
14DC5
 10
-200.935
 20
-496.583
 30
0.00000
  70
    32
  0
VERTEX
  8
0
  5
14DC6
 10
-201.011
 20
-498.039
 30
0.00000
  70
    32
  0
VERTEX
  8
0
  5
14DC7
 10
-201.036
 20
-499.499
 30
0.00000
  70
    32
  0
VERTEX
  8
0
  5
14DC8
 10
-201.011
 20
-500.959
 30
0.00000
  70
    32
  0
VERTEX
  8
0
  5
14DC9
 10
-200.935
 20
-502.415
 30
0.00000
  70
    32
  0
VERTEX
  8
0
  5
14DCA
 10
-200.809
 20
-503.864
 30
0.00000
  70
    32
  0
VERTEX
  8
0
  5
14DCB
 10
-200.632
 20
-505.303
 30
0.00000
  70
    32
  0
VERTEX
  8
0
  5
14DCC
 10
-200.406
 20
-506.728
 30
0.00000
  70
    32
  0
VERTEX
  8
0
  5
14DCD
 10
-200.131
 20
-508.135
 30
0.00000
  70
    32
  0
VERTEX
  8
0
  5
14DCE
 10
-199.807
 20
-509.521
 30
0.00000
  70
    32
  0
VERTEX
  8
0
  5
14DCF
 10
-199.435
 20
-510.884
 30
0.00000
  70
    32
  0
VERTEX
  8
0
  5
14DD0
 10
-199.017
 20
-512.219
 30
0.00000
  70
    32
  0
VERTEX
  8
0
  5
14DD1
 10
-198.552
 20
-513.523
 30
0.00000
  70
    32
  0
VERTEX
  8
0
  5
14DD2
 10
-198.043
 20
-514.793
 30
0.00000
  70
    32
  0
VERTEX
  8
0
  5
14DD3
 10
-197.491
 20
-516.027
 30
0.00000
  70
    32
  0
VERTEX
  8
0
  5
14DD4
 10
-196.897
 20
-517.221
 30
0.00000
  70
    32
  0
VERTEX
  8
0
  5
14DD5
 10
-196.261
 20
-518.372
 30
0.00000
  70
    32
  0
VERTEX
  8
0
  5
14DD6
 10
-195.587
 20
-519.478
 30
0.00000
  70
    32
  0
VERTEX
  8
0
  5
14DD7
 10
-194.875
 20
-520.535
 30
0.00000
  70
    32
  0
VERTEX
  8
0
  5
14DD8
 10
-194.127
 20
-521.542
 30
0.00000
  70
    32
  0
VERTEX
  8
0
  5
14DD9
 10
-193.345
 20
-522.496
 30
0.00000
  70
    32
  0
VERTEX
  8
0
  5
14DDA
 10
-192.531
 20
-523.394
 30
0.00000
  70
    32
  0
VERTEX
  8
0
  5
14DDB
 10
-191.687
 20
-524.235
 30
0.00000
  70
    32
  0
VERTEX
  8
0
  5
14DDC
 10
-190.815
 20
-525.016
 30
0.00000
  70
    32
  0
VERTEX
  8
0
  5
14DDD
 10
-189.916
 20
-525.736
 30
0.00000
  70
    32
  0
VERTEX
  8
0
  5
14DDE
 10
-188.994
 20
-526.393
 30
0.00000
  70
    32
  0
VERTEX
  8
0
  5
14DDF
 10
-188.050
 20
-526.984
 30
0.00000
  70
    32
  0
VERTEX
  8
0
  5
14DE0
 10
-187.087
 20
-527.510
 30
0.00000
  70
    32
  0
VERTEX
  8
0
  5
14DE1
 10
-186.106
 20
-527.968
 30
0.00000
  70
    32
  0
VERTEX
  8
0
  5
14DE2
 10
-185.111
 20
-528.357
 30
0.00000
  70
    32
  0
VERTEX
  8
0
  5
14DE3
 10
-184.104
 20
-528.677
 30
0.00000
  70
    32
  0
VERTEX
  8
0
  5
14DE4
 10
-183.087
 20
-528.927
 30
0.00000
  70
    32
  0
VERTEX
  8
0
  5
14DE5
 10
-182.062
 20
-529.106
 30
0.00000
  70
    32
  0
VERTEX
  8
0
  5
14DE6
 10
-181.032
 20
-529.213
 30
0.00000
  70
    32
  0
VERTEX
  8
0
  5
14DE7
 10
-180.000
 20
-529.249
 30
0.00000
  70
    32
  0
VERTEX
  8
0
  5
14DE8
 10
-178.968
 20
-529.213
 30
0.00000
  70
    32
  0
VERTEX
  8
0
  5
14DE9
 10
-177.938
 20
-529.106
 30
0.00000
  70
    32
  0
VERTEX
  8
0
  5
14DEA
 10
-176.913
 20
-528.927
 30
0.00000
  70
    32
  0
VERTEX
  8
0
  5
14DEB
 10
-175.896
 20
-528.677
 30
0.00000
  70
    32
  0
VERTEX
  8
0
  5
14DEC
 10
-174.889
 20
-528.357
 30
0.00000
  70
    32
  0
VERTEX
  8
0
  5
14DED
 10
-173.893
 20
-527.968
 30
0.00000
  70
    32
  0
VERTEX
  8
0
  5
14DEE
 10
-172.913
 20
-527.510
 30
0.00000
  70
    32
  0
VERTEX
  8
0
  5
14DEF
 10
-171.950
 20
-526.984
 30
0.00000
  70
    32
  0
VERTEX
  8
0
  5
14DF0
 10
-171.006
 20
-526.393
 30
0.00000
  70
    32
  0
VERTEX
  8
0
  5
14DF1
 10
-170.083
 20
-525.736
 30
0.00000
  70
    32
  0
VERTEX
  8
0
  5
14DF2
 10
-169.185
 20
-525.016
 30
0.00000
  70
    32
  0
VERTEX
  8
0
  5
14DF3
 10
-168.313
 20
-524.235
 30
0.00000
  70
    32
  0
VERTEX
  8
0
  5
14DF4
 10
-167.469
 20
-523.394
 30
0.00000
  70
    32
  0
VERTEX
  8
0
  5
14DF5
 10
-166.655
 20
-522.496
 30
0.00000
  70
    32
  0
VERTEX
  8
0
  5
14DF6
 10
-165.873
 20
-521.542
 30
0.00000
  70
    32
  0
VERTEX
  8
0
  5
14DF7
 10
-165.125
 20
-520.535
 30
0.00000
  70
    32
  0
VERTEX
  8
0
  5
14DF8
 10
-164.413
 20
-519.478
 30
0.00000
  70
    32
  0
VERTEX
  8
0
  5
14DF9
 10
-163.739
 20
-518.372
 30
0.00000
  70
    32
  0
VERTEX
  8
0
  5
14DFA
 10
-163.103
 20
-517.221
 30
0.00000
  70
    32
  0
VERTEX
  8
0
  5
14DFB
 10
-162.509
 20
-516.027
 30
0.00000
  70
    32
  0
VERTEX
  8
0
  5
14DFC
 10
-161.956
 20
-514.793
 30
0.00000
  70
    32
  0
VERTEX
  8
0
  5
14DFD
 10
-161.447
 20
-513.523
 30
0.00000
  70
    32
  0
VERTEX
  8
0
  5
14DFE
 10
-160.983
 20
-512.219
 30
0.00000
  70
    32
  0
VERTEX
  8
0
  5
14DFF
 10
-160.565
 20
-510.884
 30
0.00000
  70
    32
  0
VERTEX
  8
0
  5
14E00
 10
-160.193
 20
-509.521
 30
0.00000
  70
    32
  0
VERTEX
  8
0
  5
14E01
 10
-159.869
 20
-508.135
 30
0.00000
  70
    32
  0
VERTEX
  8
0
  5
14E02
 10
-159.594
 20
-506.728
 30
0.00000
  70
    32
  0
VERTEX
  8
0
  5
14E03
 10
-159.368
 20
-505.303
 30
0.00000
  70
    32
  0
VERTEX
  8
0
  5
14E04
 10
-159.191
 20
-503.864
 30
0.00000
  70
    32
  0
VERTEX
  8
0
  5
14E05
 10
-159.065
 20
-502.415
 30
0.00000
  70
    32
  0
VERTEX
  8
0
  5
14E06
 10
-158.989
 20
-500.959
 30
0.00000
  70
    32
  0
VERTEX
  8
0
  5
14E07
 10
-158.964
 20
-499.499
 30
0.00000
  70
    32
  0
VERTEX
  8
0
  5
14E08
 10
-158.989
 20
-498.039
 30
0.00000
  70
    32
  0
VERTEX
  8
0
  5
14E09
 10
-159.065
 20
-496.583
 30
0.00000
  70
    32
  0
VERTEX
  8
0
  5
14E0A
 10
-159.191
 20
-495.134
 30
0.00000
  70
    32
  0
VERTEX
  8
0
  5
14E0B
 10
-159.368
 20
-493.695
 30
0.00000
  70
    32
  0
VERTEX
  8
0
  5
14E0C
 10
-159.594
 20
-492.270
 30
0.00000
  70
    32
  0
VERTEX
  8
0
  5
14E0D
 10
-159.869
 20
-490.863
 30
0.00000
  70
    32
  0
VERTEX
  8
0
  5
14E0E
 10
-160.193
 20
-489.476
 30
0.00000
  70
    32
  0
VERTEX
  8
0
  5
14E0F
 10
-160.565
 20
-488.114
 30
0.00000
  70
    32
  0
VERTEX
  8
0
  5
14E10
 10
-160.983
 20
-486.779
 30
0.00000
  70
    32
  0
VERTEX
  8
0
  5
14E11
 10
-161.447
 20
-485.475
 30
0.00000
  70
    32
  0
VERTEX
  8
0
  5
14E12
 10
-161.956
 20
-484.204
 30
0.00000
  70
    32
  0
VERTEX
  8
0
  5
14E13
 10
-162.509
 20
-482.971
 30
0.00000
  70
    32
  0
VERTEX
  8
0
  5
14E14
 10
-163.103
 20
-481.777
 30
0.00000
  70
    32
  0
VERTEX
  8
0
  5
14E15
 10
-163.739
 20
-480.626
 30
0.00000
  70
    32
  0
VERTEX
  8
0
  5
14E16
 10
-164.413
 20
-479.520
 30
0.00000
  70
    32
  0
VERTEX
  8
0
  5
14E17
 10
-165.125
 20
-478.463
 30
0.00000
  70
    32
  0
VERTEX
  8
0
  5
14E18
 10
-165.873
 20
-477.456
 30
0.00000
  70
    32
  0
VERTEX
  8
0
  5
14E19
 10
-166.655
 20
-476.502
 30
0.00000
  70
    32
  0
VERTEX
  8
0
  5
14E1A
 10
-167.469
 20
-475.604
 30
0.00000
  70
    32
  0
VERTEX
  8
0
  5
14E1B
 10
-168.313
 20
-474.763
 30
0.00000
  70
    32
  0
VERTEX
  8
0
  5
14E1C
 10
-169.185
 20
-473.982
 30
0.00000
  70
    32
  0
VERTEX
  8
0
  5
14E1D
 10
-170.083
 20
-473.262
 30
0.00000
  70
    32
  0
VERTEX
  8
0
  5
14E1E
 10
-171.006
 20
-472.605
 30
0.00000
  70
    32
  0
VERTEX
  8
0
  5
14E1F
 10
-171.950
 20
-472.014
 30
0.00000
  70
    32
  0
VERTEX
  8
0
  5
14E20
 10
-172.913
 20
-471.488
 30
0.00000
  70
    32
  0
VERTEX
  8
0
  5
14E21
 10
-173.893
 20
-471.030
 30
0.00000
  70
    32
  0
VERTEX
  8
0
  5
14E22
 10
-174.889
 20
-470.641
 30
0.00000
  70
    32
  0
VERTEX
  8
0
  5
14E23
 10
-175.896
 20
-470.321
 30
0.00000
  70
    32
  0
VERTEX
  8
0
  5
14E24
 10
-176.913
 20
-470.071
 30
0.00000
  70
    32
  0
VERTEX
  8
0
  5
14E25
 10
-177.938
 20
-469.892
 30
0.00000
  70
    32
  0
VERTEX
  8
0
  5
14E26
 10
-178.968
 20
-469.785
 30
0.00000
  70
    32
  0
VERTEX
  8
0
  5
14E27
 10
-180.000
 20
-469.749
 30
0.00000
  70
    32
  0
SEQEND
  8
0
  5
14E28
  0
LINE
  5
14BF5
  8
0
  6
CONTINUOUS
 10
-162.2764073709493005
 20
-531.248930558067741
 30
0.0
 11
-93.2425580280751092
 21
-531.248930558067741
 31
0.0
  0
LINE
  5
14BF6
  8
0
  6
CONTINUOUS
 10
-162.2764073709493005
 20
-467.7489305580676842
 30
0.0
 11
-93.2425580280751092
 21
-467.7489305580676273
 31
0.0
  0
POLYLINE
  5
14BF7
  8
0
 10
180.0000566947178129
 20
-460.7489305580679115
 30
0.0
 66
     1
 70
     8
  0
VERTEX
  8
0
  5
14E29
 10
180.000
 20
-460.749
 30
0.00000
  70
    32
  0
VERTEX
  8
0
  5
14E2A
 10
181.345
 20
-460.796
 30
0.00000
  70
    32
  0
VERTEX
  8
0
  5
14E2B
 10
182.686
 20
-460.936
 30
0.00000
  70
    32
  0
VERTEX
  8
0
  5
14E2C
 10
184.021
 20
-461.168
 30
0.00000
  70
    32
  0
VERTEX
  8
0
  5
14E2D
 10
185.346
 20
-461.494
 30
0.00000
  70
    32
  0
VERTEX
  8
0
  5
14E2E
 10
186.658
 20
-461.910
 30
0.00000
  70
    32
  0
VERTEX
  8
0
  5
14E2F
 10
187.954
 20
-462.417
 30
0.00000
  70
    32
  0
VERTEX
  8
0
  5
14E30
 10
189.231
 20
-463.014
 30
0.00000
  70
    32
  0
VERTEX
  8
0
  5
14E31
 10
190.486
 20
-463.699
 30
0.00000
  70
    32
  0
VERTEX
  8
0
  5
14E32
 10
191.715
 20
-464.469
 30
0.00000
  70
    32
  0
VERTEX
  8
0
  5
14E33
 10
192.917
 20
-465.324
 30
0.00000
  70
    32
  0
VERTEX
  8
0
  5
14E34
 10
194.087
 20
-466.262
 30
0.00000
  70
    32
  0
VERTEX
  8
0
  5
14E35
 10
195.223
 20
-467.279
 30
0.00000
  70
    32
  0
VERTEX
  8
0
  5
14E36
 10
196.322
 20
-468.375
 30
0.00000
  70
    32
  0
VERTEX
  8
0
  5
14E37
 10
197.383
 20
-469.545
 30
0.00000
  70
    32
  0
VERTEX
  8
0
  5
14E38
 10
198.401
 20
-470.787
 30
0.00000
  70
    32
  0
VERTEX
  8
0
  5
14E39
 10
199.375
 20
-472.099
 30
0.00000
  70
    32
  0
VERTEX
  8
0
  5
14E3A
 10
200.302
 20
-473.476
 30
0.00000
  70
    32
  0
VERTEX
  8
0
  5
14E3B
 10
201.181
 20
-474.916
 30
0.00000
  70
    32
  0
VERTEX
  8
0
  5
14E3C
 10
202.008
 20
-476.416
 30
0.00000
  70
    32
  0
VERTEX
  8
0
  5
14E3D
 10
202.783
 20
-477.971
 30
0.00000
  70
    32
  0
VERTEX
  8
0
  5
14E3E
 10
203.502
 20
-479.577
 30
0.00000
  70
    32
  0
VERTEX
  8
0
  5
14E3F
 10
204.165
 20
-481.232
 30
0.00000
  70
    32
  0
VERTEX
  8
0
  5
14E40
 10
204.770
 20
-482.931
 30
0.00000
  70
    32
  0
VERTEX
  8
0
  5
14E41
 10
205.315
 20
-484.670
 30
0.00000
  70
    32
  0
VERTEX
  8
0
  5
14E42
 10
205.799
 20
-486.444
 30
0.00000
  70
    32
  0
VERTEX
  8
0
  5
14E43
 10
206.221
 20
-488.250
 30
0.00000
  70
    32
  0
VERTEX
  8
0
  5
14E44
 10
206.579
 20
-490.083
 30
0.00000
  70
    32
  0
VERTEX
  8
0
  5
14E45
 10
206.874
 20
-491.939
 30
0.00000
  70
    32
  0
VERTEX
  8
0
  5
14E46
 10
207.104
 20
-493.813
 30
0.00000
  70
    32
  0
VERTEX
  8
0
  5
14E47
 10
207.269
 20
-495.701
 30
0.00000
  70
    32
  0
VERTEX
  8
0
  5
14E48
 10
207.367
 20
-497.598
 30
0.00000
  70
    32
  0
VERTEX
  8
0
  5
14E49
 10
207.400
 20
-499.499
 30
0.00000
  70
    32
  0
VERTEX
  8
0
  5
14E4A
 10
207.367
 20
-501.400
 30
0.00000
  70
    32
  0
VERTEX
  8
0
  5
14E4B
 10
207.269
 20
-503.297
 30
0.00000
  70
    32
  0
VERTEX
  8
0
  5
14E4C
 10
207.104
 20
-505.185
 30
0.00000
  70
    32
  0
VERTEX
  8
0
  5
14E4D
 10
206.874
 20
-507.059
 30
0.00000
  70
    32
  0
VERTEX
  8
0
  5
14E4E
 10
206.579
 20
-508.914
 30
0.00000
  70
    32
  0
VERTEX
  8
0
  5
14E4F
 10
206.221
 20
-510.747
 30
0.00000
  70
    32
  0
VERTEX
  8
0
  5
14E50
 10
205.799
 20
-512.553
 30
0.00000
  70
    32
  0
VERTEX
  8
0
  5
14E51
 10
205.315
 20
-514.328
 30
0.00000
  70
    32
  0
VERTEX
  8
0
  5
14E52
 10
204.770
 20
-516.067
 30
0.00000
  70
    32
  0
VERTEX
  8
0
  5
14E53
 10
204.165
 20
-517.766
 30
0.00000
  70
    32
  0
VERTEX
  8
0
  5
14E54
 10
203.502
 20
-519.420
 30
0.00000
  70
    32
  0
VERTEX
  8
0
  5
14E55
 10
202.783
 20
-521.027
 30
0.00000
  70
    32
  0
VERTEX
  8
0
  5
14E56
 10
202.008
 20
-522.582
 30
0.00000
  70
    32
  0
VERTEX
  8
0
  5
14E57
 10
201.181
 20
-524.082
 30
0.00000
  70
    32
  0
VERTEX
  8
0
  5
14E58
 10
200.302
 20
-525.522
 30
0.00000
  70
    32
  0
VERTEX
  8
0
  5
14E59
 10
199.375
 20
-526.899
 30
0.00000
  70
    32
  0
VERTEX
  8
0
  5
14E5A
 10
198.401
 20
-528.211
 30
0.00000
  70
    32
  0
VERTEX
  8
0
  5
14E5B
 10
197.383
 20
-529.453
 30
0.00000
  70
    32
  0
VERTEX
  8
0
  5
14E5C
 10
196.322
 20
-530.623
 30
0.00000
  70
    32
  0
VERTEX
  8
0
  5
14E5D
 10
195.223
 20
-531.718
 30
0.00000
  70
    32
  0
VERTEX
  8
0
  5
14E5E
 10
194.087
 20
-532.736
 30
0.00000
  70
    32
  0
VERTEX
  8
0
  5
14E5F
 10
192.917
 20
-533.673
 30
0.00000
  70
    32
  0
VERTEX
  8
0
  5
14E60
 10
191.715
 20
-534.529
 30
0.00000
  70
    32
  0
VERTEX
  8
0
  5
14E61
 10
190.486
 20
-535.299
 30
0.00000
  70
    32
  0
VERTEX
  8
0
  5
14E62
 10
189.231
 20
-535.984
 30
0.00000
  70
    32
  0
VERTEX
  8
0
  5
14E63
 10
187.954
 20
-536.580
 30
0.00000
  70
    32
  0
VERTEX
  8
0
  5
14E64
 10
186.658
 20
-537.088
 30
0.00000
  70
    32
  0
VERTEX
  8
0
  5
14E65
 10
185.346
 20
-537.504
 30
0.00000
  70
    32
  0
VERTEX
  8
0
  5
14E66
 10
184.021
 20
-537.830
 30
0.00000
  70
    32
  0
VERTEX
  8
0
  5
14E67
 10
182.686
 20
-538.062
 30
0.00000
  70
    32
  0
VERTEX
  8
0
  5
14E68
 10
181.345
 20
-538.202
 30
0.00000
  70
    32
  0
VERTEX
  8
0
  5
14E69
 10
180.000
 20
-538.249
 30
0.00000
  70
    32
  0
VERTEX
  8
0
  5
14E6A
 10
178.656
 20
-538.202
 30
0.00000
  70
    32
  0
VERTEX
  8
0
  5
14E6B
 10
177.314
 20
-538.062
 30
0.00000
  70
    32
  0
VERTEX
  8
0
  5
14E6C
 10
175.980
 20
-537.830
 30
0.00000
  70
    32
  0
VERTEX
  8
0
  5
14E6D
 10
174.655
 20
-537.504
 30
0.00000
  70
    32
  0
VERTEX
  8
0
  5
14E6E
 10
173.342
 20
-537.088
 30
0.00000
  70
    32
  0
VERTEX
  8
0
  5
14E6F
 10
172.046
 20
-536.580
 30
0.00000
  70
    32
  0
VERTEX
  8
0
  5
14E70
 10
170.769
 20
-535.984
 30
0.00000
  70
    32
  0
VERTEX
  8
0
  5
14E71
 10
169.514
 20
-535.299
 30
0.00000
  70
    32
  0
VERTEX
  8
0
  5
14E72
 10
168.285
 20
-534.529
 30
0.00000
  70
    32
  0
VERTEX
  8
0
  5
14E73
 10
167.084
 20
-533.673
 30
0.00000
  70
    32
  0
VERTEX
  8
0
  5
14E74
 10
165.913
 20
-532.736
 30
0.00000
  70
    32
  0
VERTEX
  8
0
  5
14E75
 10
164.777
 20
-531.718
 30
0.00000
  70
    32
  0
VERTEX
  8
0
  5
14E76
 10
163.678
 20
-530.623
 30
0.00000
  70
    32
  0
VERTEX
  8
0
  5
14E77
 10
162.617
 20
-529.453
 30
0.00000
  70
    32
  0
VERTEX
  8
0
  5
14E78
 10
161.599
 20
-528.211
 30
0.00000
  70
    32
  0
VERTEX
  8
0
  5
14E79
 10
160.625
 20
-526.899
 30
0.00000
  70
    32
  0
VERTEX
  8
0
  5
14E7A
 10
159.698
 20
-525.522
 30
0.00000
  70
    32
  0
VERTEX
  8
0
  5
14E7B
 10
158.819
 20
-524.082
 30
0.00000
  70
    32
  0
VERTEX
  8
0
  5
14E7C
 10
157.992
 20
-522.582
 30
0.00000
  70
    32
  0
VERTEX
  8
0
  5
14E7D
 10
157.217
 20
-521.027
 30
0.00000
  70
    32
  0
VERTEX
  8
0
  5
14E7E
 10
156.498
 20
-519.420
 30
0.00000
  70
    32
  0
VERTEX
  8
0
  5
14E7F
 10
155.835
 20
-517.766
 30
0.00000
  70
    32
  0
VERTEX
  8
0
  5
14E80
 10
155.230
 20
-516.067
 30
0.00000
  70
    32
  0
VERTEX
  8
0
  5
14E81
 10
154.685
 20
-514.328
 30
0.00000
  70
    32
  0
VERTEX
  8
0
  5
14E82
 10
154.201
 20
-512.553
 30
0.00000
  70
    32
  0
VERTEX
  8
0
  5
14E83
 10
153.780
 20
-510.747
 30
0.00000
  70
    32
  0
VERTEX
  8
0
  5
14E84
 10
153.421
 20
-508.914
 30
0.00000
  70
    32
  0
VERTEX
  8
0
  5
14E85
 10
153.126
 20
-507.059
 30
0.00000
  70
    32
  0
VERTEX
  8
0
  5
14E86
 10
152.896
 20
-505.185
 30
0.00000
  70
    32
  0
VERTEX
  8
0
  5
14E87
 10
152.732
 20
-503.297
 30
0.00000
  70
    32
  0
VERTEX
  8
0
  5
14E88
 10
152.633
 20
-501.400
 30
0.00000
  70
    32
  0
VERTEX
  8
0
  5
14E89
 10
152.600
 20
-499.499
 30
0.00000
  70
    32
  0
VERTEX
  8
0
  5
14E8A
 10
152.633
 20
-497.598
 30
0.00000
  70
    32
  0
VERTEX
  8
0
  5
14E8B
 10
152.732
 20
-495.701
 30
0.00000
  70
    32
  0
VERTEX
  8
0
  5
14E8C
 10
152.896
 20
-493.813
 30
0.00000
  70
    32
  0
VERTEX
  8
0
  5
14E8D
 10
153.126
 20
-491.939
 30
0.00000
  70
    32
  0
VERTEX
  8
0
  5
14E8E
 10
153.421
 20
-490.083
 30
0.00000
  70
    32
  0
VERTEX
  8
0
  5
14E8F
 10
153.780
 20
-488.250
 30
0.00000
  70
    32
  0
VERTEX
  8
0
  5
14E90
 10
154.201
 20
-486.444
 30
0.00000
  70
    32
  0
VERTEX
  8
0
  5
14E91
 10
154.685
 20
-484.670
 30
0.00000
  70
    32
  0
VERTEX
  8
0
  5
14E92
 10
155.230
 20
-482.931
 30
0.00000
  70
    32
  0
VERTEX
  8
0
  5
14E93
 10
155.835
 20
-481.232
 30
0.00000
  70
    32
  0
VERTEX
  8
0
  5
14E94
 10
156.498
 20
-479.577
 30
0.00000
  70
    32
  0
VERTEX
  8
0
  5
14E95
 10
157.217
 20
-477.971
 30
0.00000
  70
    32
  0
VERTEX
  8
0
  5
14E96
 10
157.992
 20
-476.416
 30
0.00000
  70
    32
  0
VERTEX
  8
0
  5
14E97
 10
158.819
 20
-474.916
 30
0.00000
  70
    32
  0
VERTEX
  8
0
  5
14E98
 10
159.698
 20
-473.476
 30
0.00000
  70
    32
  0
VERTEX
  8
0
  5
14E99
 10
160.625
 20
-472.099
 30
0.00000
  70
    32
  0
VERTEX
  8
0
  5
14E9A
 10
161.599
 20
-470.787
 30
0.00000
  70
    32
  0
VERTEX
  8
0
  5
14E9B
 10
162.617
 20
-469.545
 30
0.00000
  70
    32
  0
VERTEX
  8
0
  5
14E9C
 10
163.678
 20
-468.375
 30
0.00000
  70
    32
  0
VERTEX
  8
0
  5
14E9D
 10
164.777
 20
-467.279
 30
0.00000
  70
    32
  0
VERTEX
  8
0
  5
14E9E
 10
165.913
 20
-466.262
 30
0.00000
  70
    32
  0
VERTEX
  8
0
  5
14E9F
 10
167.084
 20
-465.324
 30
0.00000
  70
    32
  0
VERTEX
  8
0
  5
14EA0
 10
168.285
 20
-464.469
 30
0.00000
  70
    32
  0
VERTEX
  8
0
  5
14EA1
 10
169.514
 20
-463.699
 30
0.00000
  70
    32
  0
VERTEX
  8
0
  5
14EA2
 10
170.769
 20
-463.014
 30
0.00000
  70
    32
  0
VERTEX
  8
0
  5
14EA3
 10
172.046
 20
-462.417
 30
0.00000
  70
    32
  0
VERTEX
  8
0
  5
14EA4
 10
173.342
 20
-461.910
 30
0.00000
  70
    32
  0
VERTEX
  8
0
  5
14EA5
 10
174.655
 20
-461.494
 30
0.00000
  70
    32
  0
VERTEX
  8
0
  5
14EA6
 10
175.980
 20
-461.168
 30
0.00000
  70
    32
  0
VERTEX
  8
0
  5
14EA7
 10
177.314
 20
-460.936
 30
0.00000
  70
    32
  0
VERTEX
  8
0
  5
14EA8
 10
178.656
 20
-460.796
 30
0.00000
  70
    32
  0
VERTEX
  8
0
  5
14EA9
 10
180.000
 20
-460.749
 30
0.00000
  70
    32
  0
SEQEND
  8
0
  5
14EAA
  0
POLYLINE
  5
14BF8
  8
0
 10
177.9848023683362044
 20
-538.248930558067741
 30
0.0
 66
     1
 70
     8
  0
VERTEX
  8
0
  5
14EAB
 10
177.985
 20
-538.249
 30
0.00000
  70
    32
  0
VERTEX
  8
0
  5
14EAC
 10
177.312
 20
-538.237
 30
0.00000
  70
    32
  0
VERTEX
  8
0
  5
14EAD
 10
176.640
 20
-538.202
 30
0.00000
  70
    32
  0
VERTEX
  8
0
  5
14EAE
 10
175.969
 20
-538.144
 30
0.00000
  70
    32
  0
VERTEX
  8
0
  5
14EAF
 10
175.299
 20
-538.062
 30
0.00000
  70
    32
  0
VERTEX
  8
0
  5
14EB0
 10
174.631
 20
-537.958
 30
0.00000
  70
    32
  0
VERTEX
  8
0
  5
14EB1
 10
173.964
 20
-537.830
 30
0.00000
  70
    32
  0
VERTEX
  8
0
  5
14EB2
 10
173.300
 20
-537.678
 30
0.00000
  70
    32
  0
VERTEX
  8
0
  5
14EB3
 10
172.639
 20
-537.504
 30
0.00000
  70
    32
  0
VERTEX
  8
0
  5
14EB4
 10
171.981
 20
-537.307
 30
0.00000
  70
    32
  0
VERTEX
  8
0
  5
14EB5
 10
171.327
 20
-537.088
 30
0.00000
  70
    32
  0
VERTEX
  8
0
  5
14EB6
 10
170.677
 20
-536.845
 30
0.00000
  70
    32
  0
VERTEX
  8
0
  5
14EB7
 10
170.031
 20
-536.580
 30
0.00000
  70
    32
  0
VERTEX
  8
0
  5
14EB8
 10
169.390
 20
-536.293
 30
0.00000
  70
    32
  0
VERTEX
  8
0
  5
14EB9
 10
168.754
 20
-535.984
 30
0.00000
  70
    32
  0
VERTEX
  8
0
  5
14EBA
 10
168.124
 20
-535.652
 30
0.00000
  70
    32
  0
VERTEX
  8
0
  5
14EBB
 10
167.499
 20
-535.299
 30
0.00000
  70
    32
  0
VERTEX
  8
0
  5
14EBC
 10
166.881
 20
-534.925
 30
0.00000
  70
    32
  0
VERTEX
  8
0
  5
14EBD
 10
166.270
 20
-534.529
 30
0.00000
  70
    32
  0
VERTEX
  8
0
  5
14EBE
 10
165.665
 20
-534.111
 30
0.00000
  70
    32
  0
VERTEX
  8
0
  5
14EBF
 10
165.068
 20
-533.673
 30
0.00000
  70
    32
  0
VERTEX
  8
0
  5
14EC0
 10
164.479
 20
-533.215
 30
0.00000
  70
    32
  0
VERTEX
  8
0
  5
14EC1
 10
163.898
 20
-532.736
 30
0.00000
  70
    32
  0
VERTEX
  8
0
  5
14EC2
 10
163.326
 20
-532.237
 30
0.00000
  70
    32
  0
VERTEX
  8
0
  5
14EC3
 10
162.762
 20
-531.718
 30
0.00000
  70
    32
  0
VERTEX
  8
0
  5
14EC4
 10
162.207
 20
-531.180
 30
0.00000
  70
    32
  0
VERTEX
  8
0
  5
14EC5
 10
161.662
 20
-530.623
 30
0.00000
  70
    32
  0
VERTEX
  8
0
  5
14EC6
 10
161.127
 20
-530.047
 30
0.00000
  70
    32
  0
VERTEX
  8
0
  5
14EC7
 10
160.602
 20
-529.453
 30
0.00000
  70
    32
  0
VERTEX
  8
0
  5
14EC8
 10
160.088
 20
-528.841
 30
0.00000
  70
    32
  0
VERTEX
  8
0
  5
14EC9
 10
159.584
 20
-528.211
 30
0.00000
  70
    32
  0
VERTEX
  8
0
  5
14ECA
 10
159.091
 20
-527.564
 30
0.00000
  70
    32
  0
VERTEX
  8
0
  5
14ECB
 10
158.610
 20
-526.899
 30
0.00000
  70
    32
  0
VERTEX
  8
0
  5
14ECC
 10
158.140
 20
-526.219
 30
0.00000
  70
    32
  0
VERTEX
  8
0
  5
14ECD
 10
157.682
 20
-525.522
 30
0.00000
  70
    32
  0
VERTEX
  8
0
  5
14ECE
 10
157.237
 20
-524.809
 30
0.00000
  70
    32
  0
VERTEX
  8
0
  5
14ECF
 10
156.804
 20
-524.082
 30
0.00000
  70
    32
  0
VERTEX
  8
0
  5
14ED0
 10
156.384
 20
-523.339
 30
0.00000
  70
    32
  0
VERTEX
  8
0
  5
14ED1
 10
155.977
 20
-522.582
 30
0.00000
  70
    32
  0
VERTEX
  8
0
  5
14ED2
 10
155.583
 20
-521.811
 30
0.00000
  70
    32
  0
VERTEX
  8
0
  5
14ED3
 10
155.202
 20
-521.027
 30
0.00000
  70
    32
  0
VERTEX
  8
0
  5
14ED4
 10
154.835
 20
-520.230
 30
0.00000
  70
    32
  0
VERTEX
  8
0
  5
14ED5
 10
154.483
 20
-519.420
 30
0.00000
  70
    32
  0
VERTEX
  8
0
  5
14ED6
 10
154.144
 20
-518.599
 30
0.00000
  70
    32
  0
VERTEX
  8
0
  5
14ED7
 10
153.820
 20
-517.766
 30
0.00000
  70
    32
  0
VERTEX
  8
0
  5
14ED8
 10
153.510
 20
-516.921
 30
0.00000
  70
    32
  0
VERTEX
  8
0
  5
14ED9
 10
153.215
 20
-516.067
 30
0.00000
  70
    32
  0
VERTEX
  8
0
  5
14EDA
 10
152.935
 20
-515.202
 30
0.00000
  70
    32
  0
VERTEX
  8
0
  5
14EDB
 10
152.670
 20
-514.328
 30
0.00000
  70
    32
  0
VERTEX
  8
0
  5
14EDC
 10
152.420
 20
-513.445
 30
0.00000
  70
    32
  0
VERTEX
  8
0
  5
14EDD
 10
152.186
 20
-512.553
 30
0.00000
  70
    32
  0
VERTEX
  8
0
  5
14EDE
 10
151.967
 20
-511.654
 30
0.00000
  70
    32
  0
VERTEX
  8
0
  5
14EDF
 10
151.764
 20
-510.747
 30
0.00000
  70
    32
  0
VERTEX
  8
0
  5
14EE0
 10
151.577
 20
-509.834
 30
0.00000
  70
    32
  0
VERTEX
  8
0
  5
14EE1
 10
151.406
 20
-508.914
 30
0.00000
  70
    32
  0
VERTEX
  8
0
  5
14EE2
 10
151.250
 20
-507.989
 30
0.00000
  70
    32
  0
VERTEX
  8
0
  5
14EE3
 10
151.111
 20
-507.059
 30
0.00000
  70
    32
  0
VERTEX
  8
0
  5
14EE4
 10
150.988
 20
-506.124
 30
0.00000
  70
    32
  0
VERTEX
  8
0
  5
14EE5
 10
150.881
 20
-505.185
 30
0.00000
  70
    32
  0
VERTEX
  8
0
  5
14EE6
 10
150.790
 20
-504.242
 30
0.00000
  70
    32
  0
VERTEX
  8
0
  5
14EE7
 10
150.716
 20
-503.297
 30
0.00000
  70
    32
  0
VERTEX
  8
0
  5
14EE8
 10
150.659
 20
-502.350
 30
0.00000
  70
    32
  0
VERTEX
  8
0
  5
14EE9
 10
150.617
 20
-501.400
 30
0.00000
  70
    32
  0
VERTEX
  8
0
  5
14EEA
 10
150.593
 20
-500.450
 30
0.00000
  70
    32
  0
VERTEX
  8
0
  5
14EEB
 10
150.584
 20
-499.499
 30
0.00000
  70
    32
  0
VERTEX
  8
0
  5
14EEC
 10
150.593
 20
-498.548
 30
0.00000
  70
    32
  0
VERTEX
  8
0
  5
14EED
 10
150.617
 20
-497.598
 30
0.00000
  70
    32
  0
VERTEX
  8
0
  5
14EEE
 10
150.659
 20
-496.648
 30
0.00000
  70
    32
  0
VERTEX
  8
0
  5
14EEF
 10
150.716
 20
-495.701
 30
0.00000
  70
    32
  0
VERTEX
  8
0
  5
14EF0
 10
150.790
 20
-494.756
 30
0.00000
  70
    32
  0
VERTEX
  8
0
  5
14EF1
 10
150.881
 20
-493.813
 30
0.00000
  70
    32
  0
VERTEX
  8
0
  5
14EF2
 10
150.988
 20
-492.874
 30
0.00000
  70
    32
  0
VERTEX
  8
0
  5
14EF3
 10
151.111
 20
-491.939
 30
0.00000
  70
    32
  0
VERTEX
  8
0
  5
14EF4
 10
151.250
 20
-491.009
 30
0.00000
  70
    32
  0
VERTEX
  8
0
  5
14EF5
 10
151.406
 20
-490.083
 30
0.00000
  70
    32
  0
VERTEX
  8
0
  5
14EF6
 10
151.577
 20
-489.164
 30
0.00000
  70
    32
  0
VERTEX
  8
0
  5
14EF7
 10
151.764
 20
-488.250
 30
0.00000
  70
    32
  0
VERTEX
  8
0
  5
14EF8
 10
151.967
 20
-487.344
 30
0.00000
  70
    32
  0
VERTEX
  8
0
  5
14EF9
 10
152.186
 20
-486.444
 30
0.00000
  70
    32
  0
VERTEX
  8
0
  5
14EFA
 10
152.420
 20
-485.553
 30
0.00000
  70
    32
  0
VERTEX
  8
0
  5
14EFB
 10
152.670
 20
-484.670
 30
0.00000
  70
    32
  0
VERTEX
  8
0
  5
14EFC
 10
152.935
 20
-483.796
 30
0.00000
  70
    32
  0
VERTEX
  8
0
  5
14EFD
 10
153.215
 20
-482.931
 30
0.00000
  70
    32
  0
VERTEX
  8
0
  5
14EFE
 10
153.510
 20
-482.076
 30
0.00000
  70
    32
  0
VERTEX
  8
0
  5
14EFF
 10
153.820
 20
-481.232
 30
0.00000
  70
    32
  0
VERTEX
  8
0
  5
14F00
 10
154.144
 20
-480.399
 30
0.00000
  70
    32
  0
VERTEX
  8
0
  5
14F01
 10
154.483
 20
-479.577
 30
0.00000
  70
    32
  0
VERTEX
  8
0
  5
14F02
 10
154.835
 20
-478.768
 30
0.00000
  70
    32
  0
VERTEX
  8
0
  5
14F03
 10
155.202
 20
-477.971
 30
0.00000
  70
    32
  0
VERTEX
  8
0
  5
14F04
 10
155.583
 20
-477.186
 30
0.00000
  70
    32
  0
VERTEX
  8
0
  5
14F05
 10
155.977
 20
-476.416
 30
0.00000
  70
    32
  0
VERTEX
  8
0
  5
14F06
 10
156.384
 20
-475.659
 30
0.00000
  70
    32
  0
VERTEX
  8
0
  5
14F07
 10
156.804
 20
-474.916
 30
0.00000
  70
    32
  0
VERTEX
  8
0
  5
14F08
 10
157.237
 20
-474.188
 30
0.00000
  70
    32
  0
VERTEX
  8
0
  5
14F09
 10
157.682
 20
-473.476
 30
0.00000
  70
    32
  0
VERTEX
  8
0
  5
14F0A
 10
158.140
 20
-472.779
 30
0.00000
  70
    32
  0
VERTEX
  8
0
  5
14F0B
 10
158.610
 20
-472.099
 30
0.00000
  70
    32
  0
VERTEX
  8
0
  5
14F0C
 10
159.091
 20
-471.434
 30
0.00000
  70
    32
  0
VERTEX
  8
0
  5
14F0D
 10
159.584
 20
-470.787
 30
0.00000
  70
    32
  0
VERTEX
  8
0
  5
14F0E
 10
160.088
 20
-470.157
 30
0.00000
  70
    32
  0
VERTEX
  8
0
  5
14F0F
 10
160.602
 20
-469.545
 30
0.00000
  70
    32
  0
VERTEX
  8
0
  5
14F10
 10
161.127
 20
-468.951
 30
0.00000
  70
    32
  0
VERTEX
  8
0
  5
14F11
 10
161.662
 20
-468.375
 30
0.00000
  70
    32
  0
VERTEX
  8
0
  5
14F12
 10
162.207
 20
-467.818
 30
0.00000
  70
    32
  0
VERTEX
  8
0
  5
14F13
 10
162.762
 20
-467.279
 30
0.00000
  70
    32
  0
VERTEX
  8
0
  5
14F14
 10
163.326
 20
-466.761
 30
0.00000
  70
    32
  0
VERTEX
  8
0
  5
14F15
 10
163.898
 20
-466.262
 30
0.00000
  70
    32
  0
VERTEX
  8
0
  5
14F16
 10
164.479
 20
-465.783
 30
0.00000
  70
    32
  0
VERTEX
  8
0
  5
14F17
 10
165.068
 20
-465.324
 30
0.00000
  70
    32
  0
VERTEX
  8
0
  5
14F18
 10
165.665
 20
-464.886
 30
0.00000
  70
    32
  0
VERTEX
  8
0
  5
14F19
 10
166.270
 20
-464.469
 30
0.00000
  70
    32
  0
VERTEX
  8
0
  5
14F1A
 10
166.881
 20
-464.073
 30
0.00000
  70
    32
  0
VERTEX
  8
0
  5
14F1B
 10
167.499
 20
-463.699
 30
0.00000
  70
    32
  0
VERTEX
  8
0
  5
14F1C
 10
168.124
 20
-463.345
 30
0.00000
  70
    32
  0
VERTEX
  8
0
  5
14F1D
 10
168.754
 20
-463.014
 30
0.00000
  70
    32
  0
VERTEX
  8
0
  5
14F1E
 10
169.390
 20
-462.705
 30
0.00000
  70
    32
  0
VERTEX
  8
0
  5
14F1F
 10
170.031
 20
-462.417
 30
0.00000
  70
    32
  0
VERTEX
  8
0
  5
14F20
 10
170.677
 20
-462.153
 30
0.00000
  70
    32
  0
VERTEX
  8
0
  5
14F21
 10
171.327
 20
-461.910
 30
0.00000
  70
    32
  0
VERTEX
  8
0
  5
14F22
 10
171.981
 20
-461.690
 30
0.00000
  70
    32
  0
VERTEX
  8
0
  5
14F23
 10
172.639
 20
-461.494
 30
0.00000
  70
    32
  0
VERTEX
  8
0
  5
14F24
 10
173.300
 20
-461.319
 30
0.00000
  70
    32
  0
VERTEX
  8
0
  5
14F25
 10
173.964
 20
-461.168
 30
0.00000
  70
    32
  0
VERTEX
  8
0
  5
14F26
 10
174.631
 20
-461.040
 30
0.00000
  70
    32
  0
VERTEX
  8
0
  5
14F27
 10
175.299
 20
-460.936
 30
0.00000
  70
    32
  0
VERTEX
  8
0
  5
14F28
 10
175.969
 20
-460.854
 30
0.00000
  70
    32
  0
VERTEX
  8
0
  5
14F29
 10
176.640
 20
-460.796
 30
0.00000
  70
    32
  0
VERTEX
  8
0
  5
14F2A
 10
177.312
 20
-460.761
 30
0.00000
  70
    32
  0
VERTEX
  8
0
  5
14F2B
 10
177.985
 20
-460.749
 30
0.00000
  70
    32
  0
SEQEND
  8
0
  5
14F2C
  0
LINE
  5
14BF9
  8
0
 10
177.9848023683362044
 20
-460.7489305580679115
 30
0.0
 11
180.0000566947178129
 21
-460.7489305580679115
 31
0.0
  0
LINE
  5
14BFA
  8
0
 10
177.9848023683362044
 20
-538.248930558067741
 30
0.0
 11
180.0000566947178129
 21
-538.248930558067741
 31
0.0
  0
POLYLINE
  5
14BFB
  8
0
 10
180.0000566947178129
 20
-469.7489305580677978
 30
0.0
 66
     1
 70
     8
  0
VERTEX
  8
0
  5
14F2D
 10
180.000
 20
-469.749
 30
0.00000
  70
    32
  0
VERTEX
  8
0
  5
14F2E
 10
181.032
 20
-469.785
 30
0.00000
  70
    32
  0
VERTEX
  8
0
  5
14F2F
 10
182.062
 20
-469.892
 30
0.00000
  70
    32
  0
VERTEX
  8
0
  5
14F30
 10
183.087
 20
-470.071
 30
0.00000
  70
    32
  0
VERTEX
  8
0
  5
14F31
 10
184.104
 20
-470.321
 30
0.00000
  70
    32
  0
VERTEX
  8
0
  5
14F32
 10
185.111
 20
-470.641
 30
0.00000
  70
    32
  0
VERTEX
  8
0
  5
14F33
 10
186.107
 20
-471.030
 30
0.00000
  70
    32
  0
VERTEX
  8
0
  5
14F34
 10
187.087
 20
-471.488
 30
0.00000
  70
    32
  0
VERTEX
  8
0
  5
14F35
 10
188.050
 20
-472.014
 30
0.00000
  70
    32
  0
VERTEX
  8
0
  5
14F36
 10
188.994
 20
-472.605
 30
0.00000
  70
    32
  0
VERTEX
  8
0
  5
14F37
 10
189.917
 20
-473.262
 30
0.00000
  70
    32
  0
VERTEX
  8
0
  5
14F38
 10
190.815
 20
-473.982
 30
0.00000
  70
    32
  0
VERTEX
  8
0
  5
14F39
 10
191.687
 20
-474.763
 30
0.00000
  70
    32
  0
VERTEX
  8
0
  5
14F3A
 10
192.531
 20
-475.604
 30
0.00000
  70
    32
  0
VERTEX
  8
0
  5
14F3B
 10
193.345
 20
-476.502
 30
0.00000
  70
    32
  0
VERTEX
  8
0
  5
14F3C
 10
194.127
 20
-477.456
 30
0.00000
  70
    32
  0
VERTEX
  8
0
  5
14F3D
 10
194.875
 20
-478.463
 30
0.00000
  70
    32
  0
VERTEX
  8
0
  5
14F3E
 10
195.587
 20
-479.520
 30
0.00000
  70
    32
  0
VERTEX
  8
0
  5
14F3F
 10
196.261
 20
-480.626
 30
0.00000
  70
    32
  0
VERTEX
  8
0
  5
14F40
 10
196.897
 20
-481.777
 30
0.00000
  70
    32
  0
VERTEX
  8
0
  5
14F41
 10
197.491
 20
-482.971
 30
0.00000
  70
    32
  0
VERTEX
  8
0
  5
14F42
 10
198.044
 20
-484.204
 30
0.00000
  70
    32
  0
VERTEX
  8
0
  5
14F43
 10
198.553
 20
-485.475
 30
0.00000
  70
    32
  0
VERTEX
  8
0
  5
14F44
 10
199.017
 20
-486.779
 30
0.00000
  70
    32
  0
VERTEX
  8
0
  5
14F45
 10
199.435
 20
-488.114
 30
0.00000
  70
    32
  0
VERTEX
  8
0
  5
14F46
 10
199.807
 20
-489.476
 30
0.00000
  70
    32
  0
VERTEX
  8
0
  5
14F47
 10
200.131
 20
-490.863
 30
0.00000
  70
    32
  0
VERTEX
  8
0
  5
14F48
 10
200.406
 20
-492.270
 30
0.00000
  70
    32
  0
VERTEX
  8
0
  5
14F49
 10
200.632
 20
-493.695
 30
0.00000
  70
    32
  0
VERTEX
  8
0
  5
14F4A
 10
200.809
 20
-495.134
 30
0.00000
  70
    32
  0
VERTEX
  8
0
  5
14F4B
 10
200.935
 20
-496.583
 30
0.00000
  70
    32
  0
VERTEX
  8
0
  5
14F4C
 10
201.011
 20
-498.039
 30
0.00000
  70
    32
  0
VERTEX
  8
0
  5
14F4D
 10
201.036
 20
-499.499
 30
0.00000
  70
    32
  0
VERTEX
  8
0
  5
14F4E
 10
201.011
 20
-500.959
 30
0.00000
  70
    32
  0
VERTEX
  8
0
  5
14F4F
 10
200.935
 20
-502.415
 30
0.00000
  70
    32
  0
VERTEX
  8
0
  5
14F50
 10
200.809
 20
-503.864
 30
0.00000
  70
    32
  0
VERTEX
  8
0
  5
14F51
 10
200.632
 20
-505.303
 30
0.00000
  70
    32
  0
VERTEX
  8
0
  5
14F52
 10
200.406
 20
-506.728
 30
0.00000
  70
    32
  0
VERTEX
  8
0
  5
14F53
 10
200.131
 20
-508.135
 30
0.00000
  70
    32
  0
VERTEX
  8
0
  5
14F54
 10
199.807
 20
-509.521
 30
0.00000
  70
    32
  0
VERTEX
  8
0
  5
14F55
 10
199.435
 20
-510.884
 30
0.00000
  70
    32
  0
VERTEX
  8
0
  5
14F56
 10
199.017
 20
-512.219
 30
0.00000
  70
    32
  0
VERTEX
  8
0
  5
14F57
 10
198.553
 20
-513.523
 30
0.00000
  70
    32
  0
VERTEX
  8
0
  5
14F58
 10
198.044
 20
-514.793
 30
0.00000
  70
    32
  0
VERTEX
  8
0
  5
14F59
 10
197.491
 20
-516.027
 30
0.00000
  70
    32
  0
VERTEX
  8
0
  5
14F5A
 10
196.897
 20
-517.221
 30
0.00000
  70
    32
  0
VERTEX
  8
0
  5
14F5B
 10
196.261
 20
-518.372
 30
0.00000
  70
    32
  0
VERTEX
  8
0
  5
14F5C
 10
195.587
 20
-519.478
 30
0.00000
  70
    32
  0
VERTEX
  8
0
  5
14F5D
 10
194.875
 20
-520.535
 30
0.00000
  70
    32
  0
VERTEX
  8
0
  5
14F5E
 10
194.127
 20
-521.542
 30
0.00000
  70
    32
  0
VERTEX
  8
0
  5
14F5F
 10
193.345
 20
-522.496
 30
0.00000
  70
    32
  0
VERTEX
  8
0
  5
14F60
 10
192.531
 20
-523.394
 30
0.00000
  70
    32
  0
VERTEX
  8
0
  5
14F61
 10
191.687
 20
-524.235
 30
0.00000
  70
    32
  0
VERTEX
  8
0
  5
14F62
 10
190.815
 20
-525.016
 30
0.00000
  70
    32
  0
VERTEX
  8
0
  5
14F63
 10
189.917
 20
-525.736
 30
0.00000
  70
    32
  0
VERTEX
  8
0
  5
14F64
 10
188.994
 20
-526.393
 30
0.00000
  70
    32
  0
VERTEX
  8
0
  5
14F65
 10
188.050
 20
-526.984
 30
0.00000
  70
    32
  0
VERTEX
  8
0
  5
14F66
 10
187.087
 20
-527.510
 30
0.00000
  70
    32
  0
VERTEX
  8
0
  5
14F67
 10
186.107
 20
-527.968
 30
0.00000
  70
    32
  0
VERTEX
  8
0
  5
14F68
 10
185.111
 20
-528.357
 30
0.00000
  70
    32
  0
VERTEX
  8
0
  5
14F69
 10
184.104
 20
-528.677
 30
0.00000
  70
    32
  0
VERTEX
  8
0
  5
14F6A
 10
183.087
 20
-528.927
 30
0.00000
  70
    32
  0
VERTEX
  8
0
  5
14F6B
 10
182.062
 20
-529.106
 30
0.00000
  70
    32
  0
VERTEX
  8
0
  5
14F6C
 10
181.032
 20
-529.213
 30
0.00000
  70
    32
  0
VERTEX
  8
0
  5
14F6D
 10
180.000
 20
-529.249
 30
0.00000
  70
    32
  0
VERTEX
  8
0
  5
14F6E
 10
178.968
 20
-529.213
 30
0.00000
  70
    32
  0
VERTEX
  8
0
  5
14F6F
 10
177.938
 20
-529.106
 30
0.00000
  70
    32
  0
VERTEX
  8
0
  5
14F70
 10
176.913
 20
-528.927
 30
0.00000
  70
    32
  0
VERTEX
  8
0
  5
14F71
 10
175.896
 20
-528.677
 30
0.00000
  70
    32
  0
VERTEX
  8
0
  5
14F72
 10
174.889
 20
-528.357
 30
0.00000
  70
    32
  0
VERTEX
  8
0
  5
14F73
 10
173.894
 20
-527.968
 30
0.00000
  70
    32
  0
VERTEX
  8
0
  5
14F74
 10
172.913
 20
-527.510
 30
0.00000
  70
    32
  0
VERTEX
  8
0
  5
14F75
 10
171.950
 20
-526.984
 30
0.00000
  70
    32
  0
VERTEX
  8
0
  5
14F76
 10
171.006
 20
-526.393
 30
0.00000
  70
    32
  0
VERTEX
  8
0
  5
14F77
 10
170.084
 20
-525.736
 30
0.00000
  70
    32
  0
VERTEX
  8
0
  5
14F78
 10
169.185
 20
-525.016
 30
0.00000
  70
    32
  0
VERTEX
  8
0
  5
14F79
 10
168.313
 20
-524.235
 30
0.00000
  70
    32
  0
VERTEX
  8
0
  5
14F7A
 10
167.469
 20
-523.394
 30
0.00000
  70
    32
  0
VERTEX
  8
0
  5
14F7B
 10
166.655
 20
-522.496
 30
0.00000
  70
    32
  0
VERTEX
  8
0
  5
14F7C
 10
165.873
 20
-521.542
 30
0.00000
  70
    32
  0
VERTEX
  8
0
  5
14F7D
 10
165.125
 20
-520.535
 30
0.00000
  70
    32
  0
VERTEX
  8
0
  5
14F7E
 10
164.413
 20
-519.478
 30
0.00000
  70
    32
  0
VERTEX
  8
0
  5
14F7F
 10
163.739
 20
-518.372
 30
0.00000
  70
    32
  0
VERTEX
  8
0
  5
14F80
 10
163.103
 20
-517.221
 30
0.00000
  70
    32
  0
VERTEX
  8
0
  5
14F81
 10
162.509
 20
-516.027
 30
0.00000
  70
    32
  0
VERTEX
  8
0
  5
14F82
 10
161.957
 20
-514.793
 30
0.00000
  70
    32
  0
VERTEX
  8
0
  5
14F83
 10
161.448
 20
-513.523
 30
0.00000
  70
    32
  0
VERTEX
  8
0
  5
14F84
 10
160.983
 20
-512.219
 30
0.00000
  70
    32
  0
VERTEX
  8
0
  5
14F85
 10
160.565
 20
-510.884
 30
0.00000
  70
    32
  0
VERTEX
  8
0
  5
14F86
 10
160.193
 20
-509.521
 30
0.00000
  70
    32
  0
VERTEX
  8
0
  5
14F87
 10
159.869
 20
-508.135
 30
0.00000
  70
    32
  0
VERTEX
  8
0
  5
14F88
 10
159.594
 20
-506.728
 30
0.00000
  70
    32
  0
VERTEX
  8
0
  5
14F89
 10
159.368
 20
-505.303
 30
0.00000
  70
    32
  0
VERTEX
  8
0
  5
14F8A
 10
159.191
 20
-503.864
 30
0.00000
  70
    32
  0
VERTEX
  8
0
  5
14F8B
 10
159.065
 20
-502.415
 30
0.00000
  70
    32
  0
VERTEX
  8
0
  5
14F8C
 10
158.989
 20
-500.959
 30
0.00000
  70
    32
  0
VERTEX
  8
0
  5
14F8D
 10
158.964
 20
-499.499
 30
0.00000
  70
    32
  0
VERTEX
  8
0
  5
14F8E
 10
158.989
 20
-498.039
 30
0.00000
  70
    32
  0
VERTEX
  8
0
  5
14F8F
 10
159.065
 20
-496.583
 30
0.00000
  70
    32
  0
VERTEX
  8
0
  5
14F90
 10
159.191
 20
-495.134
 30
0.00000
  70
    32
  0
VERTEX
  8
0
  5
14F91
 10
159.368
 20
-493.695
 30
0.00000
  70
    32
  0
VERTEX
  8
0
  5
14F92
 10
159.594
 20
-492.270
 30
0.00000
  70
    32
  0
VERTEX
  8
0
  5
14F93
 10
159.869
 20
-490.863
 30
0.00000
  70
    32
  0
VERTEX
  8
0
  5
14F94
 10
160.193
 20
-489.476
 30
0.00000
  70
    32
  0
VERTEX
  8
0
  5
14F95
 10
160.565
 20
-488.114
 30
0.00000
  70
    32
  0
VERTEX
  8
0
  5
14F96
 10
160.983
 20
-486.779
 30
0.00000
  70
    32
  0
VERTEX
  8
0
  5
14F97
 10
161.448
 20
-485.475
 30
0.00000
  70
    32
  0
VERTEX
  8
0
  5
14F98
 10
161.957
 20
-484.204
 30
0.00000
  70
    32
  0
VERTEX
  8
0
  5
14F99
 10
162.509
 20
-482.971
 30
0.00000
  70
    32
  0
VERTEX
  8
0
  5
14F9A
 10
163.103
 20
-481.777
 30
0.00000
  70
    32
  0
VERTEX
  8
0
  5
14F9B
 10
163.739
 20
-480.626
 30
0.00000
  70
    32
  0
VERTEX
  8
0
  5
14F9C
 10
164.413
 20
-479.520
 30
0.00000
  70
    32
  0
VERTEX
  8
0
  5
14F9D
 10
165.125
 20
-478.463
 30
0.00000
  70
    32
  0
VERTEX
  8
0
  5
14F9E
 10
165.873
 20
-477.456
 30
0.00000
  70
    32
  0
VERTEX
  8
0
  5
14F9F
 10
166.655
 20
-476.502
 30
0.00000
  70
    32
  0
VERTEX
  8
0
  5
14FA0
 10
167.469
 20
-475.604
 30
0.00000
  70
    32
  0
VERTEX
  8
0
  5
14FA1
 10
168.313
 20
-474.763
 30
0.00000
  70
    32
  0
VERTEX
  8
0
  5
14FA2
 10
169.185
 20
-473.982
 30
0.00000
  70
    32
  0
VERTEX
  8
0
  5
14FA3
 10
170.084
 20
-473.262
 30
0.00000
  70
    32
  0
VERTEX
  8
0
  5
14FA4
 10
171.006
 20
-472.605
 30
0.00000
  70
    32
  0
VERTEX
  8
0
  5
14FA5
 10
171.950
 20
-472.014
 30
0.00000
  70
    32
  0
VERTEX
  8
0
  5
14FA6
 10
172.913
 20
-471.488
 30
0.00000
  70
    32
  0
VERTEX
  8
0
  5
14FA7
 10
173.894
 20
-471.030
 30
0.00000
  70
    32
  0
VERTEX
  8
0
  5
14FA8
 10
174.889
 20
-470.641
 30
0.00000
  70
    32
  0
VERTEX
  8
0
  5
14FA9
 10
175.896
 20
-470.321
 30
0.00000
  70
    32
  0
VERTEX
  8
0
  5
14FAA
 10
176.913
 20
-470.071
 30
0.00000
  70
    32
  0
VERTEX
  8
0
  5
14FAB
 10
177.938
 20
-469.892
 30
0.00000
  70
    32
  0
VERTEX
  8
0
  5
14FAC
 10
178.968
 20
-469.785
 30
0.00000
  70
    32
  0
VERTEX
  8
0
  5
14FAD
 10
180.000
 20
-469.749
 30
0.00000
  70
    32
  0
SEQEND
  8
0
  5
14FAE
  0
LINE
  5
14BFC
  8
0
  6
CONTINUOUS
 10
162.2765242959312104
 20
-531.248930558067741
 30
0.0
 11
93.2426749529856949
 21
-531.248930558067741
 31
0.0
  0
LINE
  5
14BFD
  8
0
  6
CONTINUOUS
 10
162.2765242959312104
 20
-467.7489305580676842
 30
0.0
 11
93.2426749529856949
 21
-467.7489305580676842
 31
0.0
  0
LINE
  5
14BFE
  8
0
  6
CENTER
 10
0.0000584624508519
 20
-638.6489305578761559
 30
0.0
 11
0.0000584624508519
 21
-360.3489305582594966
 31
0.0
  0
LINE
  5
14BFF
  8
0
  6
CENTER
 10
-228.1403661410350026
 20
-499.4989305580676273
 30
0.0
 11
228.1404830660171115
 21
-499.4989305580677978
 31
0.0
  0
CIRCLE
  5
14C00
  8
0
 10
0.0000584624553994
 20
-499.4989305580676273
 30
0.0
 40
9.9999990000000007
  0
CIRCLE
  5
14C01
  8
0
 10
0.0000584624549447
 20
-499.4989305580676273
 30
0.0
 40
13.5
  0
LINE
  5
14C02
  8
0
 10
-99.6021384187829426
 20
-467.7488655580676777
 30
0.0
 11
-93.2425358949299152
 21
-467.7488655580677914
 31
0.0
  0
CIRCLE
  5
14C03
  8
0
 10
0.0000584624553994
 20
-499.4989305580676273
 30
0.0
 40
89.0000250000001643
  0
CIRCLE
  5
14C04
  8
0
 10
0.0000584624553994
 20
-499.4989305580676273
 30
0.0
 40
98.4999900000001389
  0
CIRCLE
  5
14C05
  8
0
 10
0.0000584624549447
 20
-499.4989305580676273
 30
0.0
 40
25.0000199999999495
  0
LINE
  5
14C06
  8
0
 10
99.6022553436935141
 20
-531.2489955580676906
 30
0.0
 11
93.2426528198404867
 21
-531.2489955580676906
 31
0.0
  0
LINE
  5
14C07
  8
0
 10
99.6022553436935141
 20
-467.7489555580676779
 30
0.0
 11
93.2426834657203472
 21
-467.7489555580676779
 31
0.0
  0
LINE
  5
14C08
  8
0
 10
100.5000584624555984
 20
-494.7821055580744769
 30
0.0
 11
100.5000584624555984
 21
-504.2156505580746284
 31
0.0
  0
LINE
  5
14C09
  8
0
 10
116.0639384624554964
 20
-494.4989805580744928
 30
0.0
 11
103.563973462455607
 21
-494.4989805580744928
 31
0.0
  0
LINE
  5
14C0A
  8
0
 10
103.563973462455607
 20
-494.7489705580744044
 30
0.0
 11
101.5639484624556985
 21
-494.7489705580744044
 31
0.0
  0
LINE
  5
14C0B
  8
0
 10
103.563973462455607
 20
-504.2489805580744928
 30
0.0
 11
101.5639484624556985
 21
-504.2489805580744928
 31
0.0
  0
LINE
  5
14C0C
  8
0
 10
101.5639034624556984
 20
-494.7489255580745748
 30
0.0
 11
98.3784674045050451
 21
-494.848484080516414
 31
0.0
  0
LINE
  5
14C0D
  8
0
 10
101.5653734624556961
 20
-504.2489805580744928
 30
0.0
 11
98.3784674025494041
 21
-504.1493770729916264
 31
0.0
  0
LINE
  5
14C0E
  8
0
 10
103.564018462455806
 20
-494.498935558074777
 30
0.0
 11
103.564018462455806
 21
-504.4989255580745748
 31
0.0
  0
LINE
  5
14C0F
  8
0
 10
116.0639834624554965
 20
-494.498935558074777
 30
0.0
 11
116.0639834624554965
 21
-504.4989255580745748
 31
0.0
  0
LINE
  5
14C10
  8
0
 10
116.0639384624554964
 20
-504.4989705580744044
 30
0.0
 11
103.563973462455607
 21
-504.4989705580744044
 31
0.0
  0
ARC
  5
14C11
  8
0
 10
0.0000584624553994
 20
-499.4989305580676273
 30
0.0
 40
98.9999991772230032
 50
198.7056910670902994
 51
341.2943089329093027
  0
ARC
  5
14C12
  8
0
 10
0.0000584624553994
 20
-499.4989305580676273
 30
0.0
 40
98.9999991772230032
 50
18.7056910670907008
 51
161.2943089329093027
  0
ARC
  5
14C13
  8
0
 10
0.0000584624544899
 20
-499.4989305580677978
 30
0.0
 40
126.4999999998257039
 50
194.5359930509528965
 51
345.4640069490466772
  0
ARC
  5
14C14
  8
0
 10
0.0000584624544899
 20
-499.4989305580677978
 30
0.0
 40
126.4999999998257039
 50
14.5359930509528592
 51
165.4640069490471035
  0
ENDSEC
  0
EOF
