  0
SECTION
  2
HEADER
  9
$ACADVER
  1
AC1009
  9
$INSBASE
 10
0.0
 20
0.0
 30
0.0
  9
$EXTMIN
 10
-354.1666666666665719
 20
-635.1566042151849842
 30
0.0
  9
$EXTMAX
 10
354.1666666666665719
 20
225.0
 30
0.0
  9
$LIMMIN
 10
0.0
 20
0.0
  9
$LIMMAX
 10
420.0
 20
297.0
  9
$ORTHOMODE
 70
     1
  9
$REGENMODE
 70
     1
  9
$FILLMODE
 70
     1
  9
$QTEXTMODE
 70
     0
  9
$MIRRTEXT
 70
     0
  9
$DRAGMODE
 70
     2
  9
$LTSCALE
 40
1.0
  9
$OSMODE
 70
  2751
  9
$ATTMODE
 70
     1
  9
$TEXTSIZE
 40
2.5
  9
$TRACEWID
 40
1.0
  9
$TEXTSTYLE
  7
STANDARD
  9
$CLAYER
  8
0
  9
$CELTYPE
  6
BYLAYER
  9
$CECOLOR
 62
     7
  9
$DIMSCALE
 40
1.0
  9
$DIMASZ
 40
0.18
  9
$DIMEXO
 40
0.0625
  9
$DIMDLI
 40
0.38
  9
$DIMRND
 40
0.0
  9
$DIMDLE
 40
0.0
  9
$DIMEXE
 40
0.18
  9
$DIMTP
 40
0.0
  9
$DIMTM
 40
0.0
  9
$DIMTXT
 40
0.18
  9
$DIMCEN
 40
0.09
  9
$DIMTSZ
 40
0.0
  9
$DIMTOL
 70
     0
  9
$DIMLIM
 70
     0
  9
$DIMTIH
 70
     1
  9
$DIMTOH
 70
     1
  9
$DIMSE1
 70
     0
  9
$DIMSE2
 70
     0
  9
$DIMTAD
 70
     0
  9
$DIMZIN
 70
     0
  9
$DIMBLK
  1

  9
$DIMASO
 70
     1
  9
$DIMSHO
 70
     1
  9
$DIMPOST
  1

  9
$DIMAPOST
  1

  9
$DIMALT
 70
     0
  9
$DIMALTD
 70
     2
  9
$DIMALTF
 40
25.3999999999999986
  9
$DIMLFAC
 40
1.0
  9
$DIMTOFL
 70
     0
  9
$DIMTVP
 40
0.0
  9
$DIMTIX
 70
     0
  9
$DIMSOXD
 70
     0
  9
$DIMSAH
 70
     0
  9
$DIMBLK1
  1

  9
$DIMBLK2
  1

  9
$DIMSTYLE
  2
STANDARD
  9
$DIMCLRD
 70
     0
  9
$DIMCLRE
 70
     0
  9
$DIMCLRT
 70
     0
  9
$DIMTFAC
 40
1.0
  9
$DIMGAP
 40
0.09
  9
$LUNITS
 70
     2
  9
$LUPREC
 70
     8
  9
$SKETCHINC
 40
1.0
  9
$FILLETRAD
 40
0.0
  9
$AUNITS
 70
     0
  9
$AUPREC
 70
     0
  9
$MENU
  1
.
  9
$ELEVATION
 40
0.0
  9
$PELEVATION
 40
0.0
  9
$THICKNESS
 40
0.0
  9
$LIMCHECK
 70
     0
  9
$BLIPMODE
 70
     0
  9
$CHAMFERA
 40
0.0
  9
$CHAMFERB
 40
0.0
  9
$SKPOLY
 70
     0
  9
$TDCREATE
 40
2455533.587210648227483
  9
$TDUPDATE
 40
2459951.6475231479853392
  9
$TDINDWG
 40
9.2904430207999997
  9
$TDUSRTIMER
 40
9.2904428356000004
  9
$USRTIMER
 70
     1
  9
$ANGBASE
 50
0.0
  9
$ANGDIR
 70
     0
  9
$PDMODE
 70
     0
  9
$PDSIZE
 40
0.0
  9
$PLINEWID
 40
0.0
  9
$COORDS
 70
     1
  9
$SPLFRAME
 70
     0
  9
$SPLINETYPE
 70
     6
  9
$SPLINESEGS
 70
     8
  9
$ATTDIA
 70
     1
  9
$ATTREQ
 70
     1
  9
$HANDLING
 70
     1
  9
$HANDSEED
  5
147B3
  9
$SURFTAB1
 70
     6
  9
$SURFTAB2
 70
     6
  9
$SURFTYPE
 70
     6
  9
$SURFU
 70
     6
  9
$SURFV
 70
     6
  9
$UCSNAME
  2

  9
$UCSORG
 10
0.0
 20
0.0
 30
0.0
  9
$UCSXDIR
 10
1.0
 20
0.0
 30
0.0
  9
$UCSYDIR
 10
0.0
 20
1.0
 30
0.0
  9
$PUCSNAME
  2

  9
$PUCSORG
 10
0.0
 20
0.0
 30
0.0
  9
$PUCSXDIR
 10
1.0
 20
0.0
 30
0.0
  9
$PUCSYDIR
 10
0.0
 20
1.0
 30
0.0
  9
$USERI1
 70
     0
  9
$USERI2
 70
     0
  9
$USERI3
 70
     0
  9
$USERI4
 70
     0
  9
$USERI5
 70
     0
  9
$USERR1
 40
0.0
  9
$USERR2
 40
0.0
  9
$USERR3
 40
0.0
  9
$USERR4
 40
0.0
  9
$USERR5
 40
0.0
  9
$WORLDVIEW
 70
     1
  9
$SHADEDGE
 70
     3
  9
$SHADEDIF
 70
    70
  9
$TILEMODE
 70
     1
  9
$MAXACTVP
 70
    64
  9
$PLIMCHECK
 70
     0
  9
$PEXTMIN
 10
0.0
 20
0.0
 30
0.0
  9
$PEXTMAX
 10
0.0
 20
0.0
 30
0.0
  9
$PLIMMIN
 10
0.0
 20
0.0
  9
$PLIMMAX
 10
12.0
 20
9.0
  9
$UNITMODE
 70
     0
  9
$VISRETAIN
 70
     1
  9
$PLINEGEN
 70
     0
  9
$PSLTSCALE
 70
     1
  0
ENDSEC
  0
SECTION
  2
TABLES
  0
TABLE
  2
VPORT
 70
     1
  0
VPORT
  2
*ACTIVE
 70
     0
 10
0.0
 20
0.0
 11
1.0
 21
1.0
 12
127.6469928164354997
 22
-140.8325270187810929
 13
0.0
 23
0.0
 14
10.0
 24
10.0
 15
10.0
 25
10.0
 16
0.0
 26
0.0
 36
1.0
 17
0.0
 27
0.0
 37
0.0
 40
920.3979868616452222
 41
2.198717948717948
 42
50.0
 43
0.0
 44
0.0
 50
0.0
 51
0.0
 71
     0
 72
  1000
 73
     1
 74
     3
 75
     0
 76
     0
 77
     0
 78
     0
  0
ENDTAB
  0
TABLE
  2
LTYPE
 70
     2
  0
LTYPE
  2
CONTINUOUS
 70
     0
  3
Solid line
 72
    65
 73
     0
 40
0.0
  0
LTYPE
  2
CENTER
 70
     0
  3
Center ____ _ ____ _ ____ _ ____ _ ____ _ ____
 72
    65
 73
     4
 40
50.7999999999999972
 49
31.75
 49
-6.3499999999999988
 49
6.3499999999999988
 49
-6.3499999999999988
  0
ENDTAB
  0
TABLE
  2
LAYER
 70
     3
  0
LAYER
  2
0
 70
     0
 62
     7
  6
CONTINUOUS
  0
LAYER
  2
画層1
 70
     0
 62
     2
  6
CONTINUOUS
  0
LAYER
  2
DEFPOINTS
 70
     0
 62
     7
  6
CONTINUOUS
  0
ENDTAB
  0
TABLE
  2
STYLE
 70
     2
  0
STYLE
  2
STANDARD
 70
     0
 40
0.0
 41
1.0
 50
0.0
 71
     0
 42
2.5
  3
txt.shx
  4

  0
STYLE
  2
1-1
 70
     0
 40
3.2000000000000002
 41
0.85
 50
0.0
 71
     0
 42
600.0
  3
romans.shx
  4
BIGFONT.shx
  0
ENDTAB
  0
TABLE
  2
VIEW
 70
     0
  0
ENDTAB
  0
TABLE
  2
UCS
 70
     0
  0
ENDTAB
  0
TABLE
  2
APPID
 70
    42
  0
APPID
  2
ACAD
 70
     0
  0
APPID
  2
ACAD_PSEXT
 70
     0
  0
APPID
  2
ACAD_EXEMPT_FROM_CAD_STANDARDS
 70
     0
  0
APPID
  2
ACAECLAYERSTANDARD
 70
     0
  0
APPID
  2
ACAD_DSTYLE_DIMTEXT_FILL
 70
     0
  0
APPID
  2
ACAD_DSTYLE_DIMEXT_LENGTH
 70
     0
  0
APPID
  2
ACAD_DSTYLE_DIMEXT_ENABLED
 70
     0
  0
APPID
  2
ACAD_DSTYLE_DIM_LINETYPE
 70
     0
  0
APPID
  2
ACAD_DSTYLE_DIM_EXT1_LINETYPE
 70
     0
  0
APPID
  2
ACAD_DSTYLE_DIM_EXT2_LINETYPE
 70
     0
  0
APPID
  2
ACAD_DSTYLE_DIMJOGGED_JOGA
 70
     0
  0
APPID
  2
ACAD_DSTYLE_DIMARC_LENGTH_
 70
     0
  0
APPID
  2
MCAD_NO_VIS
 70
     0
  0
APPID
  2
ACAD_TEMP_GRAPHIC
 70
     0
  0
APPID
  2
AD_DRAW
 70
     0
  0
APPID
  2
ACATTRIBSERVICES
 70
     0
  0
APPID
  2
DESIGNERASSEMBLIES
 70
     0
  0
APPID
  2
ACADM_DIM_EDIT
 70
     0
  0
APPID
  2
AMDT_DM_ADJ
 70
     0
  0
APPID
  2
ACAD_DSTYLE_DIMJAG
 70
     0
  0
APPID
  2
ACAD_DSTYLE_DIMBREAK
 70
     0
  0
APPID
  2
ACAD_DSTYLE_DIMINSPECT
 70
     0
  0
APPID
  2
ACDBDYNAMICBLOCKGUID
 70
     0
  0
APPID
  2
GENIUS_GENDIMSH_14
 70
     0
  0
APPID
  2
GENIUS_GENODEF_13
 70
     0
  0
APPID
  2
GENIUS_GENOBJ-N-FIL_13
 70
     0
  0
APPID
  2
GENIUS_GENOBJ-N-CEN_13
 70
     0
  0
APPID
  2
GENIUS_GENCEN_19
 70
     0
  0
APPID
  2
ACAUTHENVIRON
 70
     0
  0
APPID
  2
ACADANNOPO
 70
     0
  0
APPID
  2
GENIUS_GENOBJ-N-HTC_13
 70
     0
  0
APPID
  2
GENIUS_GENHATCH_13
 70
     0
  0
APPID
  2
GENIUS_GENDTOL_13
 70
     0
  0
APPID
  2
ACAD_DSTYLE_DIMRADIAL_EXTENSION
 70
     0
  0
APPID
  2
ACAD_DSTYLE_DIMANGULAR_EXT
 70
     0
  0
APPID
  2
GENIUS_AMGTXT_16
 70
     0
  0
APPID
  2
GRADIENTCOLOR1ACI
 70
     0
  0
APPID
  2
GRADIENTCOLOR2ACI
 70
     0
  0
APPID
  2
ACAD_DSTYLE_DIMTALN
 70
     0
  0
APPID
  2
ACAD_NAV_VCDISPLAY
 70
     0
  0
APPID
  2
ACCMTRANSPARENCY
 70
     0
  0
APPID
  2
ACAD_MLEADERVER
 70
     0
  0
ENDTAB
  0
TABLE
  2
DIMSTYLE
 70
     1
  0
DIMSTYLE
  2
STANDARD
 70
     0
  3

  4

  5

  6

  7

 40
1.0
 41
0.18
 42
0.0625
 43
0.38
 44
0.18
 45
0.0
 46
0.0
 47
0.0
 48
0.0
140
0.18
141
0.09
142
0.0
143
25.3999999999999986
144
1.0
145
0.0
146
1.0
147
0.09
 71
     0
 72
     0
 73
     1
 74
     1
 75
     0
 76
     0
 77
     0
 78
     0
170
     0
171
     2
172
     0
173
     0
174
     0
175
     0
176
     0
177
     0
178
     0
  0
ENDTAB
  0
ENDSEC
  0
SECTION
  2
BLOCKS
  0
BLOCK
  8
0
  2
$MODEL_SPACE
 70
     0
 10
0.0
 20
0.0
 30
0.0
  3
$MODEL_SPACE
  1

  0
ENDBLK
  5
21
  8
0
  0
BLOCK
 67
     1
  8
0
  2
$PAPER_SPACE
 70
     0
 10
0.0
 20
0.0
 30
0.0
  3
$PAPER_SPACE
  1

  0
ENDBLK
  5
D5
 67
     1
  8
0
  0
BLOCK
  8
0
  2
_OPEN
 70
     0
 10
0.0
 20
0.0
 30
0.0
  3
_OPEN
  1

  0
LINE
  5
14214
  8
0
  6
BYBLOCK
 62
     0
 10
-1.0
 20
0.1666666666666666
 30
0.0
 11
0.0
 21
0.0
 31
0.0
  0
LINE
  5
14215
  8
0
  6
BYBLOCK
 62
     0
 10
0.0
 20
0.0
 30
0.0
 11
-1.0
 21
-0.1666666666666666
 31
0.0
  0
LINE
  5
14216
  8
0
  6
BYBLOCK
 62
     0
 10
0.0
 20
0.0
 30
0.0
 11
-1.0
 21
0.0
 31
0.0
  0
ENDBLK
  5
14217
  8
0
  0
ENDSEC
  0
SECTION
  2
ENTITIES
  0
TEXT
  5
13F9D
  8
0
  6
CONTINUOUS
 10
-354.1666666666665719
 20
175.0
 30
0.0
 40
50.0
  1
DMC2T17RD0PY 2S
 72
     4
 11
0.0
 21
200.0
 31
0.0
  0
LINE
  5
1431C
  8
0
  6
CENTER
 10
0.0000000000159162
 20
-635.1566042151849842
 30
0.0
 11
0.0000000000159162
 21
-356.8566042151721263
 31
0.0
  0
LINE
  5
1431D
  8
0
  6
CENTER
 10
-197.7615555392289082
 20
-496.0066042151784131
 30
0.0
 11
197.7615555392605984
 21
-496.0066042151784131
 31
0.0
  0
LINE
  5
1431E
  8
0
 10
-144.2844273454265078
 20
-470.6066042151784927
 30
0.0
 11
-95.1687637910918056
 21
-470.6066042151784927
 31
0.0
  0
LINE
  5
1431F
  8
0
 10
-144.2844273454265078
 20
-521.4066042151785041
 30
0.0
 11
-95.1687637910919051
 21
-521.4066042151785041
 31
0.0
  0
LINE
  5
14320
  8
0
 10
144.284427345438786
 20
-521.4066042151785041
 30
0.0
 11
95.1687637911237516
 21
-521.4066042151785041
 31
0.0
  0
LINE
  5
14321
  8
0
 10
144.2844273454387007
 20
-470.6066042151784927
 30
0.0
 11
95.1687637911236379
 21
-470.6066042151784927
 31
0.0
  0
CIRCLE
  5
14322
  8
0
 10
0.0000000000159162
 20
-496.0066042151784131
 30
0.0
 40
13.5
  0
CIRCLE
  5
14323
  8
0
 10
0.0000000000159162
 20
-496.0066042151784131
 30
0.0
 40
9.9999990000000007
  0
LINE
  5
14324
  8
0
 10
103.5837450002480011
 20
-501.0066442151792216
 30
0.0
 11
103.5837450002480011
 21
-491.0067142151792723
 31
0.0
  0
LINE
  5
14325
  8
0
 10
116.0836950002478005
 20
-501.0066442151793922
 30
0.0
 11
116.0836950002478005
 21
-491.006714215179386
 31
0.0
  0
LINE
  5
14326
  8
0
 10
116.0836950002478005
 20
-491.006714215179386
 30
0.0
 11
103.5837450002480011
 21
-491.0067142151792723
 31
0.0
  0
LINE
  5
14327
  8
0
 10
116.0836950002478005
 20
-501.0066442151793922
 30
0.0
 11
103.5837450002480011
 21
-501.0066442151792216
 31
0.0
  0
LINE
  5
14328
  8
0
 10
101.5850550002481043
 20
-491.2566442151792216
 30
0.0
 11
98.3901968357370151
 21
-491.3565753813185779
 31
0.0
  0
LINE
  5
14329
  8
0
 10
100.5198150002482009
 20
-500.7233842151795216
 30
0.0
 11
100.5198150002482009
 21
-491.2899742151794271
 31
0.0
  0
LINE
  5
1432A
  8
0
 10
101.5837050002480026
 20
-500.7566242151792153
 30
0.0
 11
98.3901866303674666
 21
-500.6568160176660172
 31
0.0
  0
LINE
  5
1432B
  8
0
 10
103.5837450002480011
 20
-491.2566442151792216
 30
0.0
 11
101.5837050002480026
 21
-491.2566442151792216
 31
0.0
  0
LINE
  5
1432C
  8
0
 10
103.5837450002480011
 20
-500.7567142151792154
 30
0.0
 11
101.5837050002480026
 21
-500.7567142151792154
 31
0.0
  0
CIRCLE
  5
1432D
  8
0
 10
0.0000000000159162
 20
-496.0066042151784131
 30
0.0
 40
25.0000199999999495
  0
POLYLINE
  5
1432E
  8
画層1
 62
     7
 10
-159.9999999999992895
 20
-464.0066042151783563
 30
0.0
 66
     1
 70
     8
  0
VERTEX
  8
画層1
  5
144A7
 10
-160.000
 20
-464.007
 30
0.00000
  70
    32
  0
VERTEX
  8
画層1
  5
144A8
 10
-161.110
 20
-464.045
 30
0.00000
  70
    32
  0
VERTEX
  8
画層1
  5
144A9
 10
-162.218
 20
-464.161
 30
0.00000
  70
    32
  0
VERTEX
  8
画層1
  5
144AA
 10
-163.320
 20
-464.353
 30
0.00000
  70
    32
  0
VERTEX
  8
画層1
  5
144AB
 10
-164.414
 20
-464.621
 30
0.00000
  70
    32
  0
VERTEX
  8
画層1
  5
144AC
 10
-165.498
 20
-464.966
 30
0.00000
  70
    32
  0
VERTEX
  8
画層1
  5
144AD
 10
-166.568
 20
-465.385
 30
0.00000
  70
    32
  0
VERTEX
  8
画層1
  5
144AE
 10
-167.623
 20
-465.877
 30
0.00000
  70
    32
  0
VERTEX
  8
画層1
  5
144AF
 10
-168.659
 20
-466.442
 30
0.00000
  70
    32
  0
VERTEX
  8
画層1
  5
144B0
 10
-169.674
 20
-467.079
 30
0.00000
  70
    32
  0
VERTEX
  8
画層1
  5
144B1
 10
-170.666
 20
-467.785
 30
0.00000
  70
    32
  0
VERTEX
  8
画層1
  5
144B2
 10
-171.633
 20
-468.559
 30
0.00000
  70
    32
  0
VERTEX
  8
画層1
  5
144B3
 10
-172.571
 20
-469.400
 30
0.00000
  70
    32
  0
VERTEX
  8
画層1
  5
144B4
 10
-173.479
 20
-470.304
 30
0.00000
  70
    32
  0
VERTEX
  8
画層1
  5
144B5
 10
-174.355
 20
-471.270
 30
0.00000
  70
    32
  0
VERTEX
  8
画層1
  5
144B6
 10
-175.196
 20
-472.296
 30
0.00000
  70
    32
  0
VERTEX
  8
画層1
  5
144B7
 10
-176.000
 20
-473.379
 30
0.00000
  70
    32
  0
VERTEX
  8
画層1
  5
144B8
 10
-176.766
 20
-474.517
 30
0.00000
  70
    32
  0
VERTEX
  8
画層1
  5
144B9
 10
-177.491
 20
-475.706
 30
0.00000
  70
    32
  0
VERTEX
  8
画層1
  5
144BA
 10
-178.175
 20
-476.944
 30
0.00000
  70
    32
  0
VERTEX
  8
画層1
  5
144BB
 10
-178.814
 20
-478.228
 30
0.00000
  70
    32
  0
VERTEX
  8
画層1
  5
144BC
 10
-179.408
 20
-479.555
 30
0.00000
  70
    32
  0
VERTEX
  8
画層1
  5
144BD
 10
-179.956
 20
-480.922
 30
0.00000
  70
    32
  0
VERTEX
  8
画層1
  5
144BE
 10
-180.455
 20
-482.325
 30
0.00000
  70
    32
  0
VERTEX
  8
画層1
  5
144BF
 10
-180.905
 20
-483.761
 30
0.00000
  70
    32
  0
VERTEX
  8
画層1
  5
144C0
 10
-181.305
 20
-485.226
 30
0.00000
  70
    32
  0
VERTEX
  8
画層1
  5
144C1
 10
-181.653
 20
-486.717
 30
0.00000
  70
    32
  0
VERTEX
  8
画層1
  5
144C2
 10
-181.949
 20
-488.231
 30
0.00000
  70
    32
  0
VERTEX
  8
画層1
  5
144C3
 10
-182.193
 20
-489.764
 30
0.00000
  70
    32
  0
VERTEX
  8
画層1
  5
144C4
 10
-182.383
 20
-491.311
 30
0.00000
  70
    32
  0
VERTEX
  8
画層1
  5
144C5
 10
-182.518
 20
-492.870
 30
0.00000
  70
    32
  0
VERTEX
  8
画層1
  5
144C6
 10
-182.600
 20
-494.436
 30
0.00000
  70
    32
  0
VERTEX
  8
画層1
  5
144C7
 10
-182.627
 20
-496.007
 30
0.00000
  70
    32
  0
VERTEX
  8
画層1
  5
144C8
 10
-182.600
 20
-497.577
 30
0.00000
  70
    32
  0
VERTEX
  8
画層1
  5
144C9
 10
-182.518
 20
-499.143
 30
0.00000
  70
    32
  0
VERTEX
  8
画層1
  5
144CA
 10
-182.383
 20
-500.702
 30
0.00000
  70
    32
  0
VERTEX
  8
画層1
  5
144CB
 10
-182.193
 20
-502.249
 30
0.00000
  70
    32
  0
VERTEX
  8
画層1
  5
144CC
 10
-181.949
 20
-503.782
 30
0.00000
  70
    32
  0
VERTEX
  8
画層1
  5
144CD
 10
-181.653
 20
-505.296
 30
0.00000
  70
    32
  0
VERTEX
  8
画層1
  5
144CE
 10
-181.305
 20
-506.787
 30
0.00000
  70
    32
  0
VERTEX
  8
画層1
  5
144CF
 10
-180.905
 20
-508.252
 30
0.00000
  70
    32
  0
VERTEX
  8
画層1
  5
144D0
 10
-180.455
 20
-509.688
 30
0.00000
  70
    32
  0
VERTEX
  8
画層1
  5
144D1
 10
-179.956
 20
-511.091
 30
0.00000
  70
    32
  0
VERTEX
  8
画層1
  5
144D2
 10
-179.408
 20
-512.458
 30
0.00000
  70
    32
  0
VERTEX
  8
画層1
  5
144D3
 10
-178.814
 20
-513.785
 30
0.00000
  70
    32
  0
VERTEX
  8
画層1
  5
144D4
 10
-178.175
 20
-515.069
 30
0.00000
  70
    32
  0
VERTEX
  8
画層1
  5
144D5
 10
-177.491
 20
-516.307
 30
0.00000
  70
    32
  0
VERTEX
  8
画層1
  5
144D6
 10
-176.766
 20
-517.496
 30
0.00000
  70
    32
  0
VERTEX
  8
画層1
  5
144D7
 10
-176.000
 20
-518.634
 30
0.00000
  70
    32
  0
VERTEX
  8
画層1
  5
144D8
 10
-175.196
 20
-519.717
 30
0.00000
  70
    32
  0
VERTEX
  8
画層1
  5
144D9
 10
-174.355
 20
-520.743
 30
0.00000
  70
    32
  0
VERTEX
  8
画層1
  5
144DA
 10
-173.479
 20
-521.709
 30
0.00000
  70
    32
  0
VERTEX
  8
画層1
  5
144DB
 10
-172.571
 20
-522.614
 30
0.00000
  70
    32
  0
VERTEX
  8
画層1
  5
144DC
 10
-171.633
 20
-523.454
 30
0.00000
  70
    32
  0
VERTEX
  8
画層1
  5
144DD
 10
-170.666
 20
-524.228
 30
0.00000
  70
    32
  0
VERTEX
  8
画層1
  5
144DE
 10
-169.674
 20
-524.934
 30
0.00000
  70
    32
  0
VERTEX
  8
画層1
  5
144DF
 10
-168.659
 20
-525.571
 30
0.00000
  70
    32
  0
VERTEX
  8
画層1
  5
144E0
 10
-167.623
 20
-526.136
 30
0.00000
  70
    32
  0
VERTEX
  8
画層1
  5
144E1
 10
-166.568
 20
-526.629
 30
0.00000
  70
    32
  0
VERTEX
  8
画層1
  5
144E2
 10
-165.498
 20
-527.048
 30
0.00000
  70
    32
  0
VERTEX
  8
画層1
  5
144E3
 10
-164.414
 20
-527.392
 30
0.00000
  70
    32
  0
VERTEX
  8
画層1
  5
144E4
 10
-163.320
 20
-527.660
 30
0.00000
  70
    32
  0
VERTEX
  8
画層1
  5
144E5
 10
-162.218
 20
-527.853
 30
0.00000
  70
    32
  0
VERTEX
  8
画層1
  5
144E6
 10
-161.110
 20
-527.968
 30
0.00000
  70
    32
  0
VERTEX
  8
画層1
  5
144E7
 10
-160.000
 20
-528.007
 30
0.00000
  70
    32
  0
VERTEX
  8
画層1
  5
144E8
 10
-158.890
 20
-527.968
 30
0.00000
  70
    32
  0
VERTEX
  8
画層1
  5
144E9
 10
-157.782
 20
-527.853
 30
0.00000
  70
    32
  0
VERTEX
  8
画層1
  5
144EA
 10
-156.680
 20
-527.660
 30
0.00000
  70
    32
  0
VERTEX
  8
画層1
  5
144EB
 10
-155.586
 20
-527.392
 30
0.00000
  70
    32
  0
VERTEX
  8
画層1
  5
144EC
 10
-154.502
 20
-527.048
 30
0.00000
  70
    32
  0
VERTEX
  8
画層1
  5
144ED
 10
-153.432
 20
-526.629
 30
0.00000
  70
    32
  0
VERTEX
  8
画層1
  5
144EE
 10
-152.377
 20
-526.136
 30
0.00000
  70
    32
  0
VERTEX
  8
画層1
  5
144EF
 10
-151.341
 20
-525.571
 30
0.00000
  70
    32
  0
VERTEX
  8
画層1
  5
144F0
 10
-150.326
 20
-524.934
 30
0.00000
  70
    32
  0
VERTEX
  8
画層1
  5
144F1
 10
-149.334
 20
-524.228
 30
0.00000
  70
    32
  0
VERTEX
  8
画層1
  5
144F2
 10
-148.367
 20
-523.454
 30
0.00000
  70
    32
  0
VERTEX
  8
画層1
  5
144F3
 10
-147.429
 20
-522.614
 30
0.00000
  70
    32
  0
VERTEX
  8
画層1
  5
144F4
 10
-146.521
 20
-521.709
 30
0.00000
  70
    32
  0
VERTEX
  8
画層1
  5
144F5
 10
-145.645
 20
-520.743
 30
0.00000
  70
    32
  0
VERTEX
  8
画層1
  5
144F6
 10
-144.804
 20
-519.717
 30
0.00000
  70
    32
  0
VERTEX
  8
画層1
  5
144F7
 10
-144.000
 20
-518.634
 30
0.00000
  70
    32
  0
VERTEX
  8
画層1
  5
144F8
 10
-143.234
 20
-517.496
 30
0.00000
  70
    32
  0
VERTEX
  8
画層1
  5
144F9
 10
-142.509
 20
-516.307
 30
0.00000
  70
    32
  0
VERTEX
  8
画層1
  5
144FA
 10
-141.825
 20
-515.069
 30
0.00000
  70
    32
  0
VERTEX
  8
画層1
  5
144FB
 10
-141.186
 20
-513.785
 30
0.00000
  70
    32
  0
VERTEX
  8
画層1
  5
144FC
 10
-140.592
 20
-512.458
 30
0.00000
  70
    32
  0
VERTEX
  8
画層1
  5
144FD
 10
-140.044
 20
-511.091
 30
0.00000
  70
    32
  0
VERTEX
  8
画層1
  5
144FE
 10
-139.545
 20
-509.688
 30
0.00000
  70
    32
  0
VERTEX
  8
画層1
  5
144FF
 10
-139.095
 20
-508.252
 30
0.00000
  70
    32
  0
VERTEX
  8
画層1
  5
14500
 10
-138.695
 20
-506.787
 30
0.00000
  70
    32
  0
VERTEX
  8
画層1
  5
14501
 10
-138.347
 20
-505.296
 30
0.00000
  70
    32
  0
VERTEX
  8
画層1
  5
14502
 10
-138.051
 20
-503.782
 30
0.00000
  70
    32
  0
VERTEX
  8
画層1
  5
14503
 10
-137.807
 20
-502.249
 30
0.00000
  70
    32
  0
VERTEX
  8
画層1
  5
14504
 10
-137.617
 20
-500.702
 30
0.00000
  70
    32
  0
VERTEX
  8
画層1
  5
14505
 10
-137.482
 20
-499.143
 30
0.00000
  70
    32
  0
VERTEX
  8
画層1
  5
14506
 10
-137.400
 20
-497.577
 30
0.00000
  70
    32
  0
VERTEX
  8
画層1
  5
14507
 10
-137.373
 20
-496.007
 30
0.00000
  70
    32
  0
VERTEX
  8
画層1
  5
14508
 10
-137.400
 20
-494.436
 30
0.00000
  70
    32
  0
VERTEX
  8
画層1
  5
14509
 10
-137.482
 20
-492.870
 30
0.00000
  70
    32
  0
VERTEX
  8
画層1
  5
1450A
 10
-137.617
 20
-491.311
 30
0.00000
  70
    32
  0
VERTEX
  8
画層1
  5
1450B
 10
-137.807
 20
-489.764
 30
0.00000
  70
    32
  0
VERTEX
  8
画層1
  5
1450C
 10
-138.051
 20
-488.231
 30
0.00000
  70
    32
  0
VERTEX
  8
画層1
  5
1450D
 10
-138.347
 20
-486.717
 30
0.00000
  70
    32
  0
VERTEX
  8
画層1
  5
1450E
 10
-138.695
 20
-485.226
 30
0.00000
  70
    32
  0
VERTEX
  8
画層1
  5
1450F
 10
-139.095
 20
-483.761
 30
0.00000
  70
    32
  0
VERTEX
  8
画層1
  5
14510
 10
-139.545
 20
-482.325
 30
0.00000
  70
    32
  0
VERTEX
  8
画層1
  5
14511
 10
-140.044
 20
-480.922
 30
0.00000
  70
    32
  0
VERTEX
  8
画層1
  5
14512
 10
-140.592
 20
-479.555
 30
0.00000
  70
    32
  0
VERTEX
  8
画層1
  5
14513
 10
-141.186
 20
-478.228
 30
0.00000
  70
    32
  0
VERTEX
  8
画層1
  5
14514
 10
-141.825
 20
-476.944
 30
0.00000
  70
    32
  0
VERTEX
  8
画層1
  5
14515
 10
-142.509
 20
-475.706
 30
0.00000
  70
    32
  0
VERTEX
  8
画層1
  5
14516
 10
-143.234
 20
-474.517
 30
0.00000
  70
    32
  0
VERTEX
  8
画層1
  5
14517
 10
-144.000
 20
-473.379
 30
0.00000
  70
    32
  0
VERTEX
  8
画層1
  5
14518
 10
-144.804
 20
-472.296
 30
0.00000
  70
    32
  0
VERTEX
  8
画層1
  5
14519
 10
-145.645
 20
-471.270
 30
0.00000
  70
    32
  0
VERTEX
  8
画層1
  5
1451A
 10
-146.521
 20
-470.304
 30
0.00000
  70
    32
  0
VERTEX
  8
画層1
  5
1451B
 10
-147.429
 20
-469.400
 30
0.00000
  70
    32
  0
VERTEX
  8
画層1
  5
1451C
 10
-148.367
 20
-468.559
 30
0.00000
  70
    32
  0
VERTEX
  8
画層1
  5
1451D
 10
-149.334
 20
-467.785
 30
0.00000
  70
    32
  0
VERTEX
  8
画層1
  5
1451E
 10
-150.326
 20
-467.079
 30
0.00000
  70
    32
  0
VERTEX
  8
画層1
  5
1451F
 10
-151.341
 20
-466.442
 30
0.00000
  70
    32
  0
VERTEX
  8
画層1
  5
14520
 10
-152.377
 20
-465.877
 30
0.00000
  70
    32
  0
VERTEX
  8
画層1
  5
14521
 10
-153.432
 20
-465.385
 30
0.00000
  70
    32
  0
VERTEX
  8
画層1
  5
14522
 10
-154.502
 20
-464.966
 30
0.00000
  70
    32
  0
VERTEX
  8
画層1
  5
14523
 10
-155.586
 20
-464.621
 30
0.00000
  70
    32
  0
VERTEX
  8
画層1
  5
14524
 10
-156.680
 20
-464.353
 30
0.00000
  70
    32
  0
VERTEX
  8
画層1
  5
14525
 10
-157.782
 20
-464.161
 30
0.00000
  70
    32
  0
VERTEX
  8
画層1
  5
14526
 10
-158.890
 20
-464.045
 30
0.00000
  70
    32
  0
VERTEX
  8
画層1
  5
14527
 10
-160.000
 20
-464.007
 30
0.00000
  70
    32
  0
SEQEND
  8
画層1
  5
14528
  0
POLYLINE
  5
1432F
  8
画層1
 62
     7
 10
-158.0474212057754073
 20
-528.0066042151784131
 30
0.0
 66
     1
 70
     8
  0
VERTEX
  8
画層1
  5
14529
 10
-158.047
 20
-528.007
 30
0.00000
  70
    32
  0
VERTEX
  8
画層1
  5
1452A
 10
-157.492
 20
-527.997
 30
0.00000
  70
    32
  0
VERTEX
  8
画層1
  5
1452B
 10
-156.937
 20
-527.968
 30
0.00000
  70
    32
  0
VERTEX
  8
画層1
  5
1452C
 10
-156.383
 20
-527.920
 30
0.00000
  70
    32
  0
VERTEX
  8
画層1
  5
1452D
 10
-155.830
 20
-527.853
 30
0.00000
  70
    32
  0
VERTEX
  8
画層1
  5
1452E
 10
-155.278
 20
-527.766
 30
0.00000
  70
    32
  0
VERTEX
  8
画層1
  5
1452F
 10
-154.727
 20
-527.660
 30
0.00000
  70
    32
  0
VERTEX
  8
画層1
  5
14530
 10
-154.179
 20
-527.535
 30
0.00000
  70
    32
  0
VERTEX
  8
画層1
  5
14531
 10
-153.633
 20
-527.392
 30
0.00000
  70
    32
  0
VERTEX
  8
画層1
  5
14532
 10
-153.090
 20
-527.229
 30
0.00000
  70
    32
  0
VERTEX
  8
画層1
  5
14533
 10
-152.549
 20
-527.048
 30
0.00000
  70
    32
  0
VERTEX
  8
画層1
  5
14534
 10
-152.012
 20
-526.847
 30
0.00000
  70
    32
  0
VERTEX
  8
画層1
  5
14535
 10
-151.479
 20
-526.629
 30
0.00000
  70
    32
  0
VERTEX
  8
画層1
  5
14536
 10
-150.950
 20
-526.392
 30
0.00000
  70
    32
  0
VERTEX
  8
画層1
  5
14537
 10
-150.424
 20
-526.136
 30
0.00000
  70
    32
  0
VERTEX
  8
画層1
  5
14538
 10
-149.904
 20
-525.862
 30
0.00000
  70
    32
  0
VERTEX
  8
画層1
  5
14539
 10
-149.388
 20
-525.571
 30
0.00000
  70
    32
  0
VERTEX
  8
画層1
  5
1453A
 10
-148.878
 20
-525.261
 30
0.00000
  70
    32
  0
VERTEX
  8
画層1
  5
1453B
 10
-148.373
 20
-524.934
 30
0.00000
  70
    32
  0
VERTEX
  8
画層1
  5
1453C
 10
-147.874
 20
-524.590
 30
0.00000
  70
    32
  0
VERTEX
  8
画層1
  5
1453D
 10
-147.381
 20
-524.228
 30
0.00000
  70
    32
  0
VERTEX
  8
画層1
  5
1453E
 10
-146.894
 20
-523.849
 30
0.00000
  70
    32
  0
VERTEX
  8
画層1
  5
1453F
 10
-146.415
 20
-523.454
 30
0.00000
  70
    32
  0
VERTEX
  8
画層1
  5
14540
 10
-145.942
 20
-523.042
 30
0.00000
  70
    32
  0
VERTEX
  8
画層1
  5
14541
 10
-145.476
 20
-522.614
 30
0.00000
  70
    32
  0
VERTEX
  8
画層1
  5
14542
 10
-145.018
 20
-522.169
 30
0.00000
  70
    32
  0
VERTEX
  8
画層1
  5
14543
 10
-144.568
 20
-521.709
 30
0.00000
  70
    32
  0
VERTEX
  8
画層1
  5
14544
 10
-144.126
 20
-521.234
 30
0.00000
  70
    32
  0
VERTEX
  8
画層1
  5
14545
 10
-143.693
 20
-520.743
 30
0.00000
  70
    32
  0
VERTEX
  8
画層1
  5
14546
 10
-143.268
 20
-520.237
 30
0.00000
  70
    32
  0
VERTEX
  8
画層1
  5
14547
 10
-142.852
 20
-519.717
 30
0.00000
  70
    32
  0
VERTEX
  8
画層1
  5
14548
 10
-142.445
 20
-519.183
 30
0.00000
  70
    32
  0
VERTEX
  8
画層1
  5
14549
 10
-142.047
 20
-518.634
 30
0.00000
  70
    32
  0
VERTEX
  8
画層1
  5
1454A
 10
-141.660
 20
-518.072
 30
0.00000
  70
    32
  0
VERTEX
  8
画層1
  5
1454B
 10
-141.282
 20
-517.496
 30
0.00000
  70
    32
  0
VERTEX
  8
画層1
  5
1454C
 10
-140.914
 20
-516.908
 30
0.00000
  70
    32
  0
VERTEX
  8
画層1
  5
1454D
 10
-140.556
 20
-516.307
 30
0.00000
  70
    32
  0
VERTEX
  8
画層1
  5
1454E
 10
-140.209
 20
-515.694
 30
0.00000
  70
    32
  0
VERTEX
  8
画層1
  5
1454F
 10
-139.873
 20
-515.069
 30
0.00000
  70
    32
  0
VERTEX
  8
画層1
  5
14550
 10
-139.548
 20
-514.432
 30
0.00000
  70
    32
  0
VERTEX
  8
画層1
  5
14551
 10
-139.233
 20
-513.785
 30
0.00000
  70
    32
  0
VERTEX
  8
画層1
  5
14552
 10
-138.931
 20
-513.127
 30
0.00000
  70
    32
  0
VERTEX
  8
画層1
  5
14553
 10
-138.639
 20
-512.458
 30
0.00000
  70
    32
  0
VERTEX
  8
画層1
  5
14554
 10
-138.360
 20
-511.779
 30
0.00000
  70
    32
  0
VERTEX
  8
画層1
  5
14555
 10
-138.092
 20
-511.091
 30
0.00000
  70
    32
  0
VERTEX
  8
画層1
  5
14556
 10
-137.836
 20
-510.394
 30
0.00000
  70
    32
  0
VERTEX
  8
画層1
  5
14557
 10
-137.592
 20
-509.688
 30
0.00000
  70
    32
  0
VERTEX
  8
画層1
  5
14558
 10
-137.361
 20
-508.974
 30
0.00000
  70
    32
  0
VERTEX
  8
画層1
  5
14559
 10
-137.142
 20
-508.252
 30
0.00000
  70
    32
  0
VERTEX
  8
画層1
  5
1455A
 10
-136.936
 20
-507.523
 30
0.00000
  70
    32
  0
VERTEX
  8
画層1
  5
1455B
 10
-136.743
 20
-506.787
 30
0.00000
  70
    32
  0
VERTEX
  8
画層1
  5
1455C
 10
-136.562
 20
-506.044
 30
0.00000
  70
    32
  0
VERTEX
  8
画層1
  5
1455D
 10
-136.394
 20
-505.296
 30
0.00000
  70
    32
  0
VERTEX
  8
画層1
  5
1455E
 10
-136.240
 20
-504.541
 30
0.00000
  70
    32
  0
VERTEX
  8
画層1
  5
1455F
 10
-136.098
 20
-503.782
 30
0.00000
  70
    32
  0
VERTEX
  8
画層1
  5
14560
 10
-135.970
 20
-503.018
 30
0.00000
  70
    32
  0
VERTEX
  8
画層1
  5
14561
 10
-135.855
 20
-502.249
 30
0.00000
  70
    32
  0
VERTEX
  8
画層1
  5
14562
 10
-135.753
 20
-501.477
 30
0.00000
  70
    32
  0
VERTEX
  8
画層1
  5
14563
 10
-135.665
 20
-500.702
 30
0.00000
  70
    32
  0
VERTEX
  8
画層1
  5
14564
 10
-135.590
 20
-499.924
 30
0.00000
  70
    32
  0
VERTEX
  8
画層1
  5
14565
 10
-135.529
 20
-499.143
 30
0.00000
  70
    32
  0
VERTEX
  8
画層1
  5
14566
 10
-135.481
 20
-498.361
 30
0.00000
  70
    32
  0
VERTEX
  8
画層1
  5
14567
 10
-135.447
 20
-497.577
 30
0.00000
  70
    32
  0
VERTEX
  8
画層1
  5
14568
 10
-135.427
 20
-496.792
 30
0.00000
  70
    32
  0
VERTEX
  8
画層1
  5
14569
 10
-135.420
 20
-496.007
 30
0.00000
  70
    32
  0
VERTEX
  8
画層1
  5
1456A
 10
-135.427
 20
-495.221
 30
0.00000
  70
    32
  0
VERTEX
  8
画層1
  5
1456B
 10
-135.447
 20
-494.436
 30
0.00000
  70
    32
  0
VERTEX
  8
画層1
  5
1456C
 10
-135.481
 20
-493.653
 30
0.00000
  70
    32
  0
VERTEX
  8
画層1
  5
1456D
 10
-135.529
 20
-492.870
 30
0.00000
  70
    32
  0
VERTEX
  8
画層1
  5
1456E
 10
-135.590
 20
-492.089
 30
0.00000
  70
    32
  0
VERTEX
  8
画層1
  5
1456F
 10
-135.665
 20
-491.311
 30
0.00000
  70
    32
  0
VERTEX
  8
画層1
  5
14570
 10
-135.753
 20
-490.536
 30
0.00000
  70
    32
  0
VERTEX
  8
画層1
  5
14571
 10
-135.855
 20
-489.764
 30
0.00000
  70
    32
  0
VERTEX
  8
画層1
  5
14572
 10
-135.970
 20
-488.995
 30
0.00000
  70
    32
  0
VERTEX
  8
画層1
  5
14573
 10
-136.098
 20
-488.231
 30
0.00000
  70
    32
  0
VERTEX
  8
画層1
  5
14574
 10
-136.240
 20
-487.472
 30
0.00000
  70
    32
  0
VERTEX
  8
画層1
  5
14575
 10
-136.394
 20
-486.717
 30
0.00000
  70
    32
  0
VERTEX
  8
画層1
  5
14576
 10
-136.562
 20
-485.969
 30
0.00000
  70
    32
  0
VERTEX
  8
画層1
  5
14577
 10
-136.743
 20
-485.226
 30
0.00000
  70
    32
  0
VERTEX
  8
画層1
  5
14578
 10
-136.936
 20
-484.490
 30
0.00000
  70
    32
  0
VERTEX
  8
画層1
  5
14579
 10
-137.142
 20
-483.761
 30
0.00000
  70
    32
  0
VERTEX
  8
画層1
  5
1457A
 10
-137.361
 20
-483.039
 30
0.00000
  70
    32
  0
VERTEX
  8
画層1
  5
1457B
 10
-137.592
 20
-482.325
 30
0.00000
  70
    32
  0
VERTEX
  8
画層1
  5
1457C
 10
-137.836
 20
-481.619
 30
0.00000
  70
    32
  0
VERTEX
  8
画層1
  5
1457D
 10
-138.092
 20
-480.922
 30
0.00000
  70
    32
  0
VERTEX
  8
画層1
  5
1457E
 10
-138.360
 20
-480.234
 30
0.00000
  70
    32
  0
VERTEX
  8
画層1
  5
1457F
 10
-138.639
 20
-479.555
 30
0.00000
  70
    32
  0
VERTEX
  8
画層1
  5
14580
 10
-138.931
 20
-478.887
 30
0.00000
  70
    32
  0
VERTEX
  8
画層1
  5
14581
 10
-139.233
 20
-478.228
 30
0.00000
  70
    32
  0
VERTEX
  8
画層1
  5
14582
 10
-139.548
 20
-477.581
 30
0.00000
  70
    32
  0
VERTEX
  8
画層1
  5
14583
 10
-139.873
 20
-476.944
 30
0.00000
  70
    32
  0
VERTEX
  8
画層1
  5
14584
 10
-140.209
 20
-476.319
 30
0.00000
  70
    32
  0
VERTEX
  8
画層1
  5
14585
 10
-140.556
 20
-475.706
 30
0.00000
  70
    32
  0
VERTEX
  8
画層1
  5
14586
 10
-140.914
 20
-475.105
 30
0.00000
  70
    32
  0
VERTEX
  8
画層1
  5
14587
 10
-141.282
 20
-474.517
 30
0.00000
  70
    32
  0
VERTEX
  8
画層1
  5
14588
 10
-141.660
 20
-473.941
 30
0.00000
  70
    32
  0
VERTEX
  8
画層1
  5
14589
 10
-142.047
 20
-473.379
 30
0.00000
  70
    32
  0
VERTEX
  8
画層1
  5
1458A
 10
-142.445
 20
-472.831
 30
0.00000
  70
    32
  0
VERTEX
  8
画層1
  5
1458B
 10
-142.852
 20
-472.296
 30
0.00000
  70
    32
  0
VERTEX
  8
画層1
  5
1458C
 10
-143.268
 20
-471.776
 30
0.00000
  70
    32
  0
VERTEX
  8
画層1
  5
1458D
 10
-143.693
 20
-471.270
 30
0.00000
  70
    32
  0
VERTEX
  8
画層1
  5
1458E
 10
-144.126
 20
-470.780
 30
0.00000
  70
    32
  0
VERTEX
  8
画層1
  5
1458F
 10
-144.568
 20
-470.304
 30
0.00000
  70
    32
  0
VERTEX
  8
画層1
  5
14590
 10
-145.018
 20
-469.844
 30
0.00000
  70
    32
  0
VERTEX
  8
画層1
  5
14591
 10
-145.476
 20
-469.400
 30
0.00000
  70
    32
  0
VERTEX
  8
画層1
  5
14592
 10
-145.942
 20
-468.971
 30
0.00000
  70
    32
  0
VERTEX
  8
画層1
  5
14593
 10
-146.415
 20
-468.559
 30
0.00000
  70
    32
  0
VERTEX
  8
画層1
  5
14594
 10
-146.894
 20
-468.164
 30
0.00000
  70
    32
  0
VERTEX
  8
画層1
  5
14595
 10
-147.381
 20
-467.785
 30
0.00000
  70
    32
  0
VERTEX
  8
画層1
  5
14596
 10
-147.874
 20
-467.423
 30
0.00000
  70
    32
  0
VERTEX
  8
画層1
  5
14597
 10
-148.373
 20
-467.079
 30
0.00000
  70
    32
  0
VERTEX
  8
画層1
  5
14598
 10
-148.878
 20
-466.752
 30
0.00000
  70
    32
  0
VERTEX
  8
画層1
  5
14599
 10
-149.388
 20
-466.442
 30
0.00000
  70
    32
  0
VERTEX
  8
画層1
  5
1459A
 10
-149.904
 20
-466.151
 30
0.00000
  70
    32
  0
VERTEX
  8
画層1
  5
1459B
 10
-150.424
 20
-465.877
 30
0.00000
  70
    32
  0
VERTEX
  8
画層1
  5
1459C
 10
-150.950
 20
-465.622
 30
0.00000
  70
    32
  0
VERTEX
  8
画層1
  5
1459D
 10
-151.479
 20
-465.385
 30
0.00000
  70
    32
  0
VERTEX
  8
画層1
  5
1459E
 10
-152.012
 20
-465.166
 30
0.00000
  70
    32
  0
VERTEX
  8
画層1
  5
1459F
 10
-152.549
 20
-464.966
 30
0.00000
  70
    32
  0
VERTEX
  8
画層1
  5
145A0
 10
-153.090
 20
-464.784
 30
0.00000
  70
    32
  0
VERTEX
  8
画層1
  5
145A1
 10
-153.633
 20
-464.621
 30
0.00000
  70
    32
  0
VERTEX
  8
画層1
  5
145A2
 10
-154.179
 20
-464.478
 30
0.00000
  70
    32
  0
VERTEX
  8
画層1
  5
145A3
 10
-154.727
 20
-464.353
 30
0.00000
  70
    32
  0
VERTEX
  8
画層1
  5
145A4
 10
-155.278
 20
-464.247
 30
0.00000
  70
    32
  0
VERTEX
  8
画層1
  5
145A5
 10
-155.830
 20
-464.161
 30
0.00000
  70
    32
  0
VERTEX
  8
画層1
  5
145A6
 10
-156.383
 20
-464.093
 30
0.00000
  70
    32
  0
VERTEX
  8
画層1
  5
145A7
 10
-156.937
 20
-464.045
 30
0.00000
  70
    32
  0
VERTEX
  8
画層1
  5
145A8
 10
-157.492
 20
-464.016
 30
0.00000
  70
    32
  0
VERTEX
  8
画層1
  5
145A9
 10
-158.047
 20
-464.007
 30
0.00000
  70
    32
  0
SEQEND
  8
画層1
  5
145AA
  0
LINE
  5
14330
  8
画層1
 62
     7
 10
-158.0474212057754073
 20
-464.0066042151784131
 30
0.0
 11
-159.9999999999992895
 21
-464.0066042151784131
 31
0.0
  0
LINE
  5
14331
  8
画層1
 62
     7
 10
-158.0474212057754073
 20
-528.0066042151785268
 30
0.0
 11
-159.9999999999992895
 21
-528.0066042151785268
 31
0.0
  0
POLYLINE
  5
14332
  8
画層1
 62
     7
 10
-159.9999999999992895
 20
-472.1066042151784359
 30
0.0
 66
     1
 70
     8
  0
VERTEX
  8
画層1
  5
145AB
 10
-160.000
 20
-472.107
 30
0.00000
  70
    32
  0
VERTEX
  8
画層1
  5
145AC
 10
-160.829
 20
-472.135
 30
0.00000
  70
    32
  0
VERTEX
  8
画層1
  5
145AD
 10
-161.656
 20
-472.222
 30
0.00000
  70
    32
  0
VERTEX
  8
画層1
  5
145AE
 10
-162.480
 20
-472.365
 30
0.00000
  70
    32
  0
VERTEX
  8
画層1
  5
145AF
 10
-163.297
 20
-472.566
 30
0.00000
  70
    32
  0
VERTEX
  8
画層1
  5
145B0
 10
-164.106
 20
-472.823
 30
0.00000
  70
    32
  0
VERTEX
  8
画層1
  5
145B1
 10
-164.906
 20
-473.136
 30
0.00000
  70
    32
  0
VERTEX
  8
画層1
  5
145B2
 10
-165.693
 20
-473.504
 30
0.00000
  70
    32
  0
VERTEX
  8
画層1
  5
145B3
 10
-166.467
 20
-473.926
 30
0.00000
  70
    32
  0
VERTEX
  8
画層1
  5
145B4
 10
-167.226
 20
-474.401
 30
0.00000
  70
    32
  0
VERTEX
  8
画層1
  5
145B5
 10
-167.967
 20
-474.929
 30
0.00000
  70
    32
  0
VERTEX
  8
画層1
  5
145B6
 10
-168.688
 20
-475.507
 30
0.00000
  70
    32
  0
VERTEX
  8
画層1
  5
145B7
 10
-169.389
 20
-476.134
 30
0.00000
  70
    32
  0
VERTEX
  8
画層1
  5
145B8
 10
-170.067
 20
-476.810
 30
0.00000
  70
    32
  0
VERTEX
  8
画層1
  5
145B9
 10
-170.721
 20
-477.532
 30
0.00000
  70
    32
  0
VERTEX
  8
画層1
  5
145BA
 10
-171.349
 20
-478.298
 30
0.00000
  70
    32
  0
VERTEX
  8
画層1
  5
145BB
 10
-171.950
 20
-479.107
 30
0.00000
  70
    32
  0
VERTEX
  8
画層1
  5
145BC
 10
-172.522
 20
-479.956
 30
0.00000
  70
    32
  0
VERTEX
  8
画層1
  5
145BD
 10
-173.064
 20
-480.845
 30
0.00000
  70
    32
  0
VERTEX
  8
画層1
  5
145BE
 10
-173.574
 20
-481.769
 30
0.00000
  70
    32
  0
VERTEX
  8
画層1
  5
145BF
 10
-174.052
 20
-482.728
 30
0.00000
  70
    32
  0
VERTEX
  8
画層1
  5
145C0
 10
-174.495
 20
-483.720
 30
0.00000
  70
    32
  0
VERTEX
  8
画層1
  5
145C1
 10
-174.904
 20
-484.740
 30
0.00000
  70
    32
  0
VERTEX
  8
画層1
  5
145C2
 10
-175.277
 20
-485.788
 30
0.00000
  70
    32
  0
VERTEX
  8
画層1
  5
145C3
 10
-175.613
 20
-486.860
 30
0.00000
  70
    32
  0
VERTEX
  8
画層1
  5
145C4
 10
-175.912
 20
-487.955
 30
0.00000
  70
    32
  0
VERTEX
  8
画層1
  5
145C5
 10
-176.172
 20
-489.069
 30
0.00000
  70
    32
  0
VERTEX
  8
画層1
  5
145C6
 10
-176.393
 20
-490.199
 30
0.00000
  70
    32
  0
VERTEX
  8
画層1
  5
145C7
 10
-176.575
 20
-491.344
 30
0.00000
  70
    32
  0
VERTEX
  8
画層1
  5
145C8
 10
-176.717
 20
-492.500
 30
0.00000
  70
    32
  0
VERTEX
  8
画層1
  5
145C9
 10
-176.818
 20
-493.664
 30
0.00000
  70
    32
  0
VERTEX
  8
画層1
  5
145CA
 10
-176.879
 20
-494.834
 30
0.00000
  70
    32
  0
VERTEX
  8
画層1
  5
145CB
 10
-176.900
 20
-496.007
 30
0.00000
  70
    32
  0
VERTEX
  8
画層1
  5
145CC
 10
-176.879
 20
-497.179
 30
0.00000
  70
    32
  0
VERTEX
  8
画層1
  5
145CD
 10
-176.818
 20
-498.349
 30
0.00000
  70
    32
  0
VERTEX
  8
画層1
  5
145CE
 10
-176.717
 20
-499.513
 30
0.00000
  70
    32
  0
VERTEX
  8
画層1
  5
145CF
 10
-176.575
 20
-500.669
 30
0.00000
  70
    32
  0
VERTEX
  8
画層1
  5
145D0
 10
-176.393
 20
-501.814
 30
0.00000
  70
    32
  0
VERTEX
  8
画層1
  5
145D1
 10
-176.172
 20
-502.944
 30
0.00000
  70
    32
  0
VERTEX
  8
画層1
  5
145D2
 10
-175.912
 20
-504.058
 30
0.00000
  70
    32
  0
VERTEX
  8
画層1
  5
145D3
 10
-175.613
 20
-505.153
 30
0.00000
  70
    32
  0
VERTEX
  8
画層1
  5
145D4
 10
-175.277
 20
-506.225
 30
0.00000
  70
    32
  0
VERTEX
  8
画層1
  5
145D5
 10
-174.904
 20
-507.273
 30
0.00000
  70
    32
  0
VERTEX
  8
画層1
  5
145D6
 10
-174.495
 20
-508.294
 30
0.00000
  70
    32
  0
VERTEX
  8
画層1
  5
145D7
 10
-174.052
 20
-509.285
 30
0.00000
  70
    32
  0
VERTEX
  8
画層1
  5
145D8
 10
-173.574
 20
-510.244
 30
0.00000
  70
    32
  0
VERTEX
  8
画層1
  5
145D9
 10
-173.064
 20
-511.169
 30
0.00000
  70
    32
  0
VERTEX
  8
画層1
  5
145DA
 10
-172.522
 20
-512.057
 30
0.00000
  70
    32
  0
VERTEX
  8
画層1
  5
145DB
 10
-171.950
 20
-512.906
 30
0.00000
  70
    32
  0
VERTEX
  8
画層1
  5
145DC
 10
-171.349
 20
-513.715
 30
0.00000
  70
    32
  0
VERTEX
  8
画層1
  5
145DD
 10
-170.721
 20
-514.482
 30
0.00000
  70
    32
  0
VERTEX
  8
画層1
  5
145DE
 10
-170.067
 20
-515.203
 30
0.00000
  70
    32
  0
VERTEX
  8
画層1
  5
145DF
 10
-169.389
 20
-515.879
 30
0.00000
  70
    32
  0
VERTEX
  8
画層1
  5
145E0
 10
-168.688
 20
-516.506
 30
0.00000
  70
    32
  0
VERTEX
  8
画層1
  5
145E1
 10
-167.967
 20
-517.085
 30
0.00000
  70
    32
  0
VERTEX
  8
画層1
  5
145E2
 10
-167.226
 20
-517.612
 30
0.00000
  70
    32
  0
VERTEX
  8
画層1
  5
145E3
 10
-166.467
 20
-518.087
 30
0.00000
  70
    32
  0
VERTEX
  8
画層1
  5
145E4
 10
-165.693
 20
-518.510
 30
0.00000
  70
    32
  0
VERTEX
  8
画層1
  5
145E5
 10
-164.906
 20
-518.877
 30
0.00000
  70
    32
  0
VERTEX
  8
画層1
  5
145E6
 10
-164.106
 20
-519.190
 30
0.00000
  70
    32
  0
VERTEX
  8
画層1
  5
145E7
 10
-163.297
 20
-519.447
 30
0.00000
  70
    32
  0
VERTEX
  8
画層1
  5
145E8
 10
-162.480
 20
-519.648
 30
0.00000
  70
    32
  0
VERTEX
  8
画層1
  5
145E9
 10
-161.656
 20
-519.792
 30
0.00000
  70
    32
  0
VERTEX
  8
画層1
  5
145EA
 10
-160.829
 20
-519.878
 30
0.00000
  70
    32
  0
VERTEX
  8
画層1
  5
145EB
 10
-160.000
 20
-519.907
 30
0.00000
  70
    32
  0
VERTEX
  8
画層1
  5
145EC
 10
-159.171
 20
-519.878
 30
0.00000
  70
    32
  0
VERTEX
  8
画層1
  5
145ED
 10
-158.344
 20
-519.792
 30
0.00000
  70
    32
  0
VERTEX
  8
画層1
  5
145EE
 10
-157.520
 20
-519.648
 30
0.00000
  70
    32
  0
VERTEX
  8
画層1
  5
145EF
 10
-156.703
 20
-519.447
 30
0.00000
  70
    32
  0
VERTEX
  8
画層1
  5
145F0
 10
-155.894
 20
-519.190
 30
0.00000
  70
    32
  0
VERTEX
  8
画層1
  5
145F1
 10
-155.094
 20
-518.877
 30
0.00000
  70
    32
  0
VERTEX
  8
画層1
  5
145F2
 10
-154.307
 20
-518.510
 30
0.00000
  70
    32
  0
VERTEX
  8
画層1
  5
145F3
 10
-153.533
 20
-518.087
 30
0.00000
  70
    32
  0
VERTEX
  8
画層1
  5
145F4
 10
-152.774
 20
-517.612
 30
0.00000
  70
    32
  0
VERTEX
  8
画層1
  5
145F5
 10
-152.033
 20
-517.085
 30
0.00000
  70
    32
  0
VERTEX
  8
画層1
  5
145F6
 10
-151.312
 20
-516.506
 30
0.00000
  70
    32
  0
VERTEX
  8
画層1
  5
145F7
 10
-150.611
 20
-515.879
 30
0.00000
  70
    32
  0
VERTEX
  8
画層1
  5
145F8
 10
-149.933
 20
-515.203
 30
0.00000
  70
    32
  0
VERTEX
  8
画層1
  5
145F9
 10
-149.279
 20
-514.482
 30
0.00000
  70
    32
  0
VERTEX
  8
画層1
  5
145FA
 10
-148.651
 20
-513.715
 30
0.00000
  70
    32
  0
VERTEX
  8
画層1
  5
145FB
 10
-148.050
 20
-512.906
 30
0.00000
  70
    32
  0
VERTEX
  8
画層1
  5
145FC
 10
-147.478
 20
-512.057
 30
0.00000
  70
    32
  0
VERTEX
  8
画層1
  5
145FD
 10
-146.936
 20
-511.169
 30
0.00000
  70
    32
  0
VERTEX
  8
画層1
  5
145FE
 10
-146.426
 20
-510.244
 30
0.00000
  70
    32
  0
VERTEX
  8
画層1
  5
145FF
 10
-145.948
 20
-509.285
 30
0.00000
  70
    32
  0
VERTEX
  8
画層1
  5
14600
 10
-145.505
 20
-508.294
 30
0.00000
  70
    32
  0
VERTEX
  8
画層1
  5
14601
 10
-145.096
 20
-507.273
 30
0.00000
  70
    32
  0
VERTEX
  8
画層1
  5
14602
 10
-144.723
 20
-506.225
 30
0.00000
  70
    32
  0
VERTEX
  8
画層1
  5
14603
 10
-144.387
 20
-505.153
 30
0.00000
  70
    32
  0
VERTEX
  8
画層1
  5
14604
 10
-144.088
 20
-504.058
 30
0.00000
  70
    32
  0
VERTEX
  8
画層1
  5
14605
 10
-143.828
 20
-502.944
 30
0.00000
  70
    32
  0
VERTEX
  8
画層1
  5
14606
 10
-143.607
 20
-501.814
 30
0.00000
  70
    32
  0
VERTEX
  8
画層1
  5
14607
 10
-143.425
 20
-500.669
 30
0.00000
  70
    32
  0
VERTEX
  8
画層1
  5
14608
 10
-143.283
 20
-499.513
 30
0.00000
  70
    32
  0
VERTEX
  8
画層1
  5
14609
 10
-143.182
 20
-498.349
 30
0.00000
  70
    32
  0
VERTEX
  8
画層1
  5
1460A
 10
-143.121
 20
-497.179
 30
0.00000
  70
    32
  0
VERTEX
  8
画層1
  5
1460B
 10
-143.100
 20
-496.007
 30
0.00000
  70
    32
  0
VERTEX
  8
画層1
  5
1460C
 10
-143.121
 20
-494.834
 30
0.00000
  70
    32
  0
VERTEX
  8
画層1
  5
1460D
 10
-143.182
 20
-493.664
 30
0.00000
  70
    32
  0
VERTEX
  8
画層1
  5
1460E
 10
-143.283
 20
-492.500
 30
0.00000
  70
    32
  0
VERTEX
  8
画層1
  5
1460F
 10
-143.425
 20
-491.344
 30
0.00000
  70
    32
  0
VERTEX
  8
画層1
  5
14610
 10
-143.607
 20
-490.199
 30
0.00000
  70
    32
  0
VERTEX
  8
画層1
  5
14611
 10
-143.828
 20
-489.069
 30
0.00000
  70
    32
  0
VERTEX
  8
画層1
  5
14612
 10
-144.088
 20
-487.955
 30
0.00000
  70
    32
  0
VERTEX
  8
画層1
  5
14613
 10
-144.387
 20
-486.860
 30
0.00000
  70
    32
  0
VERTEX
  8
画層1
  5
14614
 10
-144.723
 20
-485.788
 30
0.00000
  70
    32
  0
VERTEX
  8
画層1
  5
14615
 10
-145.096
 20
-484.740
 30
0.00000
  70
    32
  0
VERTEX
  8
画層1
  5
14616
 10
-145.505
 20
-483.720
 30
0.00000
  70
    32
  0
VERTEX
  8
画層1
  5
14617
 10
-145.948
 20
-482.728
 30
0.00000
  70
    32
  0
VERTEX
  8
画層1
  5
14618
 10
-146.426
 20
-481.769
 30
0.00000
  70
    32
  0
VERTEX
  8
画層1
  5
14619
 10
-146.936
 20
-480.845
 30
0.00000
  70
    32
  0
VERTEX
  8
画層1
  5
1461A
 10
-147.478
 20
-479.956
 30
0.00000
  70
    32
  0
VERTEX
  8
画層1
  5
1461B
 10
-148.050
 20
-479.107
 30
0.00000
  70
    32
  0
VERTEX
  8
画層1
  5
1461C
 10
-148.651
 20
-478.298
 30
0.00000
  70
    32
  0
VERTEX
  8
画層1
  5
1461D
 10
-149.279
 20
-477.532
 30
0.00000
  70
    32
  0
VERTEX
  8
画層1
  5
1461E
 10
-149.933
 20
-476.810
 30
0.00000
  70
    32
  0
VERTEX
  8
画層1
  5
1461F
 10
-150.611
 20
-476.134
 30
0.00000
  70
    32
  0
VERTEX
  8
画層1
  5
14620
 10
-151.312
 20
-475.507
 30
0.00000
  70
    32
  0
VERTEX
  8
画層1
  5
14621
 10
-152.033
 20
-474.929
 30
0.00000
  70
    32
  0
VERTEX
  8
画層1
  5
14622
 10
-152.774
 20
-474.401
 30
0.00000
  70
    32
  0
VERTEX
  8
画層1
  5
14623
 10
-153.533
 20
-473.926
 30
0.00000
  70
    32
  0
VERTEX
  8
画層1
  5
14624
 10
-154.307
 20
-473.504
 30
0.00000
  70
    32
  0
VERTEX
  8
画層1
  5
14625
 10
-155.094
 20
-473.136
 30
0.00000
  70
    32
  0
VERTEX
  8
画層1
  5
14626
 10
-155.894
 20
-472.823
 30
0.00000
  70
    32
  0
VERTEX
  8
画層1
  5
14627
 10
-156.703
 20
-472.566
 30
0.00000
  70
    32
  0
VERTEX
  8
画層1
  5
14628
 10
-157.520
 20
-472.365
 30
0.00000
  70
    32
  0
VERTEX
  8
画層1
  5
14629
 10
-158.344
 20
-472.222
 30
0.00000
  70
    32
  0
VERTEX
  8
画層1
  5
1462A
 10
-159.171
 20
-472.135
 30
0.00000
  70
    32
  0
VERTEX
  8
画層1
  5
1462B
 10
-160.000
 20
-472.107
 30
0.00000
  70
    32
  0
SEQEND
  8
画層1
  5
1462C
  0
POLYLINE
  5
14333
  8
画層1
 62
     7
 10
160.0000000000115961
 20
-464.0066042151783563
 30
0.0
 66
     1
 70
     8
  0
VERTEX
  8
画層1
  5
1462D
 10
160.000
 20
-464.007
 30
0.00000
  70
    32
  0
VERTEX
  8
画層1
  5
1462E
 10
161.110
 20
-464.045
 30
0.00000
  70
    32
  0
VERTEX
  8
画層1
  5
1462F
 10
162.218
 20
-464.161
 30
0.00000
  70
    32
  0
VERTEX
  8
画層1
  5
14630
 10
163.320
 20
-464.353
 30
0.00000
  70
    32
  0
VERTEX
  8
画層1
  5
14631
 10
164.414
 20
-464.621
 30
0.00000
  70
    32
  0
VERTEX
  8
画層1
  5
14632
 10
165.498
 20
-464.966
 30
0.00000
  70
    32
  0
VERTEX
  8
画層1
  5
14633
 10
166.568
 20
-465.385
 30
0.00000
  70
    32
  0
VERTEX
  8
画層1
  5
14634
 10
167.623
 20
-465.877
 30
0.00000
  70
    32
  0
VERTEX
  8
画層1
  5
14635
 10
168.659
 20
-466.442
 30
0.00000
  70
    32
  0
VERTEX
  8
画層1
  5
14636
 10
169.674
 20
-467.079
 30
0.00000
  70
    32
  0
VERTEX
  8
画層1
  5
14637
 10
170.666
 20
-467.785
 30
0.00000
  70
    32
  0
VERTEX
  8
画層1
  5
14638
 10
171.633
 20
-468.559
 30
0.00000
  70
    32
  0
VERTEX
  8
画層1
  5
14639
 10
172.571
 20
-469.400
 30
0.00000
  70
    32
  0
VERTEX
  8
画層1
  5
1463A
 10
173.479
 20
-470.304
 30
0.00000
  70
    32
  0
VERTEX
  8
画層1
  5
1463B
 10
174.355
 20
-471.270
 30
0.00000
  70
    32
  0
VERTEX
  8
画層1
  5
1463C
 10
175.196
 20
-472.296
 30
0.00000
  70
    32
  0
VERTEX
  8
画層1
  5
1463D
 10
176.000
 20
-473.379
 30
0.00000
  70
    32
  0
VERTEX
  8
画層1
  5
1463E
 10
176.766
 20
-474.517
 30
0.00000
  70
    32
  0
VERTEX
  8
画層1
  5
1463F
 10
177.491
 20
-475.706
 30
0.00000
  70
    32
  0
VERTEX
  8
画層1
  5
14640
 10
178.175
 20
-476.944
 30
0.00000
  70
    32
  0
VERTEX
  8
画層1
  5
14641
 10
178.814
 20
-478.228
 30
0.00000
  70
    32
  0
VERTEX
  8
画層1
  5
14642
 10
179.408
 20
-479.555
 30
0.00000
  70
    32
  0
VERTEX
  8
画層1
  5
14643
 10
179.956
 20
-480.922
 30
0.00000
  70
    32
  0
VERTEX
  8
画層1
  5
14644
 10
180.455
 20
-482.325
 30
0.00000
  70
    32
  0
VERTEX
  8
画層1
  5
14645
 10
180.905
 20
-483.761
 30
0.00000
  70
    32
  0
VERTEX
  8
画層1
  5
14646
 10
181.305
 20
-485.226
 30
0.00000
  70
    32
  0
VERTEX
  8
画層1
  5
14647
 10
181.653
 20
-486.717
 30
0.00000
  70
    32
  0
VERTEX
  8
画層1
  5
14648
 10
181.949
 20
-488.231
 30
0.00000
  70
    32
  0
VERTEX
  8
画層1
  5
14649
 10
182.193
 20
-489.764
 30
0.00000
  70
    32
  0
VERTEX
  8
画層1
  5
1464A
 10
182.383
 20
-491.311
 30
0.00000
  70
    32
  0
VERTEX
  8
画層1
  5
1464B
 10
182.518
 20
-492.870
 30
0.00000
  70
    32
  0
VERTEX
  8
画層1
  5
1464C
 10
182.600
 20
-494.436
 30
0.00000
  70
    32
  0
VERTEX
  8
画層1
  5
1464D
 10
182.627
 20
-496.007
 30
0.00000
  70
    32
  0
VERTEX
  8
画層1
  5
1464E
 10
182.600
 20
-497.577
 30
0.00000
  70
    32
  0
VERTEX
  8
画層1
  5
1464F
 10
182.518
 20
-499.143
 30
0.00000
  70
    32
  0
VERTEX
  8
画層1
  5
14650
 10
182.383
 20
-500.702
 30
0.00000
  70
    32
  0
VERTEX
  8
画層1
  5
14651
 10
182.193
 20
-502.249
 30
0.00000
  70
    32
  0
VERTEX
  8
画層1
  5
14652
 10
181.949
 20
-503.782
 30
0.00000
  70
    32
  0
VERTEX
  8
画層1
  5
14653
 10
181.653
 20
-505.296
 30
0.00000
  70
    32
  0
VERTEX
  8
画層1
  5
14654
 10
181.305
 20
-506.787
 30
0.00000
  70
    32
  0
VERTEX
  8
画層1
  5
14655
 10
180.905
 20
-508.252
 30
0.00000
  70
    32
  0
VERTEX
  8
画層1
  5
14656
 10
180.455
 20
-509.688
 30
0.00000
  70
    32
  0
VERTEX
  8
画層1
  5
14657
 10
179.956
 20
-511.091
 30
0.00000
  70
    32
  0
VERTEX
  8
画層1
  5
14658
 10
179.408
 20
-512.458
 30
0.00000
  70
    32
  0
VERTEX
  8
画層1
  5
14659
 10
178.814
 20
-513.785
 30
0.00000
  70
    32
  0
VERTEX
  8
画層1
  5
1465A
 10
178.175
 20
-515.069
 30
0.00000
  70
    32
  0
VERTEX
  8
画層1
  5
1465B
 10
177.491
 20
-516.307
 30
0.00000
  70
    32
  0
VERTEX
  8
画層1
  5
1465C
 10
176.766
 20
-517.496
 30
0.00000
  70
    32
  0
VERTEX
  8
画層1
  5
1465D
 10
176.000
 20
-518.634
 30
0.00000
  70
    32
  0
VERTEX
  8
画層1
  5
1465E
 10
175.196
 20
-519.717
 30
0.00000
  70
    32
  0
VERTEX
  8
画層1
  5
1465F
 10
174.355
 20
-520.743
 30
0.00000
  70
    32
  0
VERTEX
  8
画層1
  5
14660
 10
173.479
 20
-521.709
 30
0.00000
  70
    32
  0
VERTEX
  8
画層1
  5
14661
 10
172.571
 20
-522.614
 30
0.00000
  70
    32
  0
VERTEX
  8
画層1
  5
14662
 10
171.633
 20
-523.454
 30
0.00000
  70
    32
  0
VERTEX
  8
画層1
  5
14663
 10
170.666
 20
-524.228
 30
0.00000
  70
    32
  0
VERTEX
  8
画層1
  5
14664
 10
169.674
 20
-524.934
 30
0.00000
  70
    32
  0
VERTEX
  8
画層1
  5
14665
 10
168.659
 20
-525.571
 30
0.00000
  70
    32
  0
VERTEX
  8
画層1
  5
14666
 10
167.623
 20
-526.136
 30
0.00000
  70
    32
  0
VERTEX
  8
画層1
  5
14667
 10
166.568
 20
-526.629
 30
0.00000
  70
    32
  0
VERTEX
  8
画層1
  5
14668
 10
165.498
 20
-527.048
 30
0.00000
  70
    32
  0
VERTEX
  8
画層1
  5
14669
 10
164.414
 20
-527.392
 30
0.00000
  70
    32
  0
VERTEX
  8
画層1
  5
1466A
 10
163.320
 20
-527.660
 30
0.00000
  70
    32
  0
VERTEX
  8
画層1
  5
1466B
 10
162.218
 20
-527.853
 30
0.00000
  70
    32
  0
VERTEX
  8
画層1
  5
1466C
 10
161.110
 20
-527.968
 30
0.00000
  70
    32
  0
VERTEX
  8
画層1
  5
1466D
 10
160.000
 20
-528.007
 30
0.00000
  70
    32
  0
VERTEX
  8
画層1
  5
1466E
 10
158.890
 20
-527.968
 30
0.00000
  70
    32
  0
VERTEX
  8
画層1
  5
1466F
 10
157.782
 20
-527.853
 30
0.00000
  70
    32
  0
VERTEX
  8
画層1
  5
14670
 10
156.680
 20
-527.660
 30
0.00000
  70
    32
  0
VERTEX
  8
画層1
  5
14671
 10
155.586
 20
-527.392
 30
0.00000
  70
    32
  0
VERTEX
  8
画層1
  5
14672
 10
154.502
 20
-527.048
 30
0.00000
  70
    32
  0
VERTEX
  8
画層1
  5
14673
 10
153.432
 20
-526.629
 30
0.00000
  70
    32
  0
VERTEX
  8
画層1
  5
14674
 10
152.377
 20
-526.136
 30
0.00000
  70
    32
  0
VERTEX
  8
画層1
  5
14675
 10
151.341
 20
-525.571
 30
0.00000
  70
    32
  0
VERTEX
  8
画層1
  5
14676
 10
150.326
 20
-524.934
 30
0.00000
  70
    32
  0
VERTEX
  8
画層1
  5
14677
 10
149.334
 20
-524.228
 30
0.00000
  70
    32
  0
VERTEX
  8
画層1
  5
14678
 10
148.367
 20
-523.454
 30
0.00000
  70
    32
  0
VERTEX
  8
画層1
  5
14679
 10
147.429
 20
-522.614
 30
0.00000
  70
    32
  0
VERTEX
  8
画層1
  5
1467A
 10
146.521
 20
-521.709
 30
0.00000
  70
    32
  0
VERTEX
  8
画層1
  5
1467B
 10
145.645
 20
-520.743
 30
0.00000
  70
    32
  0
VERTEX
  8
画層1
  5
1467C
 10
144.804
 20
-519.717
 30
0.00000
  70
    32
  0
VERTEX
  8
画層1
  5
1467D
 10
144.000
 20
-518.634
 30
0.00000
  70
    32
  0
VERTEX
  8
画層1
  5
1467E
 10
143.234
 20
-517.496
 30
0.00000
  70
    32
  0
VERTEX
  8
画層1
  5
1467F
 10
142.509
 20
-516.307
 30
0.00000
  70
    32
  0
VERTEX
  8
画層1
  5
14680
 10
141.825
 20
-515.069
 30
0.00000
  70
    32
  0
VERTEX
  8
画層1
  5
14681
 10
141.186
 20
-513.785
 30
0.00000
  70
    32
  0
VERTEX
  8
画層1
  5
14682
 10
140.592
 20
-512.458
 30
0.00000
  70
    32
  0
VERTEX
  8
画層1
  5
14683
 10
140.044
 20
-511.091
 30
0.00000
  70
    32
  0
VERTEX
  8
画層1
  5
14684
 10
139.545
 20
-509.688
 30
0.00000
  70
    32
  0
VERTEX
  8
画層1
  5
14685
 10
139.095
 20
-508.252
 30
0.00000
  70
    32
  0
VERTEX
  8
画層1
  5
14686
 10
138.695
 20
-506.787
 30
0.00000
  70
    32
  0
VERTEX
  8
画層1
  5
14687
 10
138.347
 20
-505.296
 30
0.00000
  70
    32
  0
VERTEX
  8
画層1
  5
14688
 10
138.051
 20
-503.782
 30
0.00000
  70
    32
  0
VERTEX
  8
画層1
  5
14689
 10
137.807
 20
-502.249
 30
0.00000
  70
    32
  0
VERTEX
  8
画層1
  5
1468A
 10
137.617
 20
-500.702
 30
0.00000
  70
    32
  0
VERTEX
  8
画層1
  5
1468B
 10
137.482
 20
-499.143
 30
0.00000
  70
    32
  0
VERTEX
  8
画層1
  5
1468C
 10
137.400
 20
-497.577
 30
0.00000
  70
    32
  0
VERTEX
  8
画層1
  5
1468D
 10
137.373
 20
-496.007
 30
0.00000
  70
    32
  0
VERTEX
  8
画層1
  5
1468E
 10
137.400
 20
-494.436
 30
0.00000
  70
    32
  0
VERTEX
  8
画層1
  5
1468F
 10
137.482
 20
-492.870
 30
0.00000
  70
    32
  0
VERTEX
  8
画層1
  5
14690
 10
137.617
 20
-491.311
 30
0.00000
  70
    32
  0
VERTEX
  8
画層1
  5
14691
 10
137.807
 20
-489.764
 30
0.00000
  70
    32
  0
VERTEX
  8
画層1
  5
14692
 10
138.051
 20
-488.231
 30
0.00000
  70
    32
  0
VERTEX
  8
画層1
  5
14693
 10
138.347
 20
-486.717
 30
0.00000
  70
    32
  0
VERTEX
  8
画層1
  5
14694
 10
138.695
 20
-485.226
 30
0.00000
  70
    32
  0
VERTEX
  8
画層1
  5
14695
 10
139.095
 20
-483.761
 30
0.00000
  70
    32
  0
VERTEX
  8
画層1
  5
14696
 10
139.545
 20
-482.325
 30
0.00000
  70
    32
  0
VERTEX
  8
画層1
  5
14697
 10
140.044
 20
-480.922
 30
0.00000
  70
    32
  0
VERTEX
  8
画層1
  5
14698
 10
140.592
 20
-479.555
 30
0.00000
  70
    32
  0
VERTEX
  8
画層1
  5
14699
 10
141.186
 20
-478.228
 30
0.00000
  70
    32
  0
VERTEX
  8
画層1
  5
1469A
 10
141.825
 20
-476.944
 30
0.00000
  70
    32
  0
VERTEX
  8
画層1
  5
1469B
 10
142.509
 20
-475.706
 30
0.00000
  70
    32
  0
VERTEX
  8
画層1
  5
1469C
 10
143.234
 20
-474.517
 30
0.00000
  70
    32
  0
VERTEX
  8
画層1
  5
1469D
 10
144.000
 20
-473.379
 30
0.00000
  70
    32
  0
VERTEX
  8
画層1
  5
1469E
 10
144.804
 20
-472.296
 30
0.00000
  70
    32
  0
VERTEX
  8
画層1
  5
1469F
 10
145.645
 20
-471.270
 30
0.00000
  70
    32
  0
VERTEX
  8
画層1
  5
146A0
 10
146.521
 20
-470.304
 30
0.00000
  70
    32
  0
VERTEX
  8
画層1
  5
146A1
 10
147.429
 20
-469.400
 30
0.00000
  70
    32
  0
VERTEX
  8
画層1
  5
146A2
 10
148.367
 20
-468.559
 30
0.00000
  70
    32
  0
VERTEX
  8
画層1
  5
146A3
 10
149.334
 20
-467.785
 30
0.00000
  70
    32
  0
VERTEX
  8
画層1
  5
146A4
 10
150.326
 20
-467.079
 30
0.00000
  70
    32
  0
VERTEX
  8
画層1
  5
146A5
 10
151.341
 20
-466.442
 30
0.00000
  70
    32
  0
VERTEX
  8
画層1
  5
146A6
 10
152.377
 20
-465.877
 30
0.00000
  70
    32
  0
VERTEX
  8
画層1
  5
146A7
 10
153.432
 20
-465.385
 30
0.00000
  70
    32
  0
VERTEX
  8
画層1
  5
146A8
 10
154.502
 20
-464.966
 30
0.00000
  70
    32
  0
VERTEX
  8
画層1
  5
146A9
 10
155.586
 20
-464.621
 30
0.00000
  70
    32
  0
VERTEX
  8
画層1
  5
146AA
 10
156.680
 20
-464.353
 30
0.00000
  70
    32
  0
VERTEX
  8
画層1
  5
146AB
 10
157.782
 20
-464.161
 30
0.00000
  70
    32
  0
VERTEX
  8
画層1
  5
146AC
 10
158.890
 20
-464.045
 30
0.00000
  70
    32
  0
VERTEX
  8
画層1
  5
146AD
 10
160.000
 20
-464.007
 30
0.00000
  70
    32
  0
SEQEND
  8
画層1
  5
146AE
  0
POLYLINE
  5
14334
  8
画層1
 62
     7
 10
158.0474212057877139
 20
-528.0066042151784131
 30
0.0
 66
     1
 70
     8
  0
VERTEX
  8
画層1
  5
146AF
 10
158.047
 20
-528.007
 30
0.00000
  70
    32
  0
VERTEX
  8
画層1
  5
146B0
 10
157.492
 20
-527.997
 30
0.00000
  70
    32
  0
VERTEX
  8
画層1
  5
146B1
 10
156.937
 20
-527.968
 30
0.00000
  70
    32
  0
VERTEX
  8
画層1
  5
146B2
 10
156.383
 20
-527.920
 30
0.00000
  70
    32
  0
VERTEX
  8
画層1
  5
146B3
 10
155.830
 20
-527.853
 30
0.00000
  70
    32
  0
VERTEX
  8
画層1
  5
146B4
 10
155.278
 20
-527.766
 30
0.00000
  70
    32
  0
VERTEX
  8
画層1
  5
146B5
 10
154.727
 20
-527.660
 30
0.00000
  70
    32
  0
VERTEX
  8
画層1
  5
146B6
 10
154.179
 20
-527.535
 30
0.00000
  70
    32
  0
VERTEX
  8
画層1
  5
146B7
 10
153.633
 20
-527.392
 30
0.00000
  70
    32
  0
VERTEX
  8
画層1
  5
146B8
 10
153.090
 20
-527.229
 30
0.00000
  70
    32
  0
VERTEX
  8
画層1
  5
146B9
 10
152.549
 20
-527.048
 30
0.00000
  70
    32
  0
VERTEX
  8
画層1
  5
146BA
 10
152.012
 20
-526.847
 30
0.00000
  70
    32
  0
VERTEX
  8
画層1
  5
146BB
 10
151.479
 20
-526.629
 30
0.00000
  70
    32
  0
VERTEX
  8
画層1
  5
146BC
 10
150.950
 20
-526.392
 30
0.00000
  70
    32
  0
VERTEX
  8
画層1
  5
146BD
 10
150.424
 20
-526.136
 30
0.00000
  70
    32
  0
VERTEX
  8
画層1
  5
146BE
 10
149.904
 20
-525.862
 30
0.00000
  70
    32
  0
VERTEX
  8
画層1
  5
146BF
 10
149.388
 20
-525.571
 30
0.00000
  70
    32
  0
VERTEX
  8
画層1
  5
146C0
 10
148.878
 20
-525.261
 30
0.00000
  70
    32
  0
VERTEX
  8
画層1
  5
146C1
 10
148.373
 20
-524.934
 30
0.00000
  70
    32
  0
VERTEX
  8
画層1
  5
146C2
 10
147.874
 20
-524.590
 30
0.00000
  70
    32
  0
VERTEX
  8
画層1
  5
146C3
 10
147.381
 20
-524.228
 30
0.00000
  70
    32
  0
VERTEX
  8
画層1
  5
146C4
 10
146.894
 20
-523.849
 30
0.00000
  70
    32
  0
VERTEX
  8
画層1
  5
146C5
 10
146.415
 20
-523.454
 30
0.00000
  70
    32
  0
VERTEX
  8
画層1
  5
146C6
 10
145.942
 20
-523.042
 30
0.00000
  70
    32
  0
VERTEX
  8
画層1
  5
146C7
 10
145.476
 20
-522.614
 30
0.00000
  70
    32
  0
VERTEX
  8
画層1
  5
146C8
 10
145.018
 20
-522.169
 30
0.00000
  70
    32
  0
VERTEX
  8
画層1
  5
146C9
 10
144.568
 20
-521.709
 30
0.00000
  70
    32
  0
VERTEX
  8
画層1
  5
146CA
 10
144.126
 20
-521.234
 30
0.00000
  70
    32
  0
VERTEX
  8
画層1
  5
146CB
 10
143.693
 20
-520.743
 30
0.00000
  70
    32
  0
VERTEX
  8
画層1
  5
146CC
 10
143.268
 20
-520.237
 30
0.00000
  70
    32
  0
VERTEX
  8
画層1
  5
146CD
 10
142.852
 20
-519.717
 30
0.00000
  70
    32
  0
VERTEX
  8
画層1
  5
146CE
 10
142.445
 20
-519.183
 30
0.00000
  70
    32
  0
VERTEX
  8
画層1
  5
146CF
 10
142.047
 20
-518.634
 30
0.00000
  70
    32
  0
VERTEX
  8
画層1
  5
146D0
 10
141.660
 20
-518.072
 30
0.00000
  70
    32
  0
VERTEX
  8
画層1
  5
146D1
 10
141.282
 20
-517.496
 30
0.00000
  70
    32
  0
VERTEX
  8
画層1
  5
146D2
 10
140.914
 20
-516.908
 30
0.00000
  70
    32
  0
VERTEX
  8
画層1
  5
146D3
 10
140.556
 20
-516.307
 30
0.00000
  70
    32
  0
VERTEX
  8
画層1
  5
146D4
 10
140.209
 20
-515.694
 30
0.00000
  70
    32
  0
VERTEX
  8
画層1
  5
146D5
 10
139.873
 20
-515.069
 30
0.00000
  70
    32
  0
VERTEX
  8
画層1
  5
146D6
 10
139.548
 20
-514.432
 30
0.00000
  70
    32
  0
VERTEX
  8
画層1
  5
146D7
 10
139.233
 20
-513.785
 30
0.00000
  70
    32
  0
VERTEX
  8
画層1
  5
146D8
 10
138.931
 20
-513.127
 30
0.00000
  70
    32
  0
VERTEX
  8
画層1
  5
146D9
 10
138.639
 20
-512.458
 30
0.00000
  70
    32
  0
VERTEX
  8
画層1
  5
146DA
 10
138.360
 20
-511.779
 30
0.00000
  70
    32
  0
VERTEX
  8
画層1
  5
146DB
 10
138.092
 20
-511.091
 30
0.00000
  70
    32
  0
VERTEX
  8
画層1
  5
146DC
 10
137.836
 20
-510.394
 30
0.00000
  70
    32
  0
VERTEX
  8
画層1
  5
146DD
 10
137.592
 20
-509.688
 30
0.00000
  70
    32
  0
VERTEX
  8
画層1
  5
146DE
 10
137.361
 20
-508.974
 30
0.00000
  70
    32
  0
VERTEX
  8
画層1
  5
146DF
 10
137.142
 20
-508.252
 30
0.00000
  70
    32
  0
VERTEX
  8
画層1
  5
146E0
 10
136.936
 20
-507.523
 30
0.00000
  70
    32
  0
VERTEX
  8
画層1
  5
146E1
 10
136.743
 20
-506.787
 30
0.00000
  70
    32
  0
VERTEX
  8
画層1
  5
146E2
 10
136.562
 20
-506.044
 30
0.00000
  70
    32
  0
VERTEX
  8
画層1
  5
146E3
 10
136.394
 20
-505.296
 30
0.00000
  70
    32
  0
VERTEX
  8
画層1
  5
146E4
 10
136.240
 20
-504.541
 30
0.00000
  70
    32
  0
VERTEX
  8
画層1
  5
146E5
 10
136.098
 20
-503.782
 30
0.00000
  70
    32
  0
VERTEX
  8
画層1
  5
146E6
 10
135.970
 20
-503.018
 30
0.00000
  70
    32
  0
VERTEX
  8
画層1
  5
146E7
 10
135.855
 20
-502.249
 30
0.00000
  70
    32
  0
VERTEX
  8
画層1
  5
146E8
 10
135.753
 20
-501.477
 30
0.00000
  70
    32
  0
VERTEX
  8
画層1
  5
146E9
 10
135.665
 20
-500.702
 30
0.00000
  70
    32
  0
VERTEX
  8
画層1
  5
146EA
 10
135.590
 20
-499.924
 30
0.00000
  70
    32
  0
VERTEX
  8
画層1
  5
146EB
 10
135.529
 20
-499.143
 30
0.00000
  70
    32
  0
VERTEX
  8
画層1
  5
146EC
 10
135.481
 20
-498.361
 30
0.00000
  70
    32
  0
VERTEX
  8
画層1
  5
146ED
 10
135.447
 20
-497.577
 30
0.00000
  70
    32
  0
VERTEX
  8
画層1
  5
146EE
 10
135.427
 20
-496.792
 30
0.00000
  70
    32
  0
VERTEX
  8
画層1
  5
146EF
 10
135.420
 20
-496.007
 30
0.00000
  70
    32
  0
VERTEX
  8
画層1
  5
146F0
 10
135.427
 20
-495.221
 30
0.00000
  70
    32
  0
VERTEX
  8
画層1
  5
146F1
 10
135.447
 20
-494.436
 30
0.00000
  70
    32
  0
VERTEX
  8
画層1
  5
146F2
 10
135.481
 20
-493.653
 30
0.00000
  70
    32
  0
VERTEX
  8
画層1
  5
146F3
 10
135.529
 20
-492.870
 30
0.00000
  70
    32
  0
VERTEX
  8
画層1
  5
146F4
 10
135.590
 20
-492.089
 30
0.00000
  70
    32
  0
VERTEX
  8
画層1
  5
146F5
 10
135.665
 20
-491.311
 30
0.00000
  70
    32
  0
VERTEX
  8
画層1
  5
146F6
 10
135.753
 20
-490.536
 30
0.00000
  70
    32
  0
VERTEX
  8
画層1
  5
146F7
 10
135.855
 20
-489.764
 30
0.00000
  70
    32
  0
VERTEX
  8
画層1
  5
146F8
 10
135.970
 20
-488.995
 30
0.00000
  70
    32
  0
VERTEX
  8
画層1
  5
146F9
 10
136.098
 20
-488.231
 30
0.00000
  70
    32
  0
VERTEX
  8
画層1
  5
146FA
 10
136.240
 20
-487.472
 30
0.00000
  70
    32
  0
VERTEX
  8
画層1
  5
146FB
 10
136.394
 20
-486.717
 30
0.00000
  70
    32
  0
VERTEX
  8
画層1
  5
146FC
 10
136.562
 20
-485.969
 30
0.00000
  70
    32
  0
VERTEX
  8
画層1
  5
146FD
 10
136.743
 20
-485.226
 30
0.00000
  70
    32
  0
VERTEX
  8
画層1
  5
146FE
 10
136.936
 20
-484.490
 30
0.00000
  70
    32
  0
VERTEX
  8
画層1
  5
146FF
 10
137.142
 20
-483.761
 30
0.00000
  70
    32
  0
VERTEX
  8
画層1
  5
14700
 10
137.361
 20
-483.039
 30
0.00000
  70
    32
  0
VERTEX
  8
画層1
  5
14701
 10
137.592
 20
-482.325
 30
0.00000
  70
    32
  0
VERTEX
  8
画層1
  5
14702
 10
137.836
 20
-481.619
 30
0.00000
  70
    32
  0
VERTEX
  8
画層1
  5
14703
 10
138.092
 20
-480.922
 30
0.00000
  70
    32
  0
VERTEX
  8
画層1
  5
14704
 10
138.360
 20
-480.234
 30
0.00000
  70
    32
  0
VERTEX
  8
画層1
  5
14705
 10
138.639
 20
-479.555
 30
0.00000
  70
    32
  0
VERTEX
  8
画層1
  5
14706
 10
138.931
 20
-478.887
 30
0.00000
  70
    32
  0
VERTEX
  8
画層1
  5
14707
 10
139.233
 20
-478.228
 30
0.00000
  70
    32
  0
VERTEX
  8
画層1
  5
14708
 10
139.548
 20
-477.581
 30
0.00000
  70
    32
  0
VERTEX
  8
画層1
  5
14709
 10
139.873
 20
-476.944
 30
0.00000
  70
    32
  0
VERTEX
  8
画層1
  5
1470A
 10
140.209
 20
-476.319
 30
0.00000
  70
    32
  0
VERTEX
  8
画層1
  5
1470B
 10
140.556
 20
-475.706
 30
0.00000
  70
    32
  0
VERTEX
  8
画層1
  5
1470C
 10
140.914
 20
-475.105
 30
0.00000
  70
    32
  0
VERTEX
  8
画層1
  5
1470D
 10
141.282
 20
-474.517
 30
0.00000
  70
    32
  0
VERTEX
  8
画層1
  5
1470E
 10
141.660
 20
-473.941
 30
0.00000
  70
    32
  0
VERTEX
  8
画層1
  5
1470F
 10
142.047
 20
-473.379
 30
0.00000
  70
    32
  0
VERTEX
  8
画層1
  5
14710
 10
142.445
 20
-472.831
 30
0.00000
  70
    32
  0
VERTEX
  8
画層1
  5
14711
 10
142.852
 20
-472.296
 30
0.00000
  70
    32
  0
VERTEX
  8
画層1
  5
14712
 10
143.268
 20
-471.776
 30
0.00000
  70
    32
  0
VERTEX
  8
画層1
  5
14713
 10
143.693
 20
-471.270
 30
0.00000
  70
    32
  0
VERTEX
  8
画層1
  5
14714
 10
144.126
 20
-470.780
 30
0.00000
  70
    32
  0
VERTEX
  8
画層1
  5
14715
 10
144.568
 20
-470.304
 30
0.00000
  70
    32
  0
VERTEX
  8
画層1
  5
14716
 10
145.018
 20
-469.844
 30
0.00000
  70
    32
  0
VERTEX
  8
画層1
  5
14717
 10
145.476
 20
-469.400
 30
0.00000
  70
    32
  0
VERTEX
  8
画層1
  5
14718
 10
145.942
 20
-468.971
 30
0.00000
  70
    32
  0
VERTEX
  8
画層1
  5
14719
 10
146.415
 20
-468.559
 30
0.00000
  70
    32
  0
VERTEX
  8
画層1
  5
1471A
 10
146.894
 20
-468.164
 30
0.00000
  70
    32
  0
VERTEX
  8
画層1
  5
1471B
 10
147.381
 20
-467.785
 30
0.00000
  70
    32
  0
VERTEX
  8
画層1
  5
1471C
 10
147.874
 20
-467.423
 30
0.00000
  70
    32
  0
VERTEX
  8
画層1
  5
1471D
 10
148.373
 20
-467.079
 30
0.00000
  70
    32
  0
VERTEX
  8
画層1
  5
1471E
 10
148.878
 20
-466.752
 30
0.00000
  70
    32
  0
VERTEX
  8
画層1
  5
1471F
 10
149.388
 20
-466.442
 30
0.00000
  70
    32
  0
VERTEX
  8
画層1
  5
14720
 10
149.904
 20
-466.151
 30
0.00000
  70
    32
  0
VERTEX
  8
画層1
  5
14721
 10
150.424
 20
-465.877
 30
0.00000
  70
    32
  0
VERTEX
  8
画層1
  5
14722
 10
150.950
 20
-465.622
 30
0.00000
  70
    32
  0
VERTEX
  8
画層1
  5
14723
 10
151.479
 20
-465.385
 30
0.00000
  70
    32
  0
VERTEX
  8
画層1
  5
14724
 10
152.012
 20
-465.166
 30
0.00000
  70
    32
  0
VERTEX
  8
画層1
  5
14725
 10
152.549
 20
-464.966
 30
0.00000
  70
    32
  0
VERTEX
  8
画層1
  5
14726
 10
153.090
 20
-464.784
 30
0.00000
  70
    32
  0
VERTEX
  8
画層1
  5
14727
 10
153.633
 20
-464.621
 30
0.00000
  70
    32
  0
VERTEX
  8
画層1
  5
14728
 10
154.179
 20
-464.478
 30
0.00000
  70
    32
  0
VERTEX
  8
画層1
  5
14729
 10
154.727
 20
-464.353
 30
0.00000
  70
    32
  0
VERTEX
  8
画層1
  5
1472A
 10
155.278
 20
-464.247
 30
0.00000
  70
    32
  0
VERTEX
  8
画層1
  5
1472B
 10
155.830
 20
-464.161
 30
0.00000
  70
    32
  0
VERTEX
  8
画層1
  5
1472C
 10
156.383
 20
-464.093
 30
0.00000
  70
    32
  0
VERTEX
  8
画層1
  5
1472D
 10
156.937
 20
-464.045
 30
0.00000
  70
    32
  0
VERTEX
  8
画層1
  5
1472E
 10
157.492
 20
-464.016
 30
0.00000
  70
    32
  0
VERTEX
  8
画層1
  5
1472F
 10
158.047
 20
-464.007
 30
0.00000
  70
    32
  0
SEQEND
  8
画層1
  5
14730
  0
LINE
  5
14335
  8
画層1
 62
     7
 10
158.0474212057877139
 20
-464.0066042151784131
 30
0.0
 11
160.0000000000115961
 21
-464.0066042151784131
 31
0.0
  0
LINE
  5
14336
  8
画層1
 62
     7
 10
158.0474212057877139
 20
-528.0066042151785268
 30
0.0
 11
160.0000000000115961
 21
-528.0066042151785268
 31
0.0
  0
POLYLINE
  5
14337
  8
画層1
 62
     7
 10
160.0000000000115961
 20
-472.1066042151784359
 30
0.0
 66
     1
 70
     8
  0
VERTEX
  8
画層1
  5
14731
 10
160.000
 20
-472.107
 30
0.00000
  70
    32
  0
VERTEX
  8
画層1
  5
14732
 10
160.829
 20
-472.135
 30
0.00000
  70
    32
  0
VERTEX
  8
画層1
  5
14733
 10
161.656
 20
-472.222
 30
0.00000
  70
    32
  0
VERTEX
  8
画層1
  5
14734
 10
162.480
 20
-472.365
 30
0.00000
  70
    32
  0
VERTEX
  8
画層1
  5
14735
 10
163.297
 20
-472.566
 30
0.00000
  70
    32
  0
VERTEX
  8
画層1
  5
14736
 10
164.106
 20
-472.823
 30
0.00000
  70
    32
  0
VERTEX
  8
画層1
  5
14737
 10
164.906
 20
-473.136
 30
0.00000
  70
    32
  0
VERTEX
  8
画層1
  5
14738
 10
165.693
 20
-473.504
 30
0.00000
  70
    32
  0
VERTEX
  8
画層1
  5
14739
 10
166.467
 20
-473.926
 30
0.00000
  70
    32
  0
VERTEX
  8
画層1
  5
1473A
 10
167.226
 20
-474.401
 30
0.00000
  70
    32
  0
VERTEX
  8
画層1
  5
1473B
 10
167.967
 20
-474.929
 30
0.00000
  70
    32
  0
VERTEX
  8
画層1
  5
1473C
 10
168.688
 20
-475.507
 30
0.00000
  70
    32
  0
VERTEX
  8
画層1
  5
1473D
 10
169.389
 20
-476.134
 30
0.00000
  70
    32
  0
VERTEX
  8
画層1
  5
1473E
 10
170.067
 20
-476.810
 30
0.00000
  70
    32
  0
VERTEX
  8
画層1
  5
1473F
 10
170.721
 20
-477.532
 30
0.00000
  70
    32
  0
VERTEX
  8
画層1
  5
14740
 10
171.349
 20
-478.298
 30
0.00000
  70
    32
  0
VERTEX
  8
画層1
  5
14741
 10
171.950
 20
-479.107
 30
0.00000
  70
    32
  0
VERTEX
  8
画層1
  5
14742
 10
172.522
 20
-479.956
 30
0.00000
  70
    32
  0
VERTEX
  8
画層1
  5
14743
 10
173.064
 20
-480.845
 30
0.00000
  70
    32
  0
VERTEX
  8
画層1
  5
14744
 10
173.574
 20
-481.769
 30
0.00000
  70
    32
  0
VERTEX
  8
画層1
  5
14745
 10
174.052
 20
-482.728
 30
0.00000
  70
    32
  0
VERTEX
  8
画層1
  5
14746
 10
174.495
 20
-483.720
 30
0.00000
  70
    32
  0
VERTEX
  8
画層1
  5
14747
 10
174.904
 20
-484.740
 30
0.00000
  70
    32
  0
VERTEX
  8
画層1
  5
14748
 10
175.277
 20
-485.788
 30
0.00000
  70
    32
  0
VERTEX
  8
画層1
  5
14749
 10
175.613
 20
-486.860
 30
0.00000
  70
    32
  0
VERTEX
  8
画層1
  5
1474A
 10
175.912
 20
-487.955
 30
0.00000
  70
    32
  0
VERTEX
  8
画層1
  5
1474B
 10
176.172
 20
-489.069
 30
0.00000
  70
    32
  0
VERTEX
  8
画層1
  5
1474C
 10
176.393
 20
-490.199
 30
0.00000
  70
    32
  0
VERTEX
  8
画層1
  5
1474D
 10
176.575
 20
-491.344
 30
0.00000
  70
    32
  0
VERTEX
  8
画層1
  5
1474E
 10
176.717
 20
-492.500
 30
0.00000
  70
    32
  0
VERTEX
  8
画層1
  5
1474F
 10
176.818
 20
-493.664
 30
0.00000
  70
    32
  0
VERTEX
  8
画層1
  5
14750
 10
176.879
 20
-494.834
 30
0.00000
  70
    32
  0
VERTEX
  8
画層1
  5
14751
 10
176.900
 20
-496.007
 30
0.00000
  70
    32
  0
VERTEX
  8
画層1
  5
14752
 10
176.879
 20
-497.179
 30
0.00000
  70
    32
  0
VERTEX
  8
画層1
  5
14753
 10
176.818
 20
-498.349
 30
0.00000
  70
    32
  0
VERTEX
  8
画層1
  5
14754
 10
176.717
 20
-499.513
 30
0.00000
  70
    32
  0
VERTEX
  8
画層1
  5
14755
 10
176.575
 20
-500.669
 30
0.00000
  70
    32
  0
VERTEX
  8
画層1
  5
14756
 10
176.393
 20
-501.814
 30
0.00000
  70
    32
  0
VERTEX
  8
画層1
  5
14757
 10
176.172
 20
-502.944
 30
0.00000
  70
    32
  0
VERTEX
  8
画層1
  5
14758
 10
175.912
 20
-504.058
 30
0.00000
  70
    32
  0
VERTEX
  8
画層1
  5
14759
 10
175.613
 20
-505.153
 30
0.00000
  70
    32
  0
VERTEX
  8
画層1
  5
1475A
 10
175.277
 20
-506.225
 30
0.00000
  70
    32
  0
VERTEX
  8
画層1
  5
1475B
 10
174.904
 20
-507.273
 30
0.00000
  70
    32
  0
VERTEX
  8
画層1
  5
1475C
 10
174.495
 20
-508.294
 30
0.00000
  70
    32
  0
VERTEX
  8
画層1
  5
1475D
 10
174.052
 20
-509.285
 30
0.00000
  70
    32
  0
VERTEX
  8
画層1
  5
1475E
 10
173.574
 20
-510.244
 30
0.00000
  70
    32
  0
VERTEX
  8
画層1
  5
1475F
 10
173.064
 20
-511.169
 30
0.00000
  70
    32
  0
VERTEX
  8
画層1
  5
14760
 10
172.522
 20
-512.057
 30
0.00000
  70
    32
  0
VERTEX
  8
画層1
  5
14761
 10
171.950
 20
-512.906
 30
0.00000
  70
    32
  0
VERTEX
  8
画層1
  5
14762
 10
171.349
 20
-513.715
 30
0.00000
  70
    32
  0
VERTEX
  8
画層1
  5
14763
 10
170.721
 20
-514.482
 30
0.00000
  70
    32
  0
VERTEX
  8
画層1
  5
14764
 10
170.067
 20
-515.203
 30
0.00000
  70
    32
  0
VERTEX
  8
画層1
  5
14765
 10
169.389
 20
-515.879
 30
0.00000
  70
    32
  0
VERTEX
  8
画層1
  5
14766
 10
168.688
 20
-516.506
 30
0.00000
  70
    32
  0
VERTEX
  8
画層1
  5
14767
 10
167.967
 20
-517.085
 30
0.00000
  70
    32
  0
VERTEX
  8
画層1
  5
14768
 10
167.226
 20
-517.612
 30
0.00000
  70
    32
  0
VERTEX
  8
画層1
  5
14769
 10
166.467
 20
-518.087
 30
0.00000
  70
    32
  0
VERTEX
  8
画層1
  5
1476A
 10
165.693
 20
-518.510
 30
0.00000
  70
    32
  0
VERTEX
  8
画層1
  5
1476B
 10
164.906
 20
-518.877
 30
0.00000
  70
    32
  0
VERTEX
  8
画層1
  5
1476C
 10
164.106
 20
-519.190
 30
0.00000
  70
    32
  0
VERTEX
  8
画層1
  5
1476D
 10
163.297
 20
-519.447
 30
0.00000
  70
    32
  0
VERTEX
  8
画層1
  5
1476E
 10
162.480
 20
-519.648
 30
0.00000
  70
    32
  0
VERTEX
  8
画層1
  5
1476F
 10
161.656
 20
-519.792
 30
0.00000
  70
    32
  0
VERTEX
  8
画層1
  5
14770
 10
160.829
 20
-519.878
 30
0.00000
  70
    32
  0
VERTEX
  8
画層1
  5
14771
 10
160.000
 20
-519.907
 30
0.00000
  70
    32
  0
VERTEX
  8
画層1
  5
14772
 10
159.171
 20
-519.878
 30
0.00000
  70
    32
  0
VERTEX
  8
画層1
  5
14773
 10
158.344
 20
-519.792
 30
0.00000
  70
    32
  0
VERTEX
  8
画層1
  5
14774
 10
157.520
 20
-519.648
 30
0.00000
  70
    32
  0
VERTEX
  8
画層1
  5
14775
 10
156.703
 20
-519.447
 30
0.00000
  70
    32
  0
VERTEX
  8
画層1
  5
14776
 10
155.894
 20
-519.190
 30
0.00000
  70
    32
  0
VERTEX
  8
画層1
  5
14777
 10
155.094
 20
-518.877
 30
0.00000
  70
    32
  0
VERTEX
  8
画層1
  5
14778
 10
154.307
 20
-518.510
 30
0.00000
  70
    32
  0
VERTEX
  8
画層1
  5
14779
 10
153.533
 20
-518.087
 30
0.00000
  70
    32
  0
VERTEX
  8
画層1
  5
1477A
 10
152.774
 20
-517.612
 30
0.00000
  70
    32
  0
VERTEX
  8
画層1
  5
1477B
 10
152.033
 20
-517.085
 30
0.00000
  70
    32
  0
VERTEX
  8
画層1
  5
1477C
 10
151.312
 20
-516.506
 30
0.00000
  70
    32
  0
VERTEX
  8
画層1
  5
1477D
 10
150.611
 20
-515.879
 30
0.00000
  70
    32
  0
VERTEX
  8
画層1
  5
1477E
 10
149.933
 20
-515.203
 30
0.00000
  70
    32
  0
VERTEX
  8
画層1
  5
1477F
 10
149.279
 20
-514.482
 30
0.00000
  70
    32
  0
VERTEX
  8
画層1
  5
14780
 10
148.651
 20
-513.715
 30
0.00000
  70
    32
  0
VERTEX
  8
画層1
  5
14781
 10
148.050
 20
-512.906
 30
0.00000
  70
    32
  0
VERTEX
  8
画層1
  5
14782
 10
147.478
 20
-512.057
 30
0.00000
  70
    32
  0
VERTEX
  8
画層1
  5
14783
 10
146.936
 20
-511.169
 30
0.00000
  70
    32
  0
VERTEX
  8
画層1
  5
14784
 10
146.426
 20
-510.244
 30
0.00000
  70
    32
  0
VERTEX
  8
画層1
  5
14785
 10
145.948
 20
-509.285
 30
0.00000
  70
    32
  0
VERTEX
  8
画層1
  5
14786
 10
145.505
 20
-508.294
 30
0.00000
  70
    32
  0
VERTEX
  8
画層1
  5
14787
 10
145.096
 20
-507.273
 30
0.00000
  70
    32
  0
VERTEX
  8
画層1
  5
14788
 10
144.723
 20
-506.225
 30
0.00000
  70
    32
  0
VERTEX
  8
画層1
  5
14789
 10
144.387
 20
-505.153
 30
0.00000
  70
    32
  0
VERTEX
  8
画層1
  5
1478A
 10
144.088
 20
-504.058
 30
0.00000
  70
    32
  0
VERTEX
  8
画層1
  5
1478B
 10
143.828
 20
-502.944
 30
0.00000
  70
    32
  0
VERTEX
  8
画層1
  5
1478C
 10
143.607
 20
-501.814
 30
0.00000
  70
    32
  0
VERTEX
  8
画層1
  5
1478D
 10
143.425
 20
-500.669
 30
0.00000
  70
    32
  0
VERTEX
  8
画層1
  5
1478E
 10
143.283
 20
-499.513
 30
0.00000
  70
    32
  0
VERTEX
  8
画層1
  5
1478F
 10
143.182
 20
-498.349
 30
0.00000
  70
    32
  0
VERTEX
  8
画層1
  5
14790
 10
143.121
 20
-497.179
 30
0.00000
  70
    32
  0
VERTEX
  8
画層1
  5
14791
 10
143.100
 20
-496.007
 30
0.00000
  70
    32
  0
VERTEX
  8
画層1
  5
14792
 10
143.121
 20
-494.834
 30
0.00000
  70
    32
  0
VERTEX
  8
画層1
  5
14793
 10
143.182
 20
-493.664
 30
0.00000
  70
    32
  0
VERTEX
  8
画層1
  5
14794
 10
143.283
 20
-492.500
 30
0.00000
  70
    32
  0
VERTEX
  8
画層1
  5
14795
 10
143.425
 20
-491.344
 30
0.00000
  70
    32
  0
VERTEX
  8
画層1
  5
14796
 10
143.607
 20
-490.199
 30
0.00000
  70
    32
  0
VERTEX
  8
画層1
  5
14797
 10
143.828
 20
-489.069
 30
0.00000
  70
    32
  0
VERTEX
  8
画層1
  5
14798
 10
144.088
 20
-487.955
 30
0.00000
  70
    32
  0
VERTEX
  8
画層1
  5
14799
 10
144.387
 20
-486.860
 30
0.00000
  70
    32
  0
VERTEX
  8
画層1
  5
1479A
 10
144.723
 20
-485.788
 30
0.00000
  70
    32
  0
VERTEX
  8
画層1
  5
1479B
 10
145.096
 20
-484.740
 30
0.00000
  70
    32
  0
VERTEX
  8
画層1
  5
1479C
 10
145.505
 20
-483.720
 30
0.00000
  70
    32
  0
VERTEX
  8
画層1
  5
1479D
 10
145.948
 20
-482.728
 30
0.00000
  70
    32
  0
VERTEX
  8
画層1
  5
1479E
 10
146.426
 20
-481.769
 30
0.00000
  70
    32
  0
VERTEX
  8
画層1
  5
1479F
 10
146.936
 20
-480.845
 30
0.00000
  70
    32
  0
VERTEX
  8
画層1
  5
147A0
 10
147.478
 20
-479.956
 30
0.00000
  70
    32
  0
VERTEX
  8
画層1
  5
147A1
 10
148.050
 20
-479.107
 30
0.00000
  70
    32
  0
VERTEX
  8
画層1
  5
147A2
 10
148.651
 20
-478.298
 30
0.00000
  70
    32
  0
VERTEX
  8
画層1
  5
147A3
 10
149.279
 20
-477.532
 30
0.00000
  70
    32
  0
VERTEX
  8
画層1
  5
147A4
 10
149.933
 20
-476.810
 30
0.00000
  70
    32
  0
VERTEX
  8
画層1
  5
147A5
 10
150.611
 20
-476.134
 30
0.00000
  70
    32
  0
VERTEX
  8
画層1
  5
147A6
 10
151.312
 20
-475.507
 30
0.00000
  70
    32
  0
VERTEX
  8
画層1
  5
147A7
 10
152.033
 20
-474.929
 30
0.00000
  70
    32
  0
VERTEX
  8
画層1
  5
147A8
 10
152.774
 20
-474.401
 30
0.00000
  70
    32
  0
VERTEX
  8
画層1
  5
147A9
 10
153.533
 20
-473.926
 30
0.00000
  70
    32
  0
VERTEX
  8
画層1
  5
147AA
 10
154.307
 20
-473.504
 30
0.00000
  70
    32
  0
VERTEX
  8
画層1
  5
147AB
 10
155.094
 20
-473.136
 30
0.00000
  70
    32
  0
VERTEX
  8
画層1
  5
147AC
 10
155.894
 20
-472.823
 30
0.00000
  70
    32
  0
VERTEX
  8
画層1
  5
147AD
 10
156.703
 20
-472.566
 30
0.00000
  70
    32
  0
VERTEX
  8
画層1
  5
147AE
 10
157.520
 20
-472.365
 30
0.00000
  70
    32
  0
VERTEX
  8
画層1
  5
147AF
 10
158.344
 20
-472.222
 30
0.00000
  70
    32
  0
VERTEX
  8
画層1
  5
147B0
 10
159.171
 20
-472.135
 30
0.00000
  70
    32
  0
VERTEX
  8
画層1
  5
147B1
 10
160.000
 20
-472.107
 30
0.00000
  70
    32
  0
SEQEND
  8
画層1
  5
147B2
  0
LINE
  5
14338
  8
0
 10
126.5000000000024016
 20
81.3607354412610988
 30
0.0
 11
-126.4999999999706972
 21
81.3607354421778837
 31
0.0
  0
LINE
  5
14339
  8
0
 10
84.7500000000044338
 20
28.8105977477073303
 30
0.0
 11
-84.7499999999921556
 21
28.8105977477159811
 31
0.0
  0
LINE
  5
1433A
  8
0
 10
84.7500000000056843
 20
53.3105977477137003
 30
0.0
 11
-84.7499999999934062
 21
53.3105977477096005
 31
0.0
  0
LINE
  5
1433B
  8
0
 10
-84.7499999999934062
 20
53.3105977477137003
 30
0.0
 11
-84.7499999999921556
 21
28.8105977477201805
 31
0.0
  0
LINE
  5
1433C
  8
0
 10
-69.9999399999911702
 20
-27.6894272511062809
 30
0.0
 11
-69.9999399999910565
 21
28.8105977477200703
 31
0.0
  0
LINE
  5
1433D
  8
0
 10
-126.4999999999029967
 20
57.3605977483559926
 30
0.0
 11
-126.4999999999898961
 21
81.3607354421778837
 31
0.0
  0
LINE
  5
1433E
  8
0
 10
-126.4999999999030962
 20
57.3605977483559926
 30
0.0
 11
126.4999999999153033
 21
57.3605977483559926
 31
0.0
  0
LINE
  5
1433F
  8
0
 10
-39.5000273467046625
 20
-120.9394021511191966
 30
0.0
 11
-39.5000273467046625
 21
-110.439446280092298
 31
0.0
  0
LINE
  5
14340
  8
0
 10
0.0000000000061391
 20
-120.9394021511191966
 30
0.0
 11
39.4996496409337396
 21
-120.9394021511191966
 31
0.0
  0
LINE
  5
14341
  8
0
 10
52.4996351409333712
 20
-120.9394021511191966
 30
0.0
 11
83.9999817181512753
 21
-120.9394021511191966
 31
0.0
  0
LINE
  5
14342
  8
0
 10
83.9999817181512753
 20
-120.9394021511191966
 30
0.0
 11
83.9999817181512753
 21
-128.9394021511191966
 31
0.0
  0
LINE
  5
14343
  8
0
 10
-0.0000182818487247
 20
-120.9394021511191966
 30
0.0
 11
-39.500383140920583
 21
-120.9394021511191966
 31
0.0
  0
LINE
  5
14344
  8
0
 10
-52.5003686409206622
 20
-120.9394021511191966
 30
0.0
 11
-84.0000182818487247
 21
-120.9394021511191966
 31
0.0
  0
LINE
  5
14345
  8
0
 10
-84.0000182818487247
 20
-120.9394021511191966
 30
0.0
 11
-84.0000182818487247
 21
-128.9394021511191966
 31
0.0
  0
LINE
  5
14346
  8
0
 10
98.5003667181511133
 20
-128.9394021511191966
 30
0.0
 11
-98.5007377818490113
 21
-128.9394021511191966
 31
0.0
  0
LINE
  5
14347
  8
0
 10
98.5003667181511133
 20
-128.9394021511191966
 30
0.0
 11
98.4999817181512753
 21
-150.3205999976019882
 31
0.0
  0
LINE
  5
14348
  8
0
 10
98.4999817181512753
 20
-134.9394021511191966
 30
0.0
 11
-98.5000182818487247
 21
-134.9394021511191966
 31
0.0
  0
LINE
  5
14349
  8
0
 10
-98.5000182818487247
 20
-128.9394021511191966
 30
0.0
 11
-98.5000182818487247
 21
-150.3205999976019882
 31
0.0
  0
LINE
  5
1434A
  8
0
 10
94.4999817181512753
 20
-157.2488032278783123
 30
0.0
 11
91.4999817181512753
 21
-158.9808540354464128
 31
0.0
  0
ARC
  5
1434B
  8
0
 10
90.4999817181512753
 20
-150.3205999976019882
 30
0.0
 40
8.0
 50
300.0000000000072191
 51
0.0
1001
GENIUS_GENODEF_13
1002
{
1000
HIER
1070
     0
1002
}
1002
{
1000
MANEDIT
1070
     0
1002
}
1002
{
1000
NOSEL
1070
     0
1002
}
1002
{
1000
BEHIND
1070
     0
1002
}
1002
{
1000
OTHER
1070
     0
1002
}
1002
{
1000
REACTOR
1002
}
1001
GENIUS_GENOBJ-N-FIL_13
1002
{
1000
OWNER
1000
GEN
1002
}
  0
LINE
  5
1434C
  8
0
 10
-94.5000182818487247
 20
-157.2488032278783123
 30
0.0
 11
-91.5000182818487247
 21
-158.9808540354464128
 31
0.0
  0
ARC
  5
1434D
  8
0
 10
-90.5000182818487247
 20
-150.3205999976019882
 30
0.0
 40
8.0
 50
180.0
 51
239.9999999999928093
1001
GENIUS_GENODEF_13
1002
{
1000
HIER
1070
     0
1002
}
1002
{
1000
MANEDIT
1070
     0
1002
}
1002
{
1000
NOSEL
1070
     0
1002
}
1002
{
1000
BEHIND
1070
     0
1002
}
1002
{
1000
OTHER
1070
     0
1002
}
1002
{
1000
REACTOR
1002
}
1001
GENIUS_GENOBJ-N-FIL_13
1002
{
1000
OWNER
1000
GEN
1002
}
  0
ARC
  5
1434E
  8
0
 10
75.5217083898080546
 20
-244.9394071511200082
 30
0.0
 40
8.0
 50
270.0
 51
347.9999999999843112
1001
GENIUS_GENODEF_13
1002
{
1000
HIER
1070
     0
1002
}
1002
{
1000
MANEDIT
1070
     0
1002
}
1002
{
1000
NOSEL
1070
     0
1002
}
1002
{
1000
BEHIND
1070
     0
1002
}
1002
{
1000
OTHER
1070
     0
1002
}
1002
{
1000
REACTOR
1002
}
1001
GENIUS_GENOBJ-N-FIL_13
1002
{
1000
OWNER
1000
GEN
1002
}
  0
LINE
  5
1434F
  8
0
 10
-24.0000332818488005
 20
-257.9394021511200776
 30
0.0
 11
23.9999668215884903
 21
-257.9393971861193791
 31
0.0
  0
LINE
  5
14350
  8
0
 10
75.5217083898080546
 20
-252.9394071511200082
 30
0.0
 11
-75.5217460162887164
 21
-252.9394071511200082
 31
0.0
  0
ARC
  5
14351
  8
0
 10
-75.5217460162887164
 20
-244.9394071511200082
 30
0.0
 40
8.0
 50
192.0000000000156888
 51
270.0
1001
GENIUS_GENODEF_13
1002
{
1000
HIER
1070
     0
1002
}
1002
{
1000
MANEDIT
1070
     0
1002
}
1002
{
1000
NOSEL
1070
     0
1002
}
1002
{
1000
BEHIND
1070
     0
1002
}
1002
{
1000
OTHER
1070
     0
1002
}
1002
{
1000
REACTOR
1002
}
1001
GENIUS_GENOBJ-N-FIL_13
1002
{
1000
OWNER
1000
GEN
1002
}
  0
LINE
  5
14352
  8
0
 10
-25.0000382818486813
 20
-252.9394071511200082
 30
0.0
 11
-25.0000382818486813
 21
-256.9393971511192944
 31
0.0
  0
LINE
  5
14353
  8
0
 10
24.9999717181510697
 20
-252.9394071511200082
 30
0.0
 11
24.9999717181510697
 21
-256.9393971511192944
 31
0.0
  0
ARC
  5
14354
  8
0
 10
-24.0000332818488005
 20
-256.9393971511192944
 30
0.0
 40
1.000000035
 50
180.0
 51
270.0000100000009979
  0
ARC
  5
14355
  8
0
 10
23.9999667181511995
 20
-256.9393971511192944
 30
0.0
 40
1.000000035
 50
269.9999899999990021
 51
0.0000039999795585
  0
LINE
  5
14356
  8
0
 10
83.3468891956788411
 20
-246.602700677661602
 30
0.0
 11
87.907361754841304
 21
-225.147364162373691
 31
0.0
  0
ARC
  5
14357
  8
0
 10
38.9999817181512682
 20
-214.7517796214854968
 30
0.0
 40
50.0
 50
347.9999999999843112
 51
0.0
1001
GENIUS_GENODEF_13
1002
{
1000
HIER
1070
     0
1002
}
1002
{
1000
MANEDIT
1070
     0
1002
}
1002
{
1000
NOSEL
1070
     0
1002
}
1002
{
1000
BEHIND
1070
     0
1002
}
1002
{
1000
OTHER
1070
     0
1002
}
1002
{
1000
REACTOR
1002
}
1001
GENIUS_GENOBJ-N-FIL_13
1002
{
1000
OWNER
1000
GEN
1002
}
  0
LINE
  5
14358
  8
0
 10
88.9999817181512753
 20
-214.7517796214854968
 30
0.0
 11
88.9999817181512753
 21
-163.3109810543685967
 31
0.0
  0
ARC
  5
14359
  8
0
 10
93.9999817181512753
 20
-163.3109810543685967
 30
0.0
 40
5.0
 50
120.0000000000072049
 51
180.0
1001
GENIUS_GENODEF_13
1002
{
1000
HIER
1070
     0
1002
}
1002
{
1000
MANEDIT
1070
     0
1002
}
1002
{
1000
NOSEL
1070
     0
1002
}
1002
{
1000
BEHIND
1070
     0
1002
}
1002
{
1000
OTHER
1070
     0
1002
}
1002
{
1000
REACTOR
1002
}
1001
GENIUS_GENOBJ-N-FIL_13
1002
{
1000
OWNER
1000
GEN
1002
}
  0
LINE
  5
1435A
  8
0
 10
-89.0000182818487247
 20
-163.3109810543685967
 30
0.0
 11
-89.0000182818487247
 21
-214.7517846214853989
 31
0.0
  0
ARC
  5
1435B
  8
0
 10
-94.0000182818487247
 20
-163.3109810543685967
 30
0.0
 40
5.0
 50
0.0
 51
59.999999999992788
1001
GENIUS_GENODEF_13
1002
{
1000
HIER
1070
     0
1002
}
1002
{
1000
MANEDIT
1070
     0
1002
}
1002
{
1000
NOSEL
1070
     0
1002
}
1002
{
1000
BEHIND
1070
     0
1002
}
1002
{
1000
OTHER
1070
     0
1002
}
1002
{
1000
REACTOR
1002
}
1001
GENIUS_GENOBJ-N-FIL_13
1002
{
1000
OWNER
1000
GEN
1002
}
  0
LINE
  5
1435C
  8
0
 10
-87.907398318539208
 20
-225.1473691623745026
 30
0.0
 11
-83.3469268221590482
 21
-246.602700677661602
 31
0.0
  0
ARC
  5
1435D
  8
0
 10
-39.0000182818487318
 20
-214.7517846214853989
 30
0.0
 40
50.0
 50
180.0
 51
192.0000000000156888
1001
GENIUS_GENODEF_13
1002
{
1000
HIER
1070
     0
1002
}
1002
{
1000
MANEDIT
1070
     0
1002
}
1002
{
1000
NOSEL
1070
     0
1002
}
1002
{
1000
BEHIND
1070
     0
1002
}
1002
{
1000
OTHER
1070
     0
1002
}
1002
{
1000
REACTOR
1002
}
1001
GENIUS_GENOBJ-N-FIL_13
1002
{
1000
OWNER
1000
GEN
1002
}
  0
LINE
  5
1435E
  8
0
 10
-94.5000182818487247
 20
-154.9394021511191966
 30
0.0
 11
94.4999817181512753
 21
-154.9394021511191966
 31
0.0
  0
LINE
  5
1435F
  8
0
 10
-89.0000182818487247
 20
-160.424229708420512
 30
0.0
 11
88.9999817181512753
 21
-160.424229708420512
 31
0.0
  0
LINE
  5
14360
  8
0
 10
-87.907398318539208
 20
-220.0069963847693941
 30
0.0
 11
87.907361754840835
 21
-220.0069963847693941
 31
0.0
  0
LINE
  5
14361
  8
0
 10
85.7221667181508877
 20
-119.4394221511196008
 30
0.0
 11
85.7221667181508877
 21
-125.6894121511198961
 31
0.0
  0
LINE
  5
14362
  8
0
 10
98.5003667181511133
 20
-126.9394221511196008
 30
0.0
 11
98.5003667181511133
 21
-128.9394021511191966
 31
0.0
  0
LINE
  5
14363
  8
0
 10
97.6343867181510632
 20
-118.939472151119304
 30
0.0
 11
98.5004147181509779
 21
-119.4394671511194019
 31
0.0
  0
LINE
  5
14364
  8
0
 10
86.371546718151194
 20
-119.4394221511196008
 30
0.0
 11
86.371546718151194
 21
-125.6894121511198961
 31
0.0
  0
LINE
  5
14365
  8
0
 10
86.3666867181511861
 20
-118.9394571511195977
 30
0.0
 11
85.5006617181509228
 21
-119.4394521511188003
 31
0.0
  0
LINE
  5
14366
  8
0
 10
85.5007067181511502
 20
-125.6894121511198961
 30
0.0
 11
98.5007267181511139
 21
-125.6894121511198961
 31
0.0
  0
LINE
  5
14367
  8
0
 10
87.4044917181511352
 20
-119.4394221511196008
 30
0.0
 11
87.4044917181511352
 21
-125.6894121511198961
 31
0.0
  0
LINE
  5
14368
  8
0
 10
96.5968967181509015
 20
-119.4394221511196008
 30
0.0
 11
96.5968967181509015
 21
-125.6894121511198961
 31
0.0
  0
LINE
  5
14369
  8
0
 10
85.5007067181511502
 20
-119.4394221511196008
 30
0.0
 11
85.5007067181511502
 21
-126.9394221511196008
 31
0.0
  0
LINE
  5
1436A
  8
0
 10
93.6830417181511166
 20
-119.4394221511196008
 30
0.0
 11
93.6830417181511166
 21
-125.6894121511198961
 31
0.0
  0
LINE
  5
1436B
  8
0
 10
95.2507067181511502
 20
-119.4394221511196008
 30
0.0
 11
95.2507067181511502
 21
-125.6894121511198961
 31
0.0
  0
LINE
  5
1436C
  8
0
 10
90.3183917181511191
 20
-119.4394221511196008
 30
0.0
 11
90.3183917181511191
 21
-125.6894121511198961
 31
0.0
  0
LINE
  5
1436D
  8
0
 10
97.6346867181512152
 20
-118.9393971511192944
 30
0.0
 11
98.5007417181511755
 21
-119.4394221511196008
 31
0.0
  0
LINE
  5
1436E
  8
0
 10
88.7507267181510855
 20
-119.4394221511196008
 30
0.0
 11
88.7507267181510855
 21
-125.6894121511198961
 31
0.0
  0
LINE
  5
1436F
  8
0
 10
85.5007067181511502
 20
-119.4394221511196008
 30
0.0
 11
98.5007267181511139
 21
-119.4394221511196008
 31
0.0
  0
LINE
  5
14370
  8
0
 10
92.0007167181508976
 20
-119.4394221511196008
 30
0.0
 11
92.0007167181508976
 21
-125.6894121511198961
 31
0.0
  0
LINE
  5
14371
  8
0
 10
97.6298867181510559
 20
-119.4394221511196008
 30
0.0
 11
97.6298867181510559
 21
-125.6894121511198961
 31
0.0
  0
LINE
  5
14372
  8
0
 10
85.5007067181511502
 20
-126.9394221511196008
 30
0.0
 11
98.5007267181511139
 21
-126.9394221511196008
 31
0.0
  0
LINE
  5
14373
  8
0
 10
98.5007267181511139
 20
-119.4394221511196008
 30
0.0
 11
98.5007267181511139
 21
-126.9394221511196008
 31
0.0
  0
LINE
  5
14374
  8
0
 10
98.2792217181511205
 20
-119.4394221511196008
 30
0.0
 11
98.2792217181511205
 21
-125.6894121511198961
 31
0.0
  0
LINE
  5
14375
  8
0
 10
86.3667017181508072
 20
-118.9394121511198961
 30
0.0
 11
97.6346867181512152
 21
-118.9394121511198961
 31
0.0
  0
LINE
  5
14376
  8
0
 10
85.5007067181511502
 20
-126.9394221511196008
 30
0.0
 11
85.5007067181511502
 21
-128.9394021511191966
 31
0.0
  0
LINE
  5
14377
  8
0
 10
-85.5003922818489031
 20
-119.4394221511196008
 30
0.0
 11
-85.5003922818489031
 21
-126.9394221511196008
 31
0.0
  0
LINE
  5
14378
  8
0
 10
-97.6343797818488071
 20
-118.9394121511198961
 30
0.0
 11
-86.3663902818486804
 21
-118.9394121511198961
 31
0.0
  0
LINE
  5
14379
  8
0
 10
-98.500377781848556
 20
-119.4394221511196008
 30
0.0
 11
-98.500377781848556
 21
-126.9394221511196008
 31
0.0
  0
LINE
  5
1437A
  8
0
 10
-98.500377781848556
 20
-119.4394221511196008
 30
0.0
 11
-85.5003922818489031
 21
-119.4394221511196008
 31
0.0
  0
LINE
  5
1437B
  8
0
 10
-93.6827347818486942
 20
-119.4394221511196008
 30
0.0
 11
-93.6827347818486942
 21
-125.6894121511198961
 31
0.0
  0
LINE
  5
1437C
  8
0
 10
-86.3712427818488777
 20
-119.4394221511196008
 30
0.0
 11
-86.3712427818488777
 21
-125.6894121511198961
 31
0.0
  0
LINE
  5
1437D
  8
0
 10
-87.4041862818487374
 20
-119.4394221511196008
 30
0.0
 11
-87.4041862818487374
 21
-125.6894121511198961
 31
0.0
  0
LINE
  5
1437E
  8
0
 10
-88.750377781848556
 20
-119.4394221511196008
 30
0.0
 11
-88.750377781848556
 21
-125.6894121511198961
 31
0.0
  0
LINE
  5
1437F
  8
0
 10
-85.5003922818489031
 20
-126.9394221511196008
 30
0.0
 11
-85.5003922818489031
 21
-128.9394021511191966
 31
0.0
  0
LINE
  5
14380
  8
0
 10
-96.5965837818487216
 20
-119.4394221511196008
 30
0.0
 11
-96.5965837818487216
 21
-125.6894121511198961
 31
0.0
  0
LINE
  5
14381
  8
0
 10
-95.2503922818489173
 20
-119.4394221511196008
 30
0.0
 11
-95.2503922818489173
 21
-125.6894121511198961
 31
0.0
  0
LINE
  5
14382
  8
0
 10
-85.7218582818488812
 20
-119.4394221511196008
 30
0.0
 11
-85.7218582818488812
 21
-125.6894121511198961
 31
0.0
  0
LINE
  5
14383
  8
0
 10
-90.3180802818490065
 20
-119.4394221511196008
 30
0.0
 11
-90.3180802818490065
 21
-125.6894121511198961
 31
0.0
  0
LINE
  5
14384
  8
0
 10
-92.0003617818490511
 20
-119.4394221511196008
 30
0.0
 11
-92.0003617818490511
 21
-125.6894121511198961
 31
0.0
  0
LINE
  5
14385
  8
0
 10
-86.3664307818487345
 20
-118.9393971511192944
 30
0.0
 11
-85.5003802818489476
 21
-119.4394221511196008
 31
0.0
  0
LINE
  5
14386
  8
0
 10
-97.629573781848876
 20
-119.4394221511196008
 30
0.0
 11
-97.629573781848876
 21
-125.6894121511198961
 31
0.0
  0
LINE
  5
14387
  8
0
 10
-85.5003922818489031
 20
-126.9394221511196008
 30
0.0
 11
-98.500377781848556
 21
-126.9394221511196008
 31
0.0
  0
LINE
  5
14388
  8
0
 10
-98.278911781849061
 20
-119.4394221511196008
 30
0.0
 11
-98.278911781849061
 21
-125.6894121511198961
 31
0.0
  0
LINE
  5
14389
  8
0
 10
-98.5007377818490113
 20
-126.9394221511196008
 30
0.0
 11
-98.5007377818490113
 21
-128.9394021511201061
 31
0.0
  0
LINE
  5
1438A
  8
0
 10
-97.6336057818487149
 20
-118.9393971511192944
 30
0.0
 11
-98.4996562818489707
 21
-119.4394221511196008
 31
0.0
  0
LINE
  5
1438B
  8
0
 10
-98.499660031848876
 20
-126.9394221511196008
 30
0.0
 11
-85.4996400318489123
 21
-126.9394221511196008
 31
0.0
  0
LINE
  5
1438C
  8
0
 10
-98.5003725318485976
 20
-125.6894121511198961
 30
0.0
 11
-85.5003525318486339
 21
-125.6894121511198961
 31
0.0
  0
LINE
  5
1438D
  8
0
 10
8.0000029868349412
 20
-257.9393996686143282
 30
0.0
 11
7.9997575327358836
 21
-271.547183626385106
 31
0.0
  0
LINE
  5
1438E
  8
0
 10
-39.500383140920583
 20
-119.4394221511196008
 30
0.0
 11
-39.500383140920583
 21
-126.9394221511196008
 31
0.0
  0
LINE
  5
1438F
  8
0
 10
-51.6343706409208991
 20
-118.9394121511198961
 30
0.0
 11
-40.3663811409207867
 21
-118.9394121511198961
 31
0.0
  0
LINE
  5
14390
  8
0
 10
-52.5003686409206622
 20
-119.4394221511196008
 30
0.0
 11
-52.5003686409206622
 21
-126.9394221511196008
 31
0.0
  0
LINE
  5
14391
  8
0
 10
-52.5003686409206622
 20
-119.4394221511196008
 30
0.0
 11
-39.500383140920583
 21
-119.4394221511196008
 31
0.0
  0
LINE
  5
14392
  8
0
 10
-47.6827256409208076
 20
-119.4394221511196008
 30
0.0
 11
-47.6827256409208076
 21
-125.6894121511198961
 31
0.0
  0
LINE
  5
14393
  8
0
 10
-40.3712336409209769
 20
-119.4394221511196008
 30
0.0
 11
-40.3712336409209769
 21
-125.6894121511198961
 31
0.0
  0
LINE
  5
14394
  8
0
 10
-41.4041771409208721
 20
-119.4394221511196008
 30
0.0
 11
-41.4041771409208721
 21
-125.6894121511198961
 31
0.0
  0
LINE
  5
14395
  8
0
 10
-42.7503686409206693
 20
-119.4394221511196008
 30
0.0
 11
-42.7503686409206693
 21
-125.6894121511198961
 31
0.0
  0
LINE
  5
14396
  8
0
 10
-39.500383140920583
 20
-126.9394221511196008
 30
0.0
 11
-39.500383140920583
 21
-128.9394021511191966
 31
0.0
  0
LINE
  5
14397
  8
0
 10
-50.5965746409208279
 20
-119.4394221511196008
 30
0.0
 11
-50.5965746409208279
 21
-125.6894121511198961
 31
0.0
  0
LINE
  5
14398
  8
0
 10
-49.2503831409205688
 20
-119.4394221511196008
 30
0.0
 11
-49.2503831409205688
 21
-125.6894121511198961
 31
0.0
  0
LINE
  5
14399
  8
0
 10
-39.7218491409205399
 20
-119.4394221511196008
 30
0.0
 11
-39.7218491409205399
 21
-125.6894121511198961
 31
0.0
  0
LINE
  5
1439A
  8
0
 10
-44.318071140920658
 20
-119.4394221511196008
 30
0.0
 11
-44.318071140920658
 21
-125.6894121511198961
 31
0.0
  0
LINE
  5
1439B
  8
0
 10
-46.0003526409207026
 20
-119.4394221511196008
 30
0.0
 11
-46.0003526409207026
 21
-125.6894121511198961
 31
0.0
  0
LINE
  5
1439C
  8
0
 10
-40.366421640920862
 20
-118.9393971511192944
 30
0.0
 11
-39.5003711409206133
 21
-119.4394221511196008
 31
0.0
  0
LINE
  5
1439D
  8
0
 10
-51.6295646409209894
 20
-119.4394221511196008
 30
0.0
 11
-51.6295646409209894
 21
-125.6894121511198961
 31
0.0
  0
LINE
  5
1439E
  8
0
 10
-39.500383140920583
 20
-126.9394221511196008
 30
0.0
 11
-52.5003686409206622
 21
-126.9394221511196008
 31
0.0
  0
LINE
  5
1439F
  8
0
 10
-52.2789026409207125
 20
-119.4394221511196008
 30
0.0
 11
-52.2789026409207125
 21
-125.6894121511198961
 31
0.0
  0
LINE
  5
143A0
  8
0
 10
-52.5007286409206699
 20
-126.9394221511196008
 30
0.0
 11
-52.5007286409206699
 21
-128.9394021511201061
 31
0.0
  0
LINE
  5
143A1
  8
0
 10
-51.6335966409208069
 20
-118.9393971511192944
 30
0.0
 11
-52.4996471409210699
 21
-119.4394221511196008
 31
0.0
  0
LINE
  5
143A2
  8
0
 10
-52.499650890920968
 20
-126.9394221511196008
 30
0.0
 11
-39.4996308909205709
 21
-126.9394221511196008
 31
0.0
  0
LINE
  5
143A3
  8
0
 10
-52.500363390920711
 20
-125.6894121511198961
 30
0.0
 11
-39.5003433909207615
 21
-125.6894121511198961
 31
0.0
  0
LINE
  5
143A4
  8
0
 10
52.4996351409333712
 20
-119.4394221511196008
 30
0.0
 11
52.4996351409333712
 21
-126.9394221511196008
 31
0.0
  0
LINE
  5
143A5
  8
0
 10
40.3656476409335028
 20
-118.9394121511198961
 30
0.0
 11
51.6336371409336081
 21
-118.9394121511198961
 31
0.0
  0
LINE
  5
143A6
  8
0
 10
39.4996496409337396
 20
-119.4394221511196008
 30
0.0
 11
39.4996496409337396
 21
-126.9394221511196008
 31
0.0
  0
LINE
  5
143A7
  8
0
 10
39.4996496409337396
 20
-119.4394221511196008
 30
0.0
 11
52.4996351409333712
 21
-119.4394221511196008
 31
0.0
  0
LINE
  5
143A8
  8
0
 10
44.3172926409336014
 20
-119.4394221511196008
 30
0.0
 11
44.3172926409336014
 21
-125.6894121511198961
 31
0.0
  0
LINE
  5
143A9
  8
0
 10
51.6287846409334179
 20
-119.4394221511196008
 30
0.0
 11
51.6287846409334179
 21
-125.6894121511198961
 31
0.0
  0
LINE
  5
143AA
  8
0
 10
50.5958411409335369
 20
-119.4394221511196008
 30
0.0
 11
50.5958411409335369
 21
-125.6894121511198961
 31
0.0
  0
LINE
  5
143AB
  8
0
 10
49.2496496409337396
 20
-119.4394221511196008
 30
0.0
 11
49.2496496409337396
 21
-125.6894121511198961
 31
0.0
  0
LINE
  5
143AC
  8
0
 10
52.4996351409333712
 20
-126.9394221511196008
 30
0.0
 11
52.4996351409333712
 21
-128.9394021511191966
 31
0.0
  0
LINE
  5
143AD
  8
0
 10
41.4034436409335669
 20
-119.4394221511196008
 30
0.0
 11
41.4034436409335669
 21
-125.6894121511198961
 31
0.0
  0
LINE
  5
143AE
  8
0
 10
42.7496351409333784
 20
-119.4394221511196008
 30
0.0
 11
42.7496351409333784
 21
-125.6894121511198961
 31
0.0
  0
LINE
  5
143AF
  8
0
 10
52.2781691409334215
 20
-119.4394221511196008
 30
0.0
 11
52.2781691409334215
 21
-125.6894121511198961
 31
0.0
  0
LINE
  5
143B0
  8
0
 10
47.681947140933282
 20
-119.4394221511196008
 30
0.0
 11
47.681947140933282
 21
-125.6894121511198961
 31
0.0
  0
LINE
  5
143B1
  8
0
 10
45.9996656409332374
 20
-119.4394221511196008
 30
0.0
 11
45.9996656409332374
 21
-125.6894121511198961
 31
0.0
  0
LINE
  5
143B2
  8
0
 10
51.633596640933547
 20
-118.9393971511192944
 30
0.0
 11
52.4996471409333409
 21
-119.4394221511196008
 31
0.0
  0
LINE
  5
143B3
  8
0
 10
40.3704536409334196
 20
-119.4394221511196008
 30
0.0
 11
40.3704536409334196
 21
-125.6894121511198961
 31
0.0
  0
LINE
  5
143B4
  8
0
 10
52.4996351409333712
 20
-126.9394221511196008
 30
0.0
 11
39.4996496409337396
 21
-126.9394221511196008
 31
0.0
  0
LINE
  5
143B5
  8
0
 10
39.7211156409332489
 20
-119.4394221511196008
 30
0.0
 11
39.7211156409332489
 21
-125.6894121511198961
 31
0.0
  0
LINE
  5
143B6
  8
0
 10
39.4992896409332914
 20
-126.9394221511196008
 30
0.0
 11
39.4992896409332914
 21
-128.9394021511201061
 31
0.0
  0
LINE
  5
143B7
  8
0
 10
40.3664216409335879
 20
-118.9393971511192944
 30
0.0
 11
39.5003711409333391
 21
-119.4394221511196008
 31
0.0
  0
LINE
  5
143B8
  8
0
 10
39.500367390933441
 20
-126.9394221511196008
 30
0.0
 11
52.5003873909333834
 21
-126.9394221511196008
 31
0.0
  0
LINE
  5
143B9
  8
0
 10
39.499654890933698
 20
-125.6894121511198961
 30
0.0
 11
52.4996748909336404
 21
-125.6894121511198961
 31
0.0
  0
LINE
  5
143BA
  8
0
 10
100.5000017181511964
 20
-149.1561921511195976
 30
0.0
 11
100.5000017181511964
 21
-139.722602151119986
 31
0.0
  0
LINE
  5
143BB
  8
0
 10
101.5653117181510936
 20
-139.6893621511192976
 30
0.0
 11
98.4999817181512753
 21
-139.785152151119604
 31
0.0
  0
LINE
  5
143BC
  8
0
 10
116.0639117181510045
 20
-149.4393421511198028
 30
0.0
 11
116.0639117181510045
 21
-139.4393421511198028
 31
0.0
  0
LINE
  5
143BD
  8
0
 10
116.0639117181510045
 20
-139.4393421511198028
 30
0.0
 11
103.5639717181508956
 21
-139.4393421511198028
 31
0.0
  0
LINE
  5
143BE
  8
0
 10
116.0639117181510045
 20
-149.4393421511198028
 30
0.0
 11
103.5639717181508956
 21
-149.4393421511198028
 31
0.0
  0
LINE
  5
143BF
  8
0
 10
103.5639717181508956
 20
-149.4393421511198028
 30
0.0
 11
103.5639717181508956
 21
-139.4393421511198028
 31
0.0
  0
LINE
  5
143C0
  8
0
 10
103.5639717181508956
 20
-149.1893421511198028
 30
0.0
 11
101.5639717181508956
 21
-149.1893421511198028
 31
0.0
  0
LINE
  5
143C1
  8
0
 10
103.5639717181508956
 20
-139.6893421511198028
 30
0.0
 11
101.5639717181508956
 21
-139.6893421511198028
 31
0.0
  0
LINE
  5
143C2
  8
0
 10
101.5639317181509966
 20
-149.1893721511189881
 30
0.0
 11
98.4999817181512753
 21
-149.0936190294827099
 31
0.0
  0
LINE
  5
143C3
  8
0
 10
-52.450063678277381
 20
-110.4394619013630034
 30
0.0
 11
-52.4500594688269075
 21
-93.439414181152415
 31
0.0
  0
LINE
  5
143C4
  8
0
 10
-52.4500599999939823
 20
-93.4394141811526424
 30
0.0
 11
52.4500594688391786
 21
-93.439414181152415
 31
0.0
  0
LINE
  5
143C5
  8
0
 10
-52.4500601097771479
 20
-110.4394619013586976
 30
0.0
 11
52.4500636782896734
 21
-110.4394619013630034
 31
0.0
  0
LINE
  5
143C6
  8
0
 10
-8.0000029868226648
 20
-257.9393996686143282
 30
0.0
 11
-7.9997575327236063
 21
-271.4886123273170142
 31
0.0
  0
LINE
  5
143C7
  8
0
 10
-65.7500100000058865
 20
-46.1893922511073924
 30
0.0
 11
-47.2999999999938083
 21
-64.6394022511193498
 31
0.0
  0
LINE
  5
143C8
  8
0
 10
-47.2999999999938083
 20
-64.6394022511193498
 30
0.0
 11
47.3000000000060865
 21
-64.6394022511193498
 31
0.0
  0
LINE
  5
143C9
  8
0
 10
-14.9999940892659005
 20
-93.4394051461681556
 30
0.0
 11
-14.9999999999938591
 21
-64.6394022511193498
 31
0.0
  0
LINE
  5
143CC
  8
0
 10
-69.9999399999935576
 20
57.3605977488784902
 30
0.0
 11
-69.9999399999935576
 21
53.3105977477137003
 31
0.0
  0
LINE
  5
143CD
  8
0
  6
CONTINUOUS
 10
-91.9763276498476898
 20
-25.4394011026945499
 30
0.0
 11
-69.9999465131415946
 21
-25.4394011026850002
 31
0.0
  0
LINE
  5
143CE
  8
0
 10
-69.9999399999910565
 20
25.3605988973137109
 30
0.0
 11
-91.9763276498476898
 21
25.360598897313821
 31
0.0
  0
ARC
  5
143CF
  8
0
 10
-91.9763276498476898
 20
-76.2394011026892713
 30
0.0
 40
101.5999999999999943
 50
90.0
 51
135.0000000000003126
  0
ARC
  5
143D0
  8
0
 10
-91.9763276498476898
 20
-76.2394011026892713
 30
0.0
 40
50.7999999999999972
 50
90.0
 51
135.0000000000003126
  0
LINE
  5
143D1
  8
0
 10
-138.3256394764927961
 20
-50.7466639607869183
 30
0.0
 11
-174.2466639607752938
 21
-14.8256394765041897
 31
0.0
  0
LINE
  5
143D2
  8
0
 10
-137.3353591980915098
 20
-49.7563836823719612
 30
0.0
 11
-127.8973521341287949
 21
-40.3183766184092676
 31
0.0
  0
ARC
  5
143D3
  8
0
 10
-135.9211456357215866
 20
-51.1705972447418773
 30
0.0
 40
1.9999999999999989
 50
135.0000000000003126
 51
205.0000340500785967
  0
LINE
  5
143D4
  8
0
 10
-137.3725830020295859
 20
-59.1274169979698101
 30
0.0
 11
-135.753421610189406
 21
-57.5082556061296302
 31
0.0
  0
LINE
  5
143D5
  8
0
 10
-135.5940397417168128
 20
-56.6044741448339366
 30
0.0
 11
-137.7337607074624941
 21
-52.0158348454189081
 31
0.0
  0
ARC
  5
143D6
  8
0
 10
-136.319099964072592
 20
-56.9425772522462168
 30
0.0
 40
0.8000000099999999
 50
315.0000000000002842
 51
24.9999999999844214
  0
ARC
  5
143D7
  8
0
 10
-174.6706338998457966
 20
-12.4211822908214309
 30
0.0
 40
1.9999999999999989
 50
244.9999659499137863
 51
315.0000000000002842
  0
LINE
  5
143D8
  8
0
 10
-182.627416997968993
 20
-13.8725830020305203
 30
0.0
 11
-181.0082203565931991
 21
-12.2534570571904098
 31
0.0
  0
LINE
  5
143D9
  8
0
 10
-137.3725830020295859
 20
-59.1274169979698101
 30
0.0
 11
-182.627416997968993
 21
-13.8725830020305203
 31
0.0
  0
LINE
  5
143DA
  8
0
 10
-180.1084040599837124
 20
-12.0922609370706997
 30
0.0
 11
-175.5158715005669876
 21
-14.2337973626201801
 31
0.0
  0
ARC
  5
143DB
  8
0
 10
-180.4425348258405108
 20
-12.8191423904784205
 30
0.0
 40
0.8000000099999999
 50
65.000000000014694
 51
135.0000100001583121
  0
LINE
  5
143DC
  8
0
 10
-173.256420337469109
 20
-13.8353958531981807
 30
0.0
 11
-163.8183766184044998
 21
-4.3973521341335982
 31
0.0
  0
LINE
  5
143DD
  8
0
 10
-135.8082535265199908
 20
-56.6612724634869735
 30
0.0
 11
-180.1612724634861991
 21
-12.3082535265209607
 31
0.0
  0
LINE
  5
143DE
  8
0
 62
     7
 10
-78.7499999999967031
 20
-46.1893922511073924
 30
0.0
 11
-78.7499999999967031
 21
-27.6894272511062809
 31
0.0
  0
LINE
  5
143DF
  8
0
 62
     7
 10
78.7500000000089813
 20
-46.1893922511073924
 30
0.0
 11
-78.7499999999967031
 21
-46.1893922511073924
 31
0.0
  0
LINE
  5
143E0
  8
0
 62
     7
 10
78.7500000000089813
 20
-27.6894272511062809
 30
0.0
 11
-78.7499999999967031
 21
-27.6894272511062809
 31
0.0
  0
LINE
  5
143E1
  8
0
 62
     7
 10
78.7500000000089813
 20
-46.1893922511073924
 30
0.0
 11
78.7500000000089813
 21
-27.6894272511062809
 31
0.0
  0
LINE
  5
143E2
  8
0
  6
CENTER
 10
-145.8578643765987977
 20
-22.3578643765997604
 30
0.0
 11
-162.1213203435588071
 21
-38.6213203435596597
 31
0.0
1001
GENIUS_GENODEF_13
1002
{
1000
HIER
1070
     0
1002
}
1002
{
1000
MANEDIT
1070
     0
1002
}
1002
{
1000
NOSEL
1070
     0
1002
}
1002
{
1000
BEHIND
1070
     0
1002
}
1002
{
1000
OTHER
1070
     0
1002
}
1002
{
1000
REACTOR
1002
}
1001
GENIUS_GENOBJ-N-CEN_13
1002
{
1000
OWNER
1000
GEN
1002
}
1001
GENIUS_GENCEN_19
1002
{
1040
3.0
1002
}
  0
ARC
  5
143E3
  8
0
  6
CENTER
 10
-91.9369463945045027
 20
-76.1999910430693035
 30
0.0
 40
76.1999999999994344
 50
89.9722195202061386
 51
135.0418919960733035
  0
LINE
  5
143E4
  8
0
 10
84.7500000000056843
 20
53.3105977477137003
 30
0.0
 11
84.7500000000044338
 21
28.8105977477201805
 31
0.0
  0
LINE
  5
143E5
  8
0
 10
69.9999400000034484
 20
-27.6894272511062809
 30
0.0
 11
69.9999400000033347
 21
28.8105977477200703
 31
0.0
  0
ARC
  5
143E6
  8
0
 10
91.9763276498599538
 20
-76.2394011026892713
 30
0.0
 40
101.5999999999999943
 50
44.9999999999916511
 51
90.0
  0
ARC
  5
143E7
  8
0
 10
91.9763276498599538
 20
-76.2394011026892713
 30
0.0
 40
50.7999999999999972
 50
44.9999999999916511
 51
90.0
  0
LINE
  5
143E8
  8
0
 10
138.3256394765051027
 20
-50.7466639607869183
 30
0.0
 11
174.2466639607876004
 21
-14.8256394765041897
 31
0.0
  0
LINE
  5
143E9
  8
0
 10
137.335359198103788
 20
-49.7563836823719612
 30
0.0
 11
127.8973521341411015
 21
-40.3183766184092676
 31
0.0
  0
ARC
  5
143EA
  8
0
 10
135.9211456357338079
 20
-51.1705972447418773
 30
0.0
 40
1.9999999999999989
 50
334.9999659499213749
 51
45.0000000000089173
  0
LINE
  5
143EB
  8
0
 10
137.3725830020418925
 20
-59.1274169979698101
 30
0.0
 11
135.7534216102017126
 21
-57.5082556061296302
 31
0.0
  0
LINE
  5
143EC
  8
0
 10
135.594039741729091
 20
-56.6044741448339366
 30
0.0
 11
137.7337607074748007
 21
-52.0158348454189081
 31
0.0
  0
ARC
  5
143ED
  8
0
 10
136.3190999640848986
 20
-56.9425772522462168
 30
0.0
 40
0.8000000099999999
 50
155.0000000000154898
 51
225.000000000008896
  0
ARC
  5
143EE
  8
0
 10
174.6706338998581032
 20
-12.4211822908214309
 30
0.0
 40
1.9999999999999989
 50
225.000000000008896
 51
295.0000340500861853
  0
LINE
  5
143EF
  8
0
 10
182.6274169979812996
 20
-13.8725830020305203
 30
0.0
 11
181.0082203566055057
 21
-12.2534570571904098
 31
0.0
  0
LINE
  5
143F0
  8
0
 10
137.3725830020418925
 20
-59.1274169979698101
 30
0.0
 11
182.6274169979812996
 21
-13.8725830020305203
 31
0.0
  0
LINE
  5
143F1
  8
0
 10
180.1084040599959906
 20
-12.0922609370706997
 30
0.0
 11
175.5158715005792942
 21
-14.2337973626201801
 31
0.0
  0
ARC
  5
143F2
  8
0
 10
180.442534825852789
 20
-12.8191423904784205
 30
0.0
 40
0.8000000099999999
 50
44.9999899998417021
 51
114.9999999999782005
  0
LINE
  5
143F3
  8
0
 10
173.2564203374813019
 20
-13.8353958531981807
 30
0.0
 11
163.8183766184168064
 21
-4.3973521341335982
 31
0.0
  0
LINE
  5
143F4
  8
0
 10
135.8082535265322974
 20
-56.6612724634869735
 30
0.0
 11
180.1612724634985057
 21
-12.3082535265209607
 31
0.0
  0
LINE
  5
143F5
  8
0
 62
     7
 10
78.7500000000089813
 20
-46.1893922511073924
 30
0.0
 11
78.7500000000089813
 21
-27.6894272511062809
 31
0.0
  0
LINE
  5
143F6
  8
0
  6
CENTER
 10
145.8578643766111043
 20
-22.3578643765997604
 30
0.0
 11
162.1213203435711137
 21
-38.6213203435596597
 31
0.0
1001
GENIUS_GENODEF_13
1002
{
1000
HIER
1070
     0
1002
}
1002
{
1000
MANEDIT
1070
     0
1002
}
1002
{
1000
NOSEL
1070
     0
1002
}
1002
{
1000
BEHIND
1070
     0
1002
}
1002
{
1000
OTHER
1070
     0
1002
}
1002
{
1000
REACTOR
1002
}
1001
GENIUS_GENOBJ-N-CEN_13
1002
{
1000
OWNER
1000
GEN
1002
}
1001
GENIUS_GENCEN_19
1002
{
1040
3.0
1002
}
  0
ARC
  5
143F7
  8
0
  6
CENTER
 10
91.9369463945167809
 20
-76.1999910430693035
 30
0.0
 40
76.1999999999994344
 50
44.9581080039266965
 51
90.0277804797938472
  0
LINE
  5
143F8
  8
0
 10
126.4999999999154028
 20
57.3605977483557581
 30
0.0
 11
126.5000000000024016
 21
81.3607354421776563
 31
0.0
  0
LINE
  5
143F9
  8
0
  6
CONTINUOUS
 10
91.9763276498599538
 20
-25.4394011026945499
 30
0.0
 11
69.9999465131538727
 21
-25.4394011026850002
 31
0.0
  0
LINE
  5
143FA
  8
0
 10
69.9999400000033347
 20
25.3605988973137109
 30
0.0
 11
91.9763276498599538
 21
25.360598897313821
 31
0.0
  0
LINE
  5
143FB
  8
0
  6
CENTER
 10
91.8999999999422243
 20
0.0
 30
0.0
 11
-91.8999999999299462
 21
0.0
 31
0.0
1001
GENIUS_GENODEF_13
1002
{
1000
HIER
1070
     0
1002
}
1002
{
1000
MANEDIT
1070
     0
1002
}
1002
{
1000
NOSEL
1070
     0
1002
}
1002
{
1000
BEHIND
1070
     0
1002
}
1002
{
1000
OTHER
1070
     0
1002
}
1002
{
1000
REACTOR
1002
}
1001
GENIUS_GENOBJ-N-CEN_13
1002
{
1000
OWNER
1000
GEN
1002
}
1001
GENIUS_GENCEN_19
1002
{
1040
3.0
1002
}
  0
LINE
  5
143FC
  8
0
 10
11.0000104868906892
 20
-271.4886123273169005
 30
0.0
 11
-11.0000104868784092
 21
-271.4886123273169005
 31
0.0
  0
LINE
  5
143FD
  8
0
 10
10.0000054868908101
 20
-275.2206723273171747
 30
0.0
 11
-9.9999904868784597
 21
-275.220747327317099
 31
0.0
  0
LINE
  5
143FE
  8
0
 10
11.0000104868906892
 20
-271.4886123273169005
 30
0.0
 11
9.9999904868907379
 21
-275.220747327317099
 31
0.0
  0
LINE
  5
143FF
  8
0
 10
10.0000054868908101
 20
-275.2206723273171747
 30
0.0
 11
10.0000054868908101
 21
-301.4884323273169002
 31
0.0
  0
LINE
  5
14400
  8
0
 10
-7.0000054868785346
 20
-304.4884323273169002
 30
0.0
 11
7.0000054868908128
 21
-304.4884323273169002
 31
0.0
  0
ARC
  5
14401
  8
0
 10
7.0000054868908128
 20
-301.4884323273169002
 30
0.0
 40
3.0
 50
270.0
 51
0.0
  0
LINE
  5
14402
  8
0
 10
-9.9999669798373816
 20
-275.220747327228878
 30
0.0
 11
-10.0000054868785302
 21
-301.4884323273169002
 31
0.0
  0
LINE
  5
14403
  8
0
 10
-11.0000104868784092
 20
-271.4886123273169005
 30
0.0
 11
-9.9999904868784597
 21
-275.220747327317099
 31
0.0
  0
ARC
  5
14404
  8
0
 10
-7.0000054868785346
 20
-301.4884323273169002
 30
0.0
 40
3.0
 50
180.0
 51
270.0
  0
LINE
  5
14405
  8
0
 10
52.4500636782896734
 20
-110.4394619013630034
 30
0.0
 11
52.4500594688391786
 21
-93.439414181152415
 31
0.0
  0
LINE
  5
14406
  8
0
 10
39.5000273467169407
 20
-120.9394021511191966
 30
0.0
 11
39.5000273467169407
 21
-110.439446280092298
 31
0.0
  0
LINE
  5
14408
  8
0
 10
65.7500100000181646
 20
-46.1893922511073924
 30
0.0
 11
47.3000000000060865
 21
-64.6394022511193498
 31
0.0
  0
LINE
  5
1440A
  8
0
 10
14.9999940892781698
 20
-93.4394051461681556
 30
0.0
 11
15.0000000000061409
 21
-64.6874467927457317
 31
0.0
  0
LINE
  5
1440E
  8
0
 10
69.9999400000058358
 20
57.3605977488784902
 30
0.0
 11
69.9999400000058358
 21
53.3105977477137003
 31
0.0
  0
LINE
  5
1440F
  8
0
  6
CENTER
 10
0.0000000000159162
 20
97.7607354417195893
 30
0.0
 11
0.0000000000159162
 21
-319.7050670832268793
 31
0.0
1001
GENIUS_GENOBJ-N-CEN_13
1002
{
1000
OWNER
1000
GEN
1002
}
1001
GENIUS_GENODEF_13
1002
{
1000
HIER
1070
     0
1002
}
1002
{
1000
MANEDIT
1070
     0
1002
}
1002
{
1000
NOSEL
1070
     0
1002
}
1002
{
1000
BEHIND
1070
     0
1002
}
1002
{
1000
OTHER
1070
     0
1002
}
1002
{
1000
REACTOR
1002
}
1001
GENIUS_GENCEN_19
1002
{
1040
3.0
1002
}
  0
CIRCLE
  5
14410
  8
0
 62
     7
 10
0.0000000000159162
 20
-496.0066042151785837
 30
0.0
 40
89.0000182818646408
  0
CIRCLE
  5
14411
  8
0
 62
     7
 10
0.0000000000159162
 20
-496.0066042151785837
 30
0.0
 40
98.5000182818646408
  0
ARC
  5
14412
  8
0
 62
     7
 10
0.0000000000159162
 20
-496.0066042151785837
 30
0.0
 40
126.5000000000058975
 50
191.5831899281097037
 51
348.416810071890211
  0
ARC
  5
14413
  8
0
 62
     7
 10
0.0000000000159162
 20
-496.0066042151785837
 30
0.0
 40
126.5000000000058975
 50
11.5831899281097606
 51
168.416810071890211
  0
ENDSEC
  0
EOF
