  0
SECTION
  2
HEADER
  9
$ACADVER
  1
AC1009
  9
$INSBASE
 10
0.0
 20
0.0
 30
0.0
  9
$EXTMIN
 10
-379.1666666666665719
 20
-532.7212373852164546
 30
0.0
  9
$EXTMAX
 10
379.1666666666667993
 20
225.0
 30
0.0
  9
$LIMMIN
 10
0.0
 20
0.0
  9
$LIMMAX
 10
420.0
 20
297.0
  9
$ORTHOMODE
 70
     0
  9
$REGENMODE
 70
     1
  9
$FILLMODE
 70
     1
  9
$QTEXTMODE
 70
     0
  9
$MIRRTEXT
 70
     0
  9
$DRAGMODE
 70
     2
  9
$LTSCALE
 40
1.0
  9
$OSMODE
 70
  2751
  9
$ATTMODE
 70
     1
  9
$TEXTSIZE
 40
2.5
  9
$TRACEWID
 40
1.0
  9
$TEXTSTYLE
  7
STANDARD
  9
$CLAYER
  8
0
  9
$CELTYPE
  6
BYLAYER
  9
$CECOLOR
 62
     7
  9
$DIMSCALE
 40
1.0
  9
$DIMASZ
 40
0.18
  9
$DIMEXO
 40
0.0625
  9
$DIMDLI
 40
0.38
  9
$DIMRND
 40
0.0
  9
$DIMDLE
 40
0.0
  9
$DIMEXE
 40
0.18
  9
$DIMTP
 40
0.0
  9
$DIMTM
 40
0.0
  9
$DIMTXT
 40
0.18
  9
$DIMCEN
 40
0.09
  9
$DIMTSZ
 40
0.0
  9
$DIMTOL
 70
     0
  9
$DIMLIM
 70
     0
  9
$DIMTIH
 70
     1
  9
$DIMTOH
 70
     1
  9
$DIMSE1
 70
     0
  9
$DIMSE2
 70
     0
  9
$DIMTAD
 70
     0
  9
$DIMZIN
 70
     0
  9
$DIMBLK
  1

  9
$DIMASO
 70
     1
  9
$DIMSHO
 70
     1
  9
$DIMPOST
  1

  9
$DIMAPOST
  1

  9
$DIMALT
 70
     0
  9
$DIMALTD
 70
     2
  9
$DIMALTF
 40
25.3999999999999986
  9
$DIMLFAC
 40
1.0
  9
$DIMTOFL
 70
     0
  9
$DIMTVP
 40
0.0
  9
$DIMTIX
 70
     0
  9
$DIMSOXD
 70
     0
  9
$DIMSAH
 70
     0
  9
$DIMBLK1
  1

  9
$DIMBLK2
  1

  9
$DIMSTYLE
  2
STANDARD
  9
$DIMCLRD
 70
     0
  9
$DIMCLRE
 70
     0
  9
$DIMCLRT
 70
     0
  9
$DIMTFAC
 40
1.0
  9
$DIMGAP
 40
0.09
  9
$LUNITS
 70
     2
  9
$LUPREC
 70
     8
  9
$SKETCHINC
 40
1.0
  9
$FILLETRAD
 40
0.0
  9
$AUNITS
 70
     0
  9
$AUPREC
 70
     0
  9
$MENU
  1
.
  9
$ELEVATION
 40
0.0
  9
$PELEVATION
 40
0.0
  9
$THICKNESS
 40
0.0
  9
$LIMCHECK
 70
     0
  9
$BLIPMODE
 70
     0
  9
$CHAMFERA
 40
0.0
  9
$CHAMFERB
 40
0.0
  9
$SKPOLY
 70
     0
  9
$TDCREATE
 40
2455533.587210648227483
  9
$TDUPDATE
 40
2459951.6473842598497868
  9
$TDINDWG
 40
8.9717587616000003
  9
$TDUSRTIMER
 40
8.9717585763999992
  9
$USRTIMER
 70
     1
  9
$ANGBASE
 50
0.0
  9
$ANGDIR
 70
     0
  9
$PDMODE
 70
     0
  9
$PDSIZE
 40
0.0
  9
$PLINEWID
 40
0.0
  9
$COORDS
 70
     1
  9
$SPLFRAME
 70
     0
  9
$SPLINETYPE
 70
     6
  9
$SPLINESEGS
 70
     8
  9
$ATTDIA
 70
     1
  9
$ATTREQ
 70
     1
  9
$HANDLING
 70
     1
  9
$HANDSEED
  5
11AB9
  9
$SURFTAB1
 70
     6
  9
$SURFTAB2
 70
     6
  9
$SURFTYPE
 70
     6
  9
$SURFU
 70
     6
  9
$SURFV
 70
     6
  9
$UCSNAME
  2

  9
$UCSORG
 10
0.0
 20
0.0
 30
0.0
  9
$UCSXDIR
 10
1.0
 20
0.0
 30
0.0
  9
$UCSYDIR
 10
0.0
 20
1.0
 30
0.0
  9
$PUCSNAME
  2

  9
$PUCSORG
 10
0.0
 20
0.0
 30
0.0
  9
$PUCSXDIR
 10
1.0
 20
0.0
 30
0.0
  9
$PUCSYDIR
 10
0.0
 20
1.0
 30
0.0
  9
$USERI1
 70
     0
  9
$USERI2
 70
     0
  9
$USERI3
 70
     0
  9
$USERI4
 70
     0
  9
$USERI5
 70
     0
  9
$USERR1
 40
0.0
  9
$USERR2
 40
0.0
  9
$USERR3
 40
0.0
  9
$USERR4
 40
0.0
  9
$USERR5
 40
0.0
  9
$WORLDVIEW
 70
     1
  9
$SHADEDGE
 70
     3
  9
$SHADEDIF
 70
    70
  9
$TILEMODE
 70
     1
  9
$MAXACTVP
 70
    64
  9
$PLIMCHECK
 70
     0
  9
$PEXTMIN
 10
0.0
 20
0.0
 30
0.0
  9
$PEXTMAX
 10
0.0
 20
0.0
 30
0.0
  9
$PLIMMIN
 10
0.0
 20
0.0
  9
$PLIMMAX
 10
12.0
 20
9.0
  9
$UNITMODE
 70
     0
  9
$VISRETAIN
 70
     1
  9
$PLINEGEN
 70
     0
  9
$PSLTSCALE
 70
     1
  0
ENDSEC
  0
SECTION
  2
TABLES
  0
TABLE
  2
VPORT
 70
     1
  0
VPORT
  2
*ACTIVE
 70
     0
 10
0.0
 20
0.0
 11
1.0
 21
1.0
 12
261.6150472359533978
 22
-63.1007923034315965
 13
0.0
 23
0.0
 14
10.0
 24
10.0
 15
10.0
 25
10.0
 16
0.0
 26
0.0
 36
1.0
 17
0.0
 27
0.0
 37
0.0
 40
1277.725325396603921
 41
2.198717948717948
 42
50.0
 43
0.0
 44
0.0
 50
0.0
 51
0.0
 71
     0
 72
  1000
 73
     1
 74
     3
 75
     0
 76
     0
 77
     0
 78
     0
  0
ENDTAB
  0
TABLE
  2
LTYPE
 70
     2
  0
LTYPE
  2
CONTINUOUS
 70
     0
  3
Solid line
 72
    65
 73
     0
 40
0.0
  0
LTYPE
  2
CENTER
 70
     0
  3
Center ____ _ ____ _ ____ _ ____ _ ____ _ ____
 72
    65
 73
     4
 40
50.7999999999999972
 49
31.75
 49
-6.3499999999999988
 49
6.3499999999999988
 49
-6.3499999999999988
  0
ENDTAB
  0
TABLE
  2
LAYER
 70
     3
  0
LAYER
  2
0
 70
     0
 62
     7
  6
CONTINUOUS
  0
LAYER
  2
画層1
 70
     0
 62
     2
  6
CONTINUOUS
  0
LAYER
  2
DEFPOINTS
 70
     0
 62
     7
  6
CONTINUOUS
  0
ENDTAB
  0
TABLE
  2
STYLE
 70
     2
  0
STYLE
  2
STANDARD
 70
     0
 40
0.0
 41
1.0
 50
0.0
 71
     0
 42
2.5
  3
txt.shx
  4

  0
STYLE
  2
1-1
 70
     0
 40
3.2000000000000002
 41
0.85
 50
0.0
 71
     0
 42
600.0
  3
romans.shx
  4
BIGFONT.shx
  0
ENDTAB
  0
TABLE
  2
VIEW
 70
     0
  0
ENDTAB
  0
TABLE
  2
UCS
 70
     0
  0
ENDTAB
  0
TABLE
  2
APPID
 70
    41
  0
APPID
  2
ACAD
 70
     0
  0
APPID
  2
ACAD_PSEXT
 70
     0
  0
APPID
  2
ACAD_EXEMPT_FROM_CAD_STANDARDS
 70
     0
  0
APPID
  2
ACAECLAYERSTANDARD
 70
     0
  0
APPID
  2
ACAD_DSTYLE_DIMTEXT_FILL
 70
     0
  0
APPID
  2
ACAD_DSTYLE_DIMEXT_LENGTH
 70
     0
  0
APPID
  2
ACAD_DSTYLE_DIMEXT_ENABLED
 70
     0
  0
APPID
  2
ACAD_DSTYLE_DIM_LINETYPE
 70
     0
  0
APPID
  2
ACAD_DSTYLE_DIM_EXT1_LINETYPE
 70
     0
  0
APPID
  2
ACAD_DSTYLE_DIM_EXT2_LINETYPE
 70
     0
  0
APPID
  2
ACAD_DSTYLE_DIMJOGGED_JOGA
 70
     0
  0
APPID
  2
ACAD_DSTYLE_DIMARC_LENGTH_
 70
     0
  0
APPID
  2
MCAD_NO_VIS
 70
     0
  0
APPID
  2
ACAD_TEMP_GRAPHIC
 70
     0
  0
APPID
  2
AD_DRAW
 70
     0
  0
APPID
  2
ACATTRIBSERVICES
 70
     0
  0
APPID
  2
DESIGNERASSEMBLIES
 70
     0
  0
APPID
  2
ACADM_DIM_EDIT
 70
     0
  0
APPID
  2
AMDT_DM_ADJ
 70
     0
  0
APPID
  2
ACAD_DSTYLE_DIMJAG
 70
     0
  0
APPID
  2
ACAD_DSTYLE_DIMBREAK
 70
     0
  0
APPID
  2
ACAD_DSTYLE_DIMINSPECT
 70
     0
  0
APPID
  2
ACDBDYNAMICBLOCKGUID
 70
     0
  0
APPID
  2
GENIUS_GENDIMSH_14
 70
     0
  0
APPID
  2
GENIUS_GENODEF_13
 70
     0
  0
APPID
  2
GENIUS_GENOBJ-N-FIL_13
 70
     0
  0
APPID
  2
GENIUS_GENOBJ-N-CEN_13
 70
     0
  0
APPID
  2
GENIUS_GENCEN_19
 70
     0
  0
APPID
  2
ACAUTHENVIRON
 70
     0
  0
APPID
  2
ACADANNOPO
 70
     0
  0
APPID
  2
GENIUS_GENOBJ-N-HTC_13
 70
     0
  0
APPID
  2
GENIUS_GENHATCH_13
 70
     0
  0
APPID
  2
GENIUS_GENDTOL_13
 70
     0
  0
APPID
  2
ACAD_DSTYLE_DIMRADIAL_EXTENSION
 70
     0
  0
APPID
  2
ACAD_DSTYLE_DIMANGULAR_EXT
 70
     0
  0
APPID
  2
GENIUS_AMGTXT_16
 70
     0
  0
APPID
  2
GRADIENTCOLOR1ACI
 70
     0
  0
APPID
  2
GRADIENTCOLOR2ACI
 70
     0
  0
APPID
  2
ACAD_NAV_VCDISPLAY
 70
     0
  0
APPID
  2
ACCMTRANSPARENCY
 70
     0
  0
APPID
  2
ACAD_MLEADERVER
 70
     0
  0
ENDTAB
  0
TABLE
  2
DIMSTYLE
 70
     1
  0
DIMSTYLE
  2
STANDARD
 70
     0
  3

  4

  5

  6

  7

 40
1.0
 41
0.18
 42
0.0625
 43
0.38
 44
0.18
 45
0.0
 46
0.0
 47
0.0
 48
0.0
140
0.18
141
0.09
142
0.0
143
25.3999999999999986
144
1.0
145
0.0
146
1.0
147
0.09
 71
     0
 72
     0
 73
     1
 74
     1
 75
     0
 76
     0
 77
     0
 78
     0
170
     0
171
     2
172
     0
173
     0
174
     0
175
     0
176
     0
177
     0
178
     0
  0
ENDTAB
  0
ENDSEC
  0
SECTION
  2
BLOCKS
  0
BLOCK
  8
0
  2
$MODEL_SPACE
 70
     0
 10
0.0
 20
0.0
 30
0.0
  3
$MODEL_SPACE
  1

  0
ENDBLK
  5
21
  8
0
  0
BLOCK
 67
     1
  8
0
  2
$PAPER_SPACE
 70
     0
 10
0.0
 20
0.0
 30
0.0
  3
$PAPER_SPACE
  1

  0
ENDBLK
  5
D5
 67
     1
  8
0
  0
BLOCK
  8
0
  2
_OPEN
 70
     0
 10
0.0
 20
0.0
 30
0.0
  3
_OPEN
  1

  0
LINE
  5
1151C
  8
0
  6
BYBLOCK
 62
     0
 10
-1.0
 20
0.1666666666666666
 30
0.0
 11
0.0
 21
0.0
 31
0.0
  0
LINE
  5
1151D
  8
0
  6
BYBLOCK
 62
     0
 10
0.0
 20
0.0
 30
0.0
 11
-1.0
 21
-0.1666666666666666
 31
0.0
  0
LINE
  5
1151E
  8
0
  6
BYBLOCK
 62
     0
 10
0.0
 20
0.0
 30
0.0
 11
-1.0
 21
0.0
 31
0.0
  0
ENDBLK
  5
1151F
  8
0
  0
ENDSEC
  0
SECTION
  2
ENTITIES
  0
TEXT
  5
113CD
  8
0
 10
-379.1666666666665719
 20
175.0
 30
0.0
 40
50.0
  1
DMC2T14RD0PY 1.5S
 72
     4
 11
0.0
 21
200.0
 31
0.0
  0
LINE
  5
11629
  8
画層1
  6
CENTER
 62
     7
 10
0.0
 20
-321.5945930435818241
 30
0.0
 11
0.0
 21
-532.7212373852164546
 31
0.0
  0
LINE
  5
1162A
  8
画層1
  6
CONTINUOUS
 62
     7
 10
-81.2979418497310462
 20
-446.2079152143991223
 30
0.0
 11
-116.2670456009659006
 21
-446.2079152143991223
 31
0.0
  0
LINE
  5
1162B
  8
画層1
  6
CONTINUOUS
 62
     7
 10
-81.2979418497310462
 20
-408.1079152143992133
 30
0.0
 11
-116.2670456009658011
 21
-408.1079152143992133
 31
0.0
  0
POLYLINE
  5
1162C
  8
画層1
 62
     7
 10
-130.0010882606179905
 20
-401.9079152143991678
 30
0.0
 66
     1
 70
     8
  0
VERTEX
  8
画層1
  5
117AD
 10
-130.001
 20
-401.908
 30
0.00000
  70
    32
  0
VERTEX
  8
画層1
  5
117AE
 10
-130.877
 20
-401.938
 30
0.00000
  70
    32
  0
VERTEX
  8
画層1
  5
117AF
 10
-131.751
 20
-402.030
 30
0.00000
  70
    32
  0
VERTEX
  8
画層1
  5
117B0
 10
-132.621
 20
-402.181
 30
0.00000
  70
    32
  0
VERTEX
  8
画層1
  5
117B1
 10
-133.484
 20
-402.393
 30
0.00000
  70
    32
  0
VERTEX
  8
画層1
  5
117B2
 10
-134.339
 20
-402.665
 30
0.00000
  70
    32
  0
VERTEX
  8
画層1
  5
117B3
 10
-135.184
 20
-402.995
 30
0.00000
  70
    32
  0
VERTEX
  8
画層1
  5
117B4
 10
-136.016
 20
-403.384
 30
0.00000
  70
    32
  0
VERTEX
  8
画層1
  5
117B5
 10
-136.834
 20
-403.830
 30
0.00000
  70
    32
  0
VERTEX
  8
画層1
  5
117B6
 10
-137.635
 20
-404.332
 30
0.00000
  70
    32
  0
VERTEX
  8
画層1
  5
117B7
 10
-138.418
 20
-404.889
 30
0.00000
  70
    32
  0
VERTEX
  8
画層1
  5
117B8
 10
-139.180
 20
-405.500
 30
0.00000
  70
    32
  0
VERTEX
  8
画層1
  5
117B9
 10
-139.920
 20
-406.163
 30
0.00000
  70
    32
  0
VERTEX
  8
画層1
  5
117BA
 10
-140.637
 20
-406.877
 30
0.00000
  70
    32
  0
VERTEX
  8
画層1
  5
117BB
 10
-141.328
 20
-407.639
 30
0.00000
  70
    32
  0
VERTEX
  8
画層1
  5
117BC
 10
-141.991
 20
-408.449
 30
0.00000
  70
    32
  0
VERTEX
  8
画層1
  5
117BD
 10
-142.626
 20
-409.303
 30
0.00000
  70
    32
  0
VERTEX
  8
画層1
  5
117BE
 10
-143.230
 20
-410.201
 30
0.00000
  70
    32
  0
VERTEX
  8
画層1
  5
117BF
 10
-143.803
 20
-411.139
 30
0.00000
  70
    32
  0
VERTEX
  8
画層1
  5
117C0
 10
-144.342
 20
-412.117
 30
0.00000
  70
    32
  0
VERTEX
  8
画層1
  5
117C1
 10
-144.847
 20
-413.130
 30
0.00000
  70
    32
  0
VERTEX
  8
画層1
  5
117C2
 10
-145.315
 20
-414.177
 30
0.00000
  70
    32
  0
VERTEX
  8
画層1
  5
117C3
 10
-145.747
 20
-415.255
 30
0.00000
  70
    32
  0
VERTEX
  8
画層1
  5
117C4
 10
-146.141
 20
-416.362
 30
0.00000
  70
    32
  0
VERTEX
  8
画層1
  5
117C5
 10
-146.496
 20
-417.495
 30
0.00000
  70
    32
  0
VERTEX
  8
画層1
  5
117C6
 10
-146.812
 20
-418.651
 30
0.00000
  70
    32
  0
VERTEX
  8
画層1
  5
117C7
 10
-147.087
 20
-419.828
 30
0.00000
  70
    32
  0
VERTEX
  8
画層1
  5
117C8
 10
-147.320
 20
-421.023
 30
0.00000
  70
    32
  0
VERTEX
  8
画層1
  5
117C9
 10
-147.512
 20
-422.232
 30
0.00000
  70
    32
  0
VERTEX
  8
画層1
  5
117CA
 10
-147.662
 20
-423.453
 30
0.00000
  70
    32
  0
VERTEX
  8
画層1
  5
117CB
 10
-147.770
 20
-424.683
 30
0.00000
  70
    32
  0
VERTEX
  8
画層1
  5
117CC
 10
-147.834
 20
-425.919
 30
0.00000
  70
    32
  0
VERTEX
  8
画層1
  5
117CD
 10
-147.856
 20
-427.158
 30
0.00000
  70
    32
  0
VERTEX
  8
画層1
  5
117CE
 10
-147.834
 20
-428.397
 30
0.00000
  70
    32
  0
VERTEX
  8
画層1
  5
117CF
 10
-147.770
 20
-429.633
 30
0.00000
  70
    32
  0
VERTEX
  8
画層1
  5
117D0
 10
-147.662
 20
-430.863
 30
0.00000
  70
    32
  0
VERTEX
  8
画層1
  5
117D1
 10
-147.512
 20
-432.084
 30
0.00000
  70
    32
  0
VERTEX
  8
画層1
  5
117D2
 10
-147.320
 20
-433.293
 30
0.00000
  70
    32
  0
VERTEX
  8
画層1
  5
117D3
 10
-147.087
 20
-434.488
 30
0.00000
  70
    32
  0
VERTEX
  8
画層1
  5
117D4
 10
-146.812
 20
-435.664
 30
0.00000
  70
    32
  0
VERTEX
  8
画層1
  5
117D5
 10
-146.496
 20
-436.821
 30
0.00000
  70
    32
  0
VERTEX
  8
画層1
  5
117D6
 10
-146.141
 20
-437.954
 30
0.00000
  70
    32
  0
VERTEX
  8
画層1
  5
117D7
 10
-145.747
 20
-439.061
 30
0.00000
  70
    32
  0
VERTEX
  8
画層1
  5
117D8
 10
-145.315
 20
-440.139
 30
0.00000
  70
    32
  0
VERTEX
  8
画層1
  5
117D9
 10
-144.847
 20
-441.186
 30
0.00000
  70
    32
  0
VERTEX
  8
画層1
  5
117DA
 10
-144.342
 20
-442.199
 30
0.00000
  70
    32
  0
VERTEX
  8
画層1
  5
117DB
 10
-143.803
 20
-443.176
 30
0.00000
  70
    32
  0
VERTEX
  8
画層1
  5
117DC
 10
-143.230
 20
-444.115
 30
0.00000
  70
    32
  0
VERTEX
  8
画層1
  5
117DD
 10
-142.626
 20
-445.012
 30
0.00000
  70
    32
  0
VERTEX
  8
画層1
  5
117DE
 10
-141.991
 20
-445.867
 30
0.00000
  70
    32
  0
VERTEX
  8
画層1
  5
117DF
 10
-141.328
 20
-446.676
 30
0.00000
  70
    32
  0
VERTEX
  8
画層1
  5
117E0
 10
-140.637
 20
-447.439
 30
0.00000
  70
    32
  0
VERTEX
  8
画層1
  5
117E1
 10
-139.920
 20
-448.153
 30
0.00000
  70
    32
  0
VERTEX
  8
画層1
  5
117E2
 10
-139.180
 20
-448.816
 30
0.00000
  70
    32
  0
VERTEX
  8
画層1
  5
117E3
 10
-138.418
 20
-449.426
 30
0.00000
  70
    32
  0
VERTEX
  8
画層1
  5
117E4
 10
-137.635
 20
-449.984
 30
0.00000
  70
    32
  0
VERTEX
  8
画層1
  5
117E5
 10
-136.834
 20
-450.486
 30
0.00000
  70
    32
  0
VERTEX
  8
画層1
  5
117E6
 10
-136.016
 20
-450.932
 30
0.00000
  70
    32
  0
VERTEX
  8
画層1
  5
117E7
 10
-135.184
 20
-451.321
 30
0.00000
  70
    32
  0
VERTEX
  8
画層1
  5
117E8
 10
-134.339
 20
-451.651
 30
0.00000
  70
    32
  0
VERTEX
  8
画層1
  5
117E9
 10
-133.484
 20
-451.923
 30
0.00000
  70
    32
  0
VERTEX
  8
画層1
  5
117EA
 10
-132.621
 20
-452.135
 30
0.00000
  70
    32
  0
VERTEX
  8
画層1
  5
117EB
 10
-131.751
 20
-452.286
 30
0.00000
  70
    32
  0
VERTEX
  8
画層1
  5
117EC
 10
-130.877
 20
-452.378
 30
0.00000
  70
    32
  0
VERTEX
  8
画層1
  5
117ED
 10
-130.001
 20
-452.408
 30
0.00000
  70
    32
  0
VERTEX
  8
画層1
  5
117EE
 10
-129.125
 20
-452.378
 30
0.00000
  70
    32
  0
VERTEX
  8
画層1
  5
117EF
 10
-128.251
 20
-452.286
 30
0.00000
  70
    32
  0
VERTEX
  8
画層1
  5
117F0
 10
-127.381
 20
-452.135
 30
0.00000
  70
    32
  0
VERTEX
  8
画層1
  5
117F1
 10
-126.518
 20
-451.923
 30
0.00000
  70
    32
  0
VERTEX
  8
画層1
  5
117F2
 10
-125.663
 20
-451.651
 30
0.00000
  70
    32
  0
VERTEX
  8
画層1
  5
117F3
 10
-124.818
 20
-451.321
 30
0.00000
  70
    32
  0
VERTEX
  8
画層1
  5
117F4
 10
-123.986
 20
-450.932
 30
0.00000
  70
    32
  0
VERTEX
  8
画層1
  5
117F5
 10
-123.168
 20
-450.486
 30
0.00000
  70
    32
  0
VERTEX
  8
画層1
  5
117F6
 10
-122.367
 20
-449.984
 30
0.00000
  70
    32
  0
VERTEX
  8
画層1
  5
117F7
 10
-121.585
 20
-449.426
 30
0.00000
  70
    32
  0
VERTEX
  8
画層1
  5
117F8
 10
-120.822
 20
-448.816
 30
0.00000
  70
    32
  0
VERTEX
  8
画層1
  5
117F9
 10
-120.082
 20
-448.153
 30
0.00000
  70
    32
  0
VERTEX
  8
画層1
  5
117FA
 10
-119.365
 20
-447.439
 30
0.00000
  70
    32
  0
VERTEX
  8
画層1
  5
117FB
 10
-118.674
 20
-446.676
 30
0.00000
  70
    32
  0
VERTEX
  8
画層1
  5
117FC
 10
-118.011
 20
-445.867
 30
0.00000
  70
    32
  0
VERTEX
  8
画層1
  5
117FD
 10
-117.376
 20
-445.012
 30
0.00000
  70
    32
  0
VERTEX
  8
画層1
  5
117FE
 10
-116.772
 20
-444.115
 30
0.00000
  70
    32
  0
VERTEX
  8
画層1
  5
117FF
 10
-116.199
 20
-443.176
 30
0.00000
  70
    32
  0
VERTEX
  8
画層1
  5
11800
 10
-115.660
 20
-442.199
 30
0.00000
  70
    32
  0
VERTEX
  8
画層1
  5
11801
 10
-115.156
 20
-441.186
 30
0.00000
  70
    32
  0
VERTEX
  8
画層1
  5
11802
 10
-114.687
 20
-440.139
 30
0.00000
  70
    32
  0
VERTEX
  8
画層1
  5
11803
 10
-114.255
 20
-439.061
 30
0.00000
  70
    32
  0
VERTEX
  8
画層1
  5
11804
 10
-113.861
 20
-437.954
 30
0.00000
  70
    32
  0
VERTEX
  8
画層1
  5
11805
 10
-113.506
 20
-436.821
 30
0.00000
  70
    32
  0
VERTEX
  8
画層1
  5
11806
 10
-113.190
 20
-435.664
 30
0.00000
  70
    32
  0
VERTEX
  8
画層1
  5
11807
 10
-112.915
 20
-434.488
 30
0.00000
  70
    32
  0
VERTEX
  8
画層1
  5
11808
 10
-112.682
 20
-433.293
 30
0.00000
  70
    32
  0
VERTEX
  8
画層1
  5
11809
 10
-112.490
 20
-432.084
 30
0.00000
  70
    32
  0
VERTEX
  8
画層1
  5
1180A
 10
-112.340
 20
-430.863
 30
0.00000
  70
    32
  0
VERTEX
  8
画層1
  5
1180B
 10
-112.233
 20
-429.633
 30
0.00000
  70
    32
  0
VERTEX
  8
画層1
  5
1180C
 10
-112.168
 20
-428.397
 30
0.00000
  70
    32
  0
VERTEX
  8
画層1
  5
1180D
 10
-112.147
 20
-427.158
 30
0.00000
  70
    32
  0
VERTEX
  8
画層1
  5
1180E
 10
-112.168
 20
-425.919
 30
0.00000
  70
    32
  0
VERTEX
  8
画層1
  5
1180F
 10
-112.233
 20
-424.683
 30
0.00000
  70
    32
  0
VERTEX
  8
画層1
  5
11810
 10
-112.340
 20
-423.453
 30
0.00000
  70
    32
  0
VERTEX
  8
画層1
  5
11811
 10
-112.490
 20
-422.232
 30
0.00000
  70
    32
  0
VERTEX
  8
画層1
  5
11812
 10
-112.682
 20
-421.023
 30
0.00000
  70
    32
  0
VERTEX
  8
画層1
  5
11813
 10
-112.915
 20
-419.828
 30
0.00000
  70
    32
  0
VERTEX
  8
画層1
  5
11814
 10
-113.190
 20
-418.651
 30
0.00000
  70
    32
  0
VERTEX
  8
画層1
  5
11815
 10
-113.506
 20
-417.495
 30
0.00000
  70
    32
  0
VERTEX
  8
画層1
  5
11816
 10
-113.861
 20
-416.362
 30
0.00000
  70
    32
  0
VERTEX
  8
画層1
  5
11817
 10
-114.255
 20
-415.255
 30
0.00000
  70
    32
  0
VERTEX
  8
画層1
  5
11818
 10
-114.687
 20
-414.177
 30
0.00000
  70
    32
  0
VERTEX
  8
画層1
  5
11819
 10
-115.156
 20
-413.130
 30
0.00000
  70
    32
  0
VERTEX
  8
画層1
  5
1181A
 10
-115.660
 20
-412.117
 30
0.00000
  70
    32
  0
VERTEX
  8
画層1
  5
1181B
 10
-116.199
 20
-411.139
 30
0.00000
  70
    32
  0
VERTEX
  8
画層1
  5
1181C
 10
-116.772
 20
-410.201
 30
0.00000
  70
    32
  0
VERTEX
  8
画層1
  5
1181D
 10
-117.376
 20
-409.303
 30
0.00000
  70
    32
  0
VERTEX
  8
画層1
  5
1181E
 10
-118.011
 20
-408.449
 30
0.00000
  70
    32
  0
VERTEX
  8
画層1
  5
1181F
 10
-118.674
 20
-407.639
 30
0.00000
  70
    32
  0
VERTEX
  8
画層1
  5
11820
 10
-119.365
 20
-406.877
 30
0.00000
  70
    32
  0
VERTEX
  8
画層1
  5
11821
 10
-120.082
 20
-406.163
 30
0.00000
  70
    32
  0
VERTEX
  8
画層1
  5
11822
 10
-120.822
 20
-405.500
 30
0.00000
  70
    32
  0
VERTEX
  8
画層1
  5
11823
 10
-121.585
 20
-404.889
 30
0.00000
  70
    32
  0
VERTEX
  8
画層1
  5
11824
 10
-122.367
 20
-404.332
 30
0.00000
  70
    32
  0
VERTEX
  8
画層1
  5
11825
 10
-123.168
 20
-403.830
 30
0.00000
  70
    32
  0
VERTEX
  8
画層1
  5
11826
 10
-123.986
 20
-403.384
 30
0.00000
  70
    32
  0
VERTEX
  8
画層1
  5
11827
 10
-124.818
 20
-402.995
 30
0.00000
  70
    32
  0
VERTEX
  8
画層1
  5
11828
 10
-125.663
 20
-402.665
 30
0.00000
  70
    32
  0
VERTEX
  8
画層1
  5
11829
 10
-126.518
 20
-402.393
 30
0.00000
  70
    32
  0
VERTEX
  8
画層1
  5
1182A
 10
-127.381
 20
-402.181
 30
0.00000
  70
    32
  0
VERTEX
  8
画層1
  5
1182B
 10
-128.251
 20
-402.030
 30
0.00000
  70
    32
  0
VERTEX
  8
画層1
  5
1182C
 10
-129.125
 20
-401.938
 30
0.00000
  70
    32
  0
VERTEX
  8
画層1
  5
1182D
 10
-130.001
 20
-401.908
 30
0.00000
  70
    32
  0
SEQEND
  8
画層1
  5
1182E
  0
POLYLINE
  5
1162D
  8
画層1
 62
     7
 10
-127.9858339342363962
 20
-452.4079152143990541
 30
0.0
 66
     1
 70
     8
  0
VERTEX
  8
画層1
  5
1182F
 10
-127.986
 20
-452.408
 30
0.00000
  70
    32
  0
VERTEX
  8
画層1
  5
11830
 10
-127.548
 20
-452.400
 30
0.00000
  70
    32
  0
VERTEX
  8
画層1
  5
11831
 10
-127.110
 20
-452.378
 30
0.00000
  70
    32
  0
VERTEX
  8
画層1
  5
11832
 10
-126.672
 20
-452.339
 30
0.00000
  70
    32
  0
VERTEX
  8
画層1
  5
11833
 10
-126.236
 20
-452.286
 30
0.00000
  70
    32
  0
VERTEX
  8
画層1
  5
11834
 10
-125.800
 20
-452.218
 30
0.00000
  70
    32
  0
VERTEX
  8
画層1
  5
11835
 10
-125.366
 20
-452.135
 30
0.00000
  70
    32
  0
VERTEX
  8
画層1
  5
11836
 10
-124.933
 20
-452.036
 30
0.00000
  70
    32
  0
VERTEX
  8
画層1
  5
11837
 10
-124.503
 20
-451.923
 30
0.00000
  70
    32
  0
VERTEX
  8
画層1
  5
11838
 10
-124.074
 20
-451.794
 30
0.00000
  70
    32
  0
VERTEX
  8
画層1
  5
11839
 10
-123.648
 20
-451.651
 30
0.00000
  70
    32
  0
VERTEX
  8
画層1
  5
1183A
 10
-123.224
 20
-451.493
 30
0.00000
  70
    32
  0
VERTEX
  8
画層1
  5
1183B
 10
-122.803
 20
-451.321
 30
0.00000
  70
    32
  0
VERTEX
  8
画層1
  5
1183C
 10
-122.385
 20
-451.134
 30
0.00000
  70
    32
  0
VERTEX
  8
画層1
  5
1183D
 10
-121.971
 20
-450.932
 30
0.00000
  70
    32
  0
VERTEX
  8
画層1
  5
1183E
 10
-121.560
 20
-450.716
 30
0.00000
  70
    32
  0
VERTEX
  8
画層1
  5
1183F
 10
-121.153
 20
-450.486
 30
0.00000
  70
    32
  0
VERTEX
  8
画層1
  5
11840
 10
-120.750
 20
-450.242
 30
0.00000
  70
    32
  0
VERTEX
  8
画層1
  5
11841
 10
-120.352
 20
-449.984
 30
0.00000
  70
    32
  0
VERTEX
  8
画層1
  5
11842
 10
-119.958
 20
-449.712
 30
0.00000
  70
    32
  0
VERTEX
  8
画層1
  5
11843
 10
-119.569
 20
-449.426
 30
0.00000
  70
    32
  0
VERTEX
  8
画層1
  5
11844
 10
-119.185
 20
-449.128
 30
0.00000
  70
    32
  0
VERTEX
  8
画層1
  5
11845
 10
-118.807
 20
-448.816
 30
0.00000
  70
    32
  0
VERTEX
  8
画層1
  5
11846
 10
-118.434
 20
-448.490
 30
0.00000
  70
    32
  0
VERTEX
  8
画層1
  5
11847
 10
-118.066
 20
-448.153
 30
0.00000
  70
    32
  0
VERTEX
  8
画層1
  5
11848
 10
-117.705
 20
-447.802
 30
0.00000
  70
    32
  0
VERTEX
  8
画層1
  5
11849
 10
-117.350
 20
-447.439
 30
0.00000
  70
    32
  0
VERTEX
  8
画層1
  5
1184A
 10
-117.001
 20
-447.064
 30
0.00000
  70
    32
  0
VERTEX
  8
画層1
  5
1184B
 10
-116.659
 20
-446.676
 30
0.00000
  70
    32
  0
VERTEX
  8
画層1
  5
1184C
 10
-116.324
 20
-446.277
 30
0.00000
  70
    32
  0
VERTEX
  8
画層1
  5
1184D
 10
-115.996
 20
-445.867
 30
0.00000
  70
    32
  0
VERTEX
  8
画層1
  5
1184E
 10
-115.674
 20
-445.445
 30
0.00000
  70
    32
  0
VERTEX
  8
画層1
  5
1184F
 10
-115.361
 20
-445.012
 30
0.00000
  70
    32
  0
VERTEX
  8
画層1
  5
11850
 10
-115.055
 20
-444.569
 30
0.00000
  70
    32
  0
VERTEX
  8
画層1
  5
11851
 10
-114.757
 20
-444.115
 30
0.00000
  70
    32
  0
VERTEX
  8
画層1
  5
11852
 10
-114.466
 20
-443.651
 30
0.00000
  70
    32
  0
VERTEX
  8
画層1
  5
11853
 10
-114.184
 20
-443.176
 30
0.00000
  70
    32
  0
VERTEX
  8
画層1
  5
11854
 10
-113.910
 20
-442.693
 30
0.00000
  70
    32
  0
VERTEX
  8
画層1
  5
11855
 10
-113.645
 20
-442.199
 30
0.00000
  70
    32
  0
VERTEX
  8
画層1
  5
11856
 10
-113.388
 20
-441.697
 30
0.00000
  70
    32
  0
VERTEX
  8
画層1
  5
11857
 10
-113.140
 20
-441.186
 30
0.00000
  70
    32
  0
VERTEX
  8
画層1
  5
11858
 10
-112.901
 20
-440.667
 30
0.00000
  70
    32
  0
VERTEX
  8
画層1
  5
11859
 10
-112.672
 20
-440.139
 30
0.00000
  70
    32
  0
VERTEX
  8
画層1
  5
1185A
 10
-112.451
 20
-439.604
 30
0.00000
  70
    32
  0
VERTEX
  8
画層1
  5
1185B
 10
-112.240
 20
-439.061
 30
0.00000
  70
    32
  0
VERTEX
  8
画層1
  5
1185C
 10
-112.038
 20
-438.511
 30
0.00000
  70
    32
  0
VERTEX
  8
画層1
  5
1185D
 10
-111.846
 20
-437.954
 30
0.00000
  70
    32
  0
VERTEX
  8
画層1
  5
1185E
 10
-111.663
 20
-437.390
 30
0.00000
  70
    32
  0
VERTEX
  8
画層1
  5
1185F
 10
-111.490
 20
-436.821
 30
0.00000
  70
    32
  0
VERTEX
  8
画層1
  5
11860
 10
-111.328
 20
-436.245
 30
0.00000
  70
    32
  0
VERTEX
  8
画層1
  5
11861
 10
-111.175
 20
-435.664
 30
0.00000
  70
    32
  0
VERTEX
  8
画層1
  5
11862
 10
-111.033
 20
-435.078
 30
0.00000
  70
    32
  0
VERTEX
  8
画層1
  5
11863
 10
-110.900
 20
-434.488
 30
0.00000
  70
    32
  0
VERTEX
  8
画層1
  5
11864
 10
-110.778
 20
-433.892
 30
0.00000
  70
    32
  0
VERTEX
  8
画層1
  5
11865
 10
-110.666
 20
-433.293
 30
0.00000
  70
    32
  0
VERTEX
  8
画層1
  5
11866
 10
-110.565
 20
-432.690
 30
0.00000
  70
    32
  0
VERTEX
  8
画層1
  5
11867
 10
-110.474
 20
-432.084
 30
0.00000
  70
    32
  0
VERTEX
  8
画層1
  5
11868
 10
-110.394
 20
-431.475
 30
0.00000
  70
    32
  0
VERTEX
  8
画層1
  5
11869
 10
-110.325
 20
-430.863
 30
0.00000
  70
    32
  0
VERTEX
  8
画層1
  5
1186A
 10
-110.266
 20
-430.249
 30
0.00000
  70
    32
  0
VERTEX
  8
画層1
  5
1186B
 10
-110.217
 20
-429.633
 30
0.00000
  70
    32
  0
VERTEX
  8
画層1
  5
1186C
 10
-110.180
 20
-429.015
 30
0.00000
  70
    32
  0
VERTEX
  8
画層1
  5
1186D
 10
-110.153
 20
-428.397
 30
0.00000
  70
    32
  0
VERTEX
  8
画層1
  5
1186E
 10
-110.137
 20
-427.778
 30
0.00000
  70
    32
  0
VERTEX
  8
画層1
  5
1186F
 10
-110.131
 20
-427.158
 30
0.00000
  70
    32
  0
VERTEX
  8
画層1
  5
11870
 10
-110.137
 20
-426.538
 30
0.00000
  70
    32
  0
VERTEX
  8
画層1
  5
11871
 10
-110.153
 20
-425.919
 30
0.00000
  70
    32
  0
VERTEX
  8
画層1
  5
11872
 10
-110.180
 20
-425.300
 30
0.00000
  70
    32
  0
VERTEX
  8
画層1
  5
11873
 10
-110.217
 20
-424.683
 30
0.00000
  70
    32
  0
VERTEX
  8
画層1
  5
11874
 10
-110.266
 20
-424.067
 30
0.00000
  70
    32
  0
VERTEX
  8
画層1
  5
11875
 10
-110.325
 20
-423.453
 30
0.00000
  70
    32
  0
VERTEX
  8
画層1
  5
11876
 10
-110.394
 20
-422.841
 30
0.00000
  70
    32
  0
VERTEX
  8
画層1
  5
11877
 10
-110.474
 20
-422.232
 30
0.00000
  70
    32
  0
VERTEX
  8
画層1
  5
11878
 10
-110.565
 20
-421.626
 30
0.00000
  70
    32
  0
VERTEX
  8
画層1
  5
11879
 10
-110.666
 20
-421.023
 30
0.00000
  70
    32
  0
VERTEX
  8
画層1
  5
1187A
 10
-110.778
 20
-420.423
 30
0.00000
  70
    32
  0
VERTEX
  8
画層1
  5
1187B
 10
-110.900
 20
-419.828
 30
0.00000
  70
    32
  0
VERTEX
  8
画層1
  5
1187C
 10
-111.033
 20
-419.237
 30
0.00000
  70
    32
  0
VERTEX
  8
画層1
  5
1187D
 10
-111.175
 20
-418.651
 30
0.00000
  70
    32
  0
VERTEX
  8
画層1
  5
1187E
 10
-111.328
 20
-418.071
 30
0.00000
  70
    32
  0
VERTEX
  8
画層1
  5
1187F
 10
-111.490
 20
-417.495
 30
0.00000
  70
    32
  0
VERTEX
  8
画層1
  5
11880
 10
-111.663
 20
-416.926
 30
0.00000
  70
    32
  0
VERTEX
  8
画層1
  5
11881
 10
-111.846
 20
-416.362
 30
0.00000
  70
    32
  0
VERTEX
  8
画層1
  5
11882
 10
-112.038
 20
-415.805
 30
0.00000
  70
    32
  0
VERTEX
  8
画層1
  5
11883
 10
-112.240
 20
-415.255
 30
0.00000
  70
    32
  0
VERTEX
  8
画層1
  5
11884
 10
-112.451
 20
-414.712
 30
0.00000
  70
    32
  0
VERTEX
  8
画層1
  5
11885
 10
-112.672
 20
-414.177
 30
0.00000
  70
    32
  0
VERTEX
  8
画層1
  5
11886
 10
-112.901
 20
-413.649
 30
0.00000
  70
    32
  0
VERTEX
  8
画層1
  5
11887
 10
-113.140
 20
-413.130
 30
0.00000
  70
    32
  0
VERTEX
  8
画層1
  5
11888
 10
-113.388
 20
-412.619
 30
0.00000
  70
    32
  0
VERTEX
  8
画層1
  5
11889
 10
-113.645
 20
-412.117
 30
0.00000
  70
    32
  0
VERTEX
  8
画層1
  5
1188A
 10
-113.910
 20
-411.623
 30
0.00000
  70
    32
  0
VERTEX
  8
画層1
  5
1188B
 10
-114.184
 20
-411.139
 30
0.00000
  70
    32
  0
VERTEX
  8
画層1
  5
1188C
 10
-114.466
 20
-410.665
 30
0.00000
  70
    32
  0
VERTEX
  8
画層1
  5
1188D
 10
-114.757
 20
-410.201
 30
0.00000
  70
    32
  0
VERTEX
  8
画層1
  5
1188E
 10
-115.055
 20
-409.747
 30
0.00000
  70
    32
  0
VERTEX
  8
画層1
  5
1188F
 10
-115.361
 20
-409.303
 30
0.00000
  70
    32
  0
VERTEX
  8
画層1
  5
11890
 10
-115.674
 20
-408.871
 30
0.00000
  70
    32
  0
VERTEX
  8
画層1
  5
11891
 10
-115.996
 20
-408.449
 30
0.00000
  70
    32
  0
VERTEX
  8
画層1
  5
11892
 10
-116.324
 20
-408.038
 30
0.00000
  70
    32
  0
VERTEX
  8
画層1
  5
11893
 10
-116.659
 20
-407.639
 30
0.00000
  70
    32
  0
VERTEX
  8
画層1
  5
11894
 10
-117.001
 20
-407.252
 30
0.00000
  70
    32
  0
VERTEX
  8
画層1
  5
11895
 10
-117.350
 20
-406.877
 30
0.00000
  70
    32
  0
VERTEX
  8
画層1
  5
11896
 10
-117.705
 20
-406.514
 30
0.00000
  70
    32
  0
VERTEX
  8
画層1
  5
11897
 10
-118.066
 20
-406.163
 30
0.00000
  70
    32
  0
VERTEX
  8
画層1
  5
11898
 10
-118.434
 20
-405.825
 30
0.00000
  70
    32
  0
VERTEX
  8
画層1
  5
11899
 10
-118.807
 20
-405.500
 30
0.00000
  70
    32
  0
VERTEX
  8
画層1
  5
1189A
 10
-119.185
 20
-405.188
 30
0.00000
  70
    32
  0
VERTEX
  8
画層1
  5
1189B
 10
-119.569
 20
-404.889
 30
0.00000
  70
    32
  0
VERTEX
  8
画層1
  5
1189C
 10
-119.958
 20
-404.604
 30
0.00000
  70
    32
  0
VERTEX
  8
画層1
  5
1189D
 10
-120.352
 20
-404.332
 30
0.00000
  70
    32
  0
VERTEX
  8
画層1
  5
1189E
 10
-120.750
 20
-404.074
 30
0.00000
  70
    32
  0
VERTEX
  8
画層1
  5
1189F
 10
-121.153
 20
-403.830
 30
0.00000
  70
    32
  0
VERTEX
  8
画層1
  5
118A0
 10
-121.560
 20
-403.600
 30
0.00000
  70
    32
  0
VERTEX
  8
画層1
  5
118A1
 10
-121.971
 20
-403.384
 30
0.00000
  70
    32
  0
VERTEX
  8
画層1
  5
118A2
 10
-122.385
 20
-403.182
 30
0.00000
  70
    32
  0
VERTEX
  8
画層1
  5
118A3
 10
-122.803
 20
-402.995
 30
0.00000
  70
    32
  0
VERTEX
  8
画層1
  5
118A4
 10
-123.224
 20
-402.823
 30
0.00000
  70
    32
  0
VERTEX
  8
画層1
  5
118A5
 10
-123.648
 20
-402.665
 30
0.00000
  70
    32
  0
VERTEX
  8
画層1
  5
118A6
 10
-124.074
 20
-402.521
 30
0.00000
  70
    32
  0
VERTEX
  8
画層1
  5
118A7
 10
-124.503
 20
-402.393
 30
0.00000
  70
    32
  0
VERTEX
  8
画層1
  5
118A8
 10
-124.933
 20
-402.280
 30
0.00000
  70
    32
  0
VERTEX
  8
画層1
  5
118A9
 10
-125.366
 20
-402.181
 30
0.00000
  70
    32
  0
VERTEX
  8
画層1
  5
118AA
 10
-125.800
 20
-402.098
 30
0.00000
  70
    32
  0
VERTEX
  8
画層1
  5
118AB
 10
-126.236
 20
-402.030
 30
0.00000
  70
    32
  0
VERTEX
  8
画層1
  5
118AC
 10
-126.672
 20
-401.976
 30
0.00000
  70
    32
  0
VERTEX
  8
画層1
  5
118AD
 10
-127.110
 20
-401.938
 30
0.00000
  70
    32
  0
VERTEX
  8
画層1
  5
118AE
 10
-127.548
 20
-401.916
 30
0.00000
  70
    32
  0
VERTEX
  8
画層1
  5
118AF
 10
-127.986
 20
-401.908
 30
0.00000
  70
    32
  0
SEQEND
  8
画層1
  5
118B0
  0
POLYLINE
  5
1162E
  8
画層1
 62
     7
 10
-130.0010882606179905
 20
-409.3079152143990882
 30
0.0
 66
     1
 70
     8
  0
VERTEX
  8
画層1
  5
118B1
 10
-130.001
 20
-409.308
 30
0.00000
  70
    32
  0
VERTEX
  8
画層1
  5
118B2
 10
-130.620
 20
-409.329
 30
0.00000
  70
    32
  0
VERTEX
  8
画層1
  5
118B3
 10
-131.238
 20
-409.394
 30
0.00000
  70
    32
  0
VERTEX
  8
画層1
  5
118B4
 10
-131.853
 20
-409.501
 30
0.00000
  70
    32
  0
VERTEX
  8
画層1
  5
118B5
 10
-132.463
 20
-409.651
 30
0.00000
  70
    32
  0
VERTEX
  8
画層1
  5
118B6
 10
-133.068
 20
-409.843
 30
0.00000
  70
    32
  0
VERTEX
  8
画層1
  5
118B7
 10
-133.665
 20
-410.077
 30
0.00000
  70
    32
  0
VERTEX
  8
画層1
  5
118B8
 10
-134.253
 20
-410.351
 30
0.00000
  70
    32
  0
VERTEX
  8
画層1
  5
118B9
 10
-134.831
 20
-410.667
 30
0.00000
  70
    32
  0
VERTEX
  8
画層1
  5
118BA
 10
-135.398
 20
-411.022
 30
0.00000
  70
    32
  0
VERTEX
  8
画層1
  5
118BB
 10
-135.951
 20
-411.416
 30
0.00000
  70
    32
  0
VERTEX
  8
画層1
  5
118BC
 10
-136.490
 20
-411.847
 30
0.00000
  70
    32
  0
VERTEX
  8
画層1
  5
118BD
 10
-137.013
 20
-412.316
 30
0.00000
  70
    32
  0
VERTEX
  8
画層1
  5
118BE
 10
-137.520
 20
-412.821
 30
0.00000
  70
    32
  0
VERTEX
  8
画層1
  5
118BF
 10
-138.008
 20
-413.360
 30
0.00000
  70
    32
  0
VERTEX
  8
画層1
  5
118C0
 10
-138.477
 20
-413.932
 30
0.00000
  70
    32
  0
VERTEX
  8
画層1
  5
118C1
 10
-138.926
 20
-414.536
 30
0.00000
  70
    32
  0
VERTEX
  8
画層1
  5
118C2
 10
-139.353
 20
-415.171
 30
0.00000
  70
    32
  0
VERTEX
  8
画層1
  5
118C3
 10
-139.758
 20
-415.834
 30
0.00000
  70
    32
  0
VERTEX
  8
画層1
  5
118C4
 10
-140.139
 20
-416.525
 30
0.00000
  70
    32
  0
VERTEX
  8
画層1
  5
118C5
 10
-140.496
 20
-417.241
 30
0.00000
  70
    32
  0
VERTEX
  8
画層1
  5
118C6
 10
-140.827
 20
-417.981
 30
0.00000
  70
    32
  0
VERTEX
  8
画層1
  5
118C7
 10
-141.133
 20
-418.743
 30
0.00000
  70
    32
  0
VERTEX
  8
画層1
  5
118C8
 10
-141.411
 20
-419.526
 30
0.00000
  70
    32
  0
VERTEX
  8
画層1
  5
118C9
 10
-141.662
 20
-420.327
 30
0.00000
  70
    32
  0
VERTEX
  8
画層1
  5
118CA
 10
-141.885
 20
-421.144
 30
0.00000
  70
    32
  0
VERTEX
  8
画層1
  5
118CB
 10
-142.079
 20
-421.976
 30
0.00000
  70
    32
  0
VERTEX
  8
画層1
  5
118CC
 10
-142.245
 20
-422.821
 30
0.00000
  70
    32
  0
VERTEX
  8
画層1
  5
118CD
 10
-142.380
 20
-423.676
 30
0.00000
  70
    32
  0
VERTEX
  8
画層1
  5
118CE
 10
-142.486
 20
-424.539
 30
0.00000
  70
    32
  0
VERTEX
  8
画層1
  5
118CF
 10
-142.562
 20
-425.408
 30
0.00000
  70
    32
  0
VERTEX
  8
画層1
  5
118D0
 10
-142.608
 20
-426.282
 30
0.00000
  70
    32
  0
VERTEX
  8
画層1
  5
118D1
 10
-142.623
 20
-427.158
 30
0.00000
  70
    32
  0
VERTEX
  8
画層1
  5
118D2
 10
-142.608
 20
-428.034
 30
0.00000
  70
    32
  0
VERTEX
  8
画層1
  5
118D3
 10
-142.562
 20
-428.908
 30
0.00000
  70
    32
  0
VERTEX
  8
画層1
  5
118D4
 10
-142.486
 20
-429.777
 30
0.00000
  70
    32
  0
VERTEX
  8
画層1
  5
118D5
 10
-142.380
 20
-430.640
 30
0.00000
  70
    32
  0
VERTEX
  8
画層1
  5
118D6
 10
-142.245
 20
-431.495
 30
0.00000
  70
    32
  0
VERTEX
  8
画層1
  5
118D7
 10
-142.079
 20
-432.339
 30
0.00000
  70
    32
  0
VERTEX
  8
画層1
  5
118D8
 10
-141.885
 20
-433.171
 30
0.00000
  70
    32
  0
VERTEX
  8
画層1
  5
118D9
 10
-141.662
 20
-433.989
 30
0.00000
  70
    32
  0
VERTEX
  8
画層1
  5
118DA
 10
-141.411
 20
-434.790
 30
0.00000
  70
    32
  0
VERTEX
  8
画層1
  5
118DB
 10
-141.133
 20
-435.572
 30
0.00000
  70
    32
  0
VERTEX
  8
画層1
  5
118DC
 10
-140.827
 20
-436.335
 30
0.00000
  70
    32
  0
VERTEX
  8
画層1
  5
118DD
 10
-140.496
 20
-437.075
 30
0.00000
  70
    32
  0
VERTEX
  8
画層1
  5
118DE
 10
-140.139
 20
-437.791
 30
0.00000
  70
    32
  0
VERTEX
  8
画層1
  5
118DF
 10
-139.758
 20
-438.482
 30
0.00000
  70
    32
  0
VERTEX
  8
画層1
  5
118E0
 10
-139.353
 20
-439.145
 30
0.00000
  70
    32
  0
VERTEX
  8
画層1
  5
118E1
 10
-138.926
 20
-439.780
 30
0.00000
  70
    32
  0
VERTEX
  8
画層1
  5
118E2
 10
-138.477
 20
-440.384
 30
0.00000
  70
    32
  0
VERTEX
  8
画層1
  5
118E3
 10
-138.008
 20
-440.956
 30
0.00000
  70
    32
  0
VERTEX
  8
画層1
  5
118E4
 10
-137.520
 20
-441.495
 30
0.00000
  70
    32
  0
VERTEX
  8
画層1
  5
118E5
 10
-137.013
 20
-442.000
 30
0.00000
  70
    32
  0
VERTEX
  8
画層1
  5
118E6
 10
-136.490
 20
-442.468
 30
0.00000
  70
    32
  0
VERTEX
  8
画層1
  5
118E7
 10
-135.951
 20
-442.900
 30
0.00000
  70
    32
  0
VERTEX
  8
画層1
  5
118E8
 10
-135.398
 20
-443.294
 30
0.00000
  70
    32
  0
VERTEX
  8
画層1
  5
118E9
 10
-134.831
 20
-443.649
 30
0.00000
  70
    32
  0
VERTEX
  8
画層1
  5
118EA
 10
-134.253
 20
-443.964
 30
0.00000
  70
    32
  0
VERTEX
  8
画層1
  5
118EB
 10
-133.665
 20
-444.239
 30
0.00000
  70
    32
  0
VERTEX
  8
画層1
  5
118EC
 10
-133.068
 20
-444.473
 30
0.00000
  70
    32
  0
VERTEX
  8
画層1
  5
118ED
 10
-132.463
 20
-444.665
 30
0.00000
  70
    32
  0
VERTEX
  8
画層1
  5
118EE
 10
-131.853
 20
-444.815
 30
0.00000
  70
    32
  0
VERTEX
  8
画層1
  5
118EF
 10
-131.238
 20
-444.922
 30
0.00000
  70
    32
  0
VERTEX
  8
画層1
  5
118F0
 10
-130.620
 20
-444.986
 30
0.00000
  70
    32
  0
VERTEX
  8
画層1
  5
118F1
 10
-130.001
 20
-445.008
 30
0.00000
  70
    32
  0
VERTEX
  8
画層1
  5
118F2
 10
-129.382
 20
-444.986
 30
0.00000
  70
    32
  0
VERTEX
  8
画層1
  5
118F3
 10
-128.764
 20
-444.922
 30
0.00000
  70
    32
  0
VERTEX
  8
画層1
  5
118F4
 10
-128.149
 20
-444.815
 30
0.00000
  70
    32
  0
VERTEX
  8
画層1
  5
118F5
 10
-127.539
 20
-444.665
 30
0.00000
  70
    32
  0
VERTEX
  8
画層1
  5
118F6
 10
-126.934
 20
-444.473
 30
0.00000
  70
    32
  0
VERTEX
  8
画層1
  5
118F7
 10
-126.337
 20
-444.239
 30
0.00000
  70
    32
  0
VERTEX
  8
画層1
  5
118F8
 10
-125.749
 20
-443.964
 30
0.00000
  70
    32
  0
VERTEX
  8
画層1
  5
118F9
 10
-125.171
 20
-443.649
 30
0.00000
  70
    32
  0
VERTEX
  8
画層1
  5
118FA
 10
-124.605
 20
-443.294
 30
0.00000
  70
    32
  0
VERTEX
  8
画層1
  5
118FB
 10
-124.051
 20
-442.900
 30
0.00000
  70
    32
  0
VERTEX
  8
画層1
  5
118FC
 10
-123.512
 20
-442.468
 30
0.00000
  70
    32
  0
VERTEX
  8
画層1
  5
118FD
 10
-122.989
 20
-442.000
 30
0.00000
  70
    32
  0
VERTEX
  8
画層1
  5
118FE
 10
-122.482
 20
-441.495
 30
0.00000
  70
    32
  0
VERTEX
  8
画層1
  5
118FF
 10
-121.994
 20
-440.956
 30
0.00000
  70
    32
  0
VERTEX
  8
画層1
  5
11900
 10
-121.525
 20
-440.384
 30
0.00000
  70
    32
  0
VERTEX
  8
画層1
  5
11901
 10
-121.076
 20
-439.780
 30
0.00000
  70
    32
  0
VERTEX
  8
画層1
  5
11902
 10
-120.649
 20
-439.145
 30
0.00000
  70
    32
  0
VERTEX
  8
画層1
  5
11903
 10
-120.244
 20
-438.482
 30
0.00000
  70
    32
  0
VERTEX
  8
画層1
  5
11904
 10
-119.863
 20
-437.791
 30
0.00000
  70
    32
  0
VERTEX
  8
画層1
  5
11905
 10
-119.506
 20
-437.075
 30
0.00000
  70
    32
  0
VERTEX
  8
画層1
  5
11906
 10
-119.175
 20
-436.335
 30
0.00000
  70
    32
  0
VERTEX
  8
画層1
  5
11907
 10
-118.870
 20
-435.572
 30
0.00000
  70
    32
  0
VERTEX
  8
画層1
  5
11908
 10
-118.591
 20
-434.790
 30
0.00000
  70
    32
  0
VERTEX
  8
画層1
  5
11909
 10
-118.340
 20
-433.989
 30
0.00000
  70
    32
  0
VERTEX
  8
画層1
  5
1190A
 10
-118.117
 20
-433.171
 30
0.00000
  70
    32
  0
VERTEX
  8
画層1
  5
1190B
 10
-117.923
 20
-432.339
 30
0.00000
  70
    32
  0
VERTEX
  8
画層1
  5
1190C
 10
-117.757
 20
-431.495
 30
0.00000
  70
    32
  0
VERTEX
  8
画層1
  5
1190D
 10
-117.622
 20
-430.640
 30
0.00000
  70
    32
  0
VERTEX
  8
画層1
  5
1190E
 10
-117.516
 20
-429.777
 30
0.00000
  70
    32
  0
VERTEX
  8
画層1
  5
1190F
 10
-117.440
 20
-428.908
 30
0.00000
  70
    32
  0
VERTEX
  8
画層1
  5
11910
 10
-117.394
 20
-428.034
 30
0.00000
  70
    32
  0
VERTEX
  8
画層1
  5
11911
 10
-117.379
 20
-427.158
 30
0.00000
  70
    32
  0
VERTEX
  8
画層1
  5
11912
 10
-117.394
 20
-426.282
 30
0.00000
  70
    32
  0
VERTEX
  8
画層1
  5
11913
 10
-117.440
 20
-425.408
 30
0.00000
  70
    32
  0
VERTEX
  8
画層1
  5
11914
 10
-117.516
 20
-424.539
 30
0.00000
  70
    32
  0
VERTEX
  8
画層1
  5
11915
 10
-117.622
 20
-423.676
 30
0.00000
  70
    32
  0
VERTEX
  8
画層1
  5
11916
 10
-117.757
 20
-422.821
 30
0.00000
  70
    32
  0
VERTEX
  8
画層1
  5
11917
 10
-117.923
 20
-421.976
 30
0.00000
  70
    32
  0
VERTEX
  8
画層1
  5
11918
 10
-118.117
 20
-421.144
 30
0.00000
  70
    32
  0
VERTEX
  8
画層1
  5
11919
 10
-118.340
 20
-420.327
 30
0.00000
  70
    32
  0
VERTEX
  8
画層1
  5
1191A
 10
-118.591
 20
-419.526
 30
0.00000
  70
    32
  0
VERTEX
  8
画層1
  5
1191B
 10
-118.870
 20
-418.743
 30
0.00000
  70
    32
  0
VERTEX
  8
画層1
  5
1191C
 10
-119.175
 20
-417.981
 30
0.00000
  70
    32
  0
VERTEX
  8
画層1
  5
1191D
 10
-119.506
 20
-417.241
 30
0.00000
  70
    32
  0
VERTEX
  8
画層1
  5
1191E
 10
-119.863
 20
-416.525
 30
0.00000
  70
    32
  0
VERTEX
  8
画層1
  5
1191F
 10
-120.244
 20
-415.834
 30
0.00000
  70
    32
  0
VERTEX
  8
画層1
  5
11920
 10
-120.649
 20
-415.171
 30
0.00000
  70
    32
  0
VERTEX
  8
画層1
  5
11921
 10
-121.076
 20
-414.536
 30
0.00000
  70
    32
  0
VERTEX
  8
画層1
  5
11922
 10
-121.525
 20
-413.932
 30
0.00000
  70
    32
  0
VERTEX
  8
画層1
  5
11923
 10
-121.994
 20
-413.360
 30
0.00000
  70
    32
  0
VERTEX
  8
画層1
  5
11924
 10
-122.482
 20
-412.821
 30
0.00000
  70
    32
  0
VERTEX
  8
画層1
  5
11925
 10
-122.989
 20
-412.316
 30
0.00000
  70
    32
  0
VERTEX
  8
画層1
  5
11926
 10
-123.512
 20
-411.847
 30
0.00000
  70
    32
  0
VERTEX
  8
画層1
  5
11927
 10
-124.051
 20
-411.416
 30
0.00000
  70
    32
  0
VERTEX
  8
画層1
  5
11928
 10
-124.605
 20
-411.022
 30
0.00000
  70
    32
  0
VERTEX
  8
画層1
  5
11929
 10
-125.171
 20
-410.667
 30
0.00000
  70
    32
  0
VERTEX
  8
画層1
  5
1192A
 10
-125.749
 20
-410.351
 30
0.00000
  70
    32
  0
VERTEX
  8
画層1
  5
1192B
 10
-126.337
 20
-410.077
 30
0.00000
  70
    32
  0
VERTEX
  8
画層1
  5
1192C
 10
-126.934
 20
-409.843
 30
0.00000
  70
    32
  0
VERTEX
  8
画層1
  5
1192D
 10
-127.539
 20
-409.651
 30
0.00000
  70
    32
  0
VERTEX
  8
画層1
  5
1192E
 10
-128.149
 20
-409.501
 30
0.00000
  70
    32
  0
VERTEX
  8
画層1
  5
1192F
 10
-128.764
 20
-409.394
 30
0.00000
  70
    32
  0
VERTEX
  8
画層1
  5
11930
 10
-129.382
 20
-409.329
 30
0.00000
  70
    32
  0
VERTEX
  8
画層1
  5
11931
 10
-130.001
 20
-409.308
 30
0.00000
  70
    32
  0
SEQEND
  8
画層1
  5
11932
  0
LINE
  5
1162F
  8
画層1
 62
     7
 10
-127.9858339342363962
 20
-401.9079152143992246
 30
0.0
 11
-130.0010882606179905
 21
-401.9079152143992246
 31
0.0
  0
LINE
  5
11630
  8
画層1
 62
     7
 10
-127.9858339342363962
 20
-452.4079152143991109
 30
0.0
 11
-130.0010882606179905
 21
-452.4079152143991109
 31
0.0
  0
LINE
  5
11631
  8
画層1
  6
CONTINUOUS
 62
     7
 10
81.2979418497308188
 20
-446.2079152143991791
 30
0.0
 11
116.2670456009657016
 21
-446.2079152143991791
 31
0.0
  0
LINE
  5
11632
  8
画層1
  6
CONTINUOUS
 62
     7
 10
81.2979418497308188
 20
-408.1079152143992133
 30
0.0
 11
116.2670456009657016
 21
-408.1079152143992133
 31
0.0
  0
POLYLINE
  5
11633
  8
画層1
 62
     7
 10
130.0010882606179052
 20
-401.9079152143991678
 30
0.0
 66
     1
 70
     8
  0
VERTEX
  8
画層1
  5
11933
 10
130.001
 20
-401.908
 30
0.00000
  70
    32
  0
VERTEX
  8
画層1
  5
11934
 10
130.877
 20
-401.938
 30
0.00000
  70
    32
  0
VERTEX
  8
画層1
  5
11935
 10
131.751
 20
-402.030
 30
0.00000
  70
    32
  0
VERTEX
  8
画層1
  5
11936
 10
132.621
 20
-402.181
 30
0.00000
  70
    32
  0
VERTEX
  8
画層1
  5
11937
 10
133.484
 20
-402.393
 30
0.00000
  70
    32
  0
VERTEX
  8
画層1
  5
11938
 10
134.339
 20
-402.665
 30
0.00000
  70
    32
  0
VERTEX
  8
画層1
  5
11939
 10
135.184
 20
-402.995
 30
0.00000
  70
    32
  0
VERTEX
  8
画層1
  5
1193A
 10
136.016
 20
-403.384
 30
0.00000
  70
    32
  0
VERTEX
  8
画層1
  5
1193B
 10
136.834
 20
-403.830
 30
0.00000
  70
    32
  0
VERTEX
  8
画層1
  5
1193C
 10
137.635
 20
-404.332
 30
0.00000
  70
    32
  0
VERTEX
  8
画層1
  5
1193D
 10
138.418
 20
-404.889
 30
0.00000
  70
    32
  0
VERTEX
  8
画層1
  5
1193E
 10
139.180
 20
-405.500
 30
0.00000
  70
    32
  0
VERTEX
  8
画層1
  5
1193F
 10
139.920
 20
-406.163
 30
0.00000
  70
    32
  0
VERTEX
  8
画層1
  5
11940
 10
140.637
 20
-406.877
 30
0.00000
  70
    32
  0
VERTEX
  8
画層1
  5
11941
 10
141.328
 20
-407.639
 30
0.00000
  70
    32
  0
VERTEX
  8
画層1
  5
11942
 10
141.991
 20
-408.449
 30
0.00000
  70
    32
  0
VERTEX
  8
画層1
  5
11943
 10
142.626
 20
-409.303
 30
0.00000
  70
    32
  0
VERTEX
  8
画層1
  5
11944
 10
143.230
 20
-410.201
 30
0.00000
  70
    32
  0
VERTEX
  8
画層1
  5
11945
 10
143.803
 20
-411.139
 30
0.00000
  70
    32
  0
VERTEX
  8
画層1
  5
11946
 10
144.342
 20
-412.117
 30
0.00000
  70
    32
  0
VERTEX
  8
画層1
  5
11947
 10
144.847
 20
-413.130
 30
0.00000
  70
    32
  0
VERTEX
  8
画層1
  5
11948
 10
145.315
 20
-414.177
 30
0.00000
  70
    32
  0
VERTEX
  8
画層1
  5
11949
 10
145.747
 20
-415.255
 30
0.00000
  70
    32
  0
VERTEX
  8
画層1
  5
1194A
 10
146.141
 20
-416.362
 30
0.00000
  70
    32
  0
VERTEX
  8
画層1
  5
1194B
 10
146.496
 20
-417.495
 30
0.00000
  70
    32
  0
VERTEX
  8
画層1
  5
1194C
 10
146.812
 20
-418.651
 30
0.00000
  70
    32
  0
VERTEX
  8
画層1
  5
1194D
 10
147.087
 20
-419.828
 30
0.00000
  70
    32
  0
VERTEX
  8
画層1
  5
1194E
 10
147.320
 20
-421.023
 30
0.00000
  70
    32
  0
VERTEX
  8
画層1
  5
1194F
 10
147.512
 20
-422.232
 30
0.00000
  70
    32
  0
VERTEX
  8
画層1
  5
11950
 10
147.662
 20
-423.453
 30
0.00000
  70
    32
  0
VERTEX
  8
画層1
  5
11951
 10
147.770
 20
-424.683
 30
0.00000
  70
    32
  0
VERTEX
  8
画層1
  5
11952
 10
147.834
 20
-425.919
 30
0.00000
  70
    32
  0
VERTEX
  8
画層1
  5
11953
 10
147.856
 20
-427.158
 30
0.00000
  70
    32
  0
VERTEX
  8
画層1
  5
11954
 10
147.834
 20
-428.397
 30
0.00000
  70
    32
  0
VERTEX
  8
画層1
  5
11955
 10
147.770
 20
-429.633
 30
0.00000
  70
    32
  0
VERTEX
  8
画層1
  5
11956
 10
147.662
 20
-430.863
 30
0.00000
  70
    32
  0
VERTEX
  8
画層1
  5
11957
 10
147.512
 20
-432.084
 30
0.00000
  70
    32
  0
VERTEX
  8
画層1
  5
11958
 10
147.320
 20
-433.293
 30
0.00000
  70
    32
  0
VERTEX
  8
画層1
  5
11959
 10
147.087
 20
-434.488
 30
0.00000
  70
    32
  0
VERTEX
  8
画層1
  5
1195A
 10
146.812
 20
-435.664
 30
0.00000
  70
    32
  0
VERTEX
  8
画層1
  5
1195B
 10
146.496
 20
-436.821
 30
0.00000
  70
    32
  0
VERTEX
  8
画層1
  5
1195C
 10
146.141
 20
-437.954
 30
0.00000
  70
    32
  0
VERTEX
  8
画層1
  5
1195D
 10
145.747
 20
-439.061
 30
0.00000
  70
    32
  0
VERTEX
  8
画層1
  5
1195E
 10
145.315
 20
-440.139
 30
0.00000
  70
    32
  0
VERTEX
  8
画層1
  5
1195F
 10
144.847
 20
-441.186
 30
0.00000
  70
    32
  0
VERTEX
  8
画層1
  5
11960
 10
144.342
 20
-442.199
 30
0.00000
  70
    32
  0
VERTEX
  8
画層1
  5
11961
 10
143.803
 20
-443.176
 30
0.00000
  70
    32
  0
VERTEX
  8
画層1
  5
11962
 10
143.230
 20
-444.115
 30
0.00000
  70
    32
  0
VERTEX
  8
画層1
  5
11963
 10
142.626
 20
-445.012
 30
0.00000
  70
    32
  0
VERTEX
  8
画層1
  5
11964
 10
141.991
 20
-445.867
 30
0.00000
  70
    32
  0
VERTEX
  8
画層1
  5
11965
 10
141.328
 20
-446.676
 30
0.00000
  70
    32
  0
VERTEX
  8
画層1
  5
11966
 10
140.637
 20
-447.439
 30
0.00000
  70
    32
  0
VERTEX
  8
画層1
  5
11967
 10
139.920
 20
-448.153
 30
0.00000
  70
    32
  0
VERTEX
  8
画層1
  5
11968
 10
139.180
 20
-448.816
 30
0.00000
  70
    32
  0
VERTEX
  8
画層1
  5
11969
 10
138.418
 20
-449.426
 30
0.00000
  70
    32
  0
VERTEX
  8
画層1
  5
1196A
 10
137.635
 20
-449.984
 30
0.00000
  70
    32
  0
VERTEX
  8
画層1
  5
1196B
 10
136.834
 20
-450.486
 30
0.00000
  70
    32
  0
VERTEX
  8
画層1
  5
1196C
 10
136.016
 20
-450.932
 30
0.00000
  70
    32
  0
VERTEX
  8
画層1
  5
1196D
 10
135.184
 20
-451.321
 30
0.00000
  70
    32
  0
VERTEX
  8
画層1
  5
1196E
 10
134.339
 20
-451.651
 30
0.00000
  70
    32
  0
VERTEX
  8
画層1
  5
1196F
 10
133.484
 20
-451.923
 30
0.00000
  70
    32
  0
VERTEX
  8
画層1
  5
11970
 10
132.621
 20
-452.135
 30
0.00000
  70
    32
  0
VERTEX
  8
画層1
  5
11971
 10
131.751
 20
-452.286
 30
0.00000
  70
    32
  0
VERTEX
  8
画層1
  5
11972
 10
130.877
 20
-452.378
 30
0.00000
  70
    32
  0
VERTEX
  8
画層1
  5
11973
 10
130.001
 20
-452.408
 30
0.00000
  70
    32
  0
VERTEX
  8
画層1
  5
11974
 10
129.125
 20
-452.378
 30
0.00000
  70
    32
  0
VERTEX
  8
画層1
  5
11975
 10
128.251
 20
-452.286
 30
0.00000
  70
    32
  0
VERTEX
  8
画層1
  5
11976
 10
127.381
 20
-452.135
 30
0.00000
  70
    32
  0
VERTEX
  8
画層1
  5
11977
 10
126.518
 20
-451.923
 30
0.00000
  70
    32
  0
VERTEX
  8
画層1
  5
11978
 10
125.663
 20
-451.651
 30
0.00000
  70
    32
  0
VERTEX
  8
画層1
  5
11979
 10
124.818
 20
-451.321
 30
0.00000
  70
    32
  0
VERTEX
  8
画層1
  5
1197A
 10
123.986
 20
-450.932
 30
0.00000
  70
    32
  0
VERTEX
  8
画層1
  5
1197B
 10
123.168
 20
-450.486
 30
0.00000
  70
    32
  0
VERTEX
  8
画層1
  5
1197C
 10
122.367
 20
-449.984
 30
0.00000
  70
    32
  0
VERTEX
  8
画層1
  5
1197D
 10
121.585
 20
-449.426
 30
0.00000
  70
    32
  0
VERTEX
  8
画層1
  5
1197E
 10
120.822
 20
-448.816
 30
0.00000
  70
    32
  0
VERTEX
  8
画層1
  5
1197F
 10
120.082
 20
-448.153
 30
0.00000
  70
    32
  0
VERTEX
  8
画層1
  5
11980
 10
119.365
 20
-447.439
 30
0.00000
  70
    32
  0
VERTEX
  8
画層1
  5
11981
 10
118.674
 20
-446.676
 30
0.00000
  70
    32
  0
VERTEX
  8
画層1
  5
11982
 10
118.011
 20
-445.867
 30
0.00000
  70
    32
  0
VERTEX
  8
画層1
  5
11983
 10
117.376
 20
-445.012
 30
0.00000
  70
    32
  0
VERTEX
  8
画層1
  5
11984
 10
116.772
 20
-444.115
 30
0.00000
  70
    32
  0
VERTEX
  8
画層1
  5
11985
 10
116.199
 20
-443.176
 30
0.00000
  70
    32
  0
VERTEX
  8
画層1
  5
11986
 10
115.660
 20
-442.199
 30
0.00000
  70
    32
  0
VERTEX
  8
画層1
  5
11987
 10
115.156
 20
-441.186
 30
0.00000
  70
    32
  0
VERTEX
  8
画層1
  5
11988
 10
114.687
 20
-440.139
 30
0.00000
  70
    32
  0
VERTEX
  8
画層1
  5
11989
 10
114.255
 20
-439.061
 30
0.00000
  70
    32
  0
VERTEX
  8
画層1
  5
1198A
 10
113.861
 20
-437.954
 30
0.00000
  70
    32
  0
VERTEX
  8
画層1
  5
1198B
 10
113.506
 20
-436.821
 30
0.00000
  70
    32
  0
VERTEX
  8
画層1
  5
1198C
 10
113.190
 20
-435.664
 30
0.00000
  70
    32
  0
VERTEX
  8
画層1
  5
1198D
 10
112.915
 20
-434.488
 30
0.00000
  70
    32
  0
VERTEX
  8
画層1
  5
1198E
 10
112.682
 20
-433.293
 30
0.00000
  70
    32
  0
VERTEX
  8
画層1
  5
1198F
 10
112.490
 20
-432.084
 30
0.00000
  70
    32
  0
VERTEX
  8
画層1
  5
11990
 10
112.340
 20
-430.863
 30
0.00000
  70
    32
  0
VERTEX
  8
画層1
  5
11991
 10
112.233
 20
-429.633
 30
0.00000
  70
    32
  0
VERTEX
  8
画層1
  5
11992
 10
112.168
 20
-428.397
 30
0.00000
  70
    32
  0
VERTEX
  8
画層1
  5
11993
 10
112.147
 20
-427.158
 30
0.00000
  70
    32
  0
VERTEX
  8
画層1
  5
11994
 10
112.168
 20
-425.919
 30
0.00000
  70
    32
  0
VERTEX
  8
画層1
  5
11995
 10
112.233
 20
-424.683
 30
0.00000
  70
    32
  0
VERTEX
  8
画層1
  5
11996
 10
112.340
 20
-423.453
 30
0.00000
  70
    32
  0
VERTEX
  8
画層1
  5
11997
 10
112.490
 20
-422.232
 30
0.00000
  70
    32
  0
VERTEX
  8
画層1
  5
11998
 10
112.682
 20
-421.023
 30
0.00000
  70
    32
  0
VERTEX
  8
画層1
  5
11999
 10
112.915
 20
-419.828
 30
0.00000
  70
    32
  0
VERTEX
  8
画層1
  5
1199A
 10
113.190
 20
-418.651
 30
0.00000
  70
    32
  0
VERTEX
  8
画層1
  5
1199B
 10
113.506
 20
-417.495
 30
0.00000
  70
    32
  0
VERTEX
  8
画層1
  5
1199C
 10
113.861
 20
-416.362
 30
0.00000
  70
    32
  0
VERTEX
  8
画層1
  5
1199D
 10
114.255
 20
-415.255
 30
0.00000
  70
    32
  0
VERTEX
  8
画層1
  5
1199E
 10
114.687
 20
-414.177
 30
0.00000
  70
    32
  0
VERTEX
  8
画層1
  5
1199F
 10
115.156
 20
-413.130
 30
0.00000
  70
    32
  0
VERTEX
  8
画層1
  5
119A0
 10
115.660
 20
-412.117
 30
0.00000
  70
    32
  0
VERTEX
  8
画層1
  5
119A1
 10
116.199
 20
-411.139
 30
0.00000
  70
    32
  0
VERTEX
  8
画層1
  5
119A2
 10
116.772
 20
-410.201
 30
0.00000
  70
    32
  0
VERTEX
  8
画層1
  5
119A3
 10
117.376
 20
-409.303
 30
0.00000
  70
    32
  0
VERTEX
  8
画層1
  5
119A4
 10
118.011
 20
-408.449
 30
0.00000
  70
    32
  0
VERTEX
  8
画層1
  5
119A5
 10
118.674
 20
-407.639
 30
0.00000
  70
    32
  0
VERTEX
  8
画層1
  5
119A6
 10
119.365
 20
-406.877
 30
0.00000
  70
    32
  0
VERTEX
  8
画層1
  5
119A7
 10
120.082
 20
-406.163
 30
0.00000
  70
    32
  0
VERTEX
  8
画層1
  5
119A8
 10
120.822
 20
-405.500
 30
0.00000
  70
    32
  0
VERTEX
  8
画層1
  5
119A9
 10
121.585
 20
-404.889
 30
0.00000
  70
    32
  0
VERTEX
  8
画層1
  5
119AA
 10
122.367
 20
-404.332
 30
0.00000
  70
    32
  0
VERTEX
  8
画層1
  5
119AB
 10
123.168
 20
-403.830
 30
0.00000
  70
    32
  0
VERTEX
  8
画層1
  5
119AC
 10
123.986
 20
-403.384
 30
0.00000
  70
    32
  0
VERTEX
  8
画層1
  5
119AD
 10
124.818
 20
-402.995
 30
0.00000
  70
    32
  0
VERTEX
  8
画層1
  5
119AE
 10
125.663
 20
-402.665
 30
0.00000
  70
    32
  0
VERTEX
  8
画層1
  5
119AF
 10
126.518
 20
-402.393
 30
0.00000
  70
    32
  0
VERTEX
  8
画層1
  5
119B0
 10
127.381
 20
-402.181
 30
0.00000
  70
    32
  0
VERTEX
  8
画層1
  5
119B1
 10
128.251
 20
-402.030
 30
0.00000
  70
    32
  0
VERTEX
  8
画層1
  5
119B2
 10
129.125
 20
-401.938
 30
0.00000
  70
    32
  0
VERTEX
  8
画層1
  5
119B3
 10
130.001
 20
-401.908
 30
0.00000
  70
    32
  0
SEQEND
  8
画層1
  5
119B4
  0
POLYLINE
  5
11634
  8
画層1
 62
     7
 10
127.9858339342362967
 20
-452.4079152143990541
 30
0.0
 66
     1
 70
     8
  0
VERTEX
  8
画層1
  5
119B5
 10
127.986
 20
-452.408
 30
0.00000
  70
    32
  0
VERTEX
  8
画層1
  5
119B6
 10
127.548
 20
-452.400
 30
0.00000
  70
    32
  0
VERTEX
  8
画層1
  5
119B7
 10
127.110
 20
-452.378
 30
0.00000
  70
    32
  0
VERTEX
  8
画層1
  5
119B8
 10
126.672
 20
-452.339
 30
0.00000
  70
    32
  0
VERTEX
  8
画層1
  5
119B9
 10
126.236
 20
-452.286
 30
0.00000
  70
    32
  0
VERTEX
  8
画層1
  5
119BA
 10
125.800
 20
-452.218
 30
0.00000
  70
    32
  0
VERTEX
  8
画層1
  5
119BB
 10
125.366
 20
-452.135
 30
0.00000
  70
    32
  0
VERTEX
  8
画層1
  5
119BC
 10
124.933
 20
-452.036
 30
0.00000
  70
    32
  0
VERTEX
  8
画層1
  5
119BD
 10
124.503
 20
-451.923
 30
0.00000
  70
    32
  0
VERTEX
  8
画層1
  5
119BE
 10
124.074
 20
-451.794
 30
0.00000
  70
    32
  0
VERTEX
  8
画層1
  5
119BF
 10
123.648
 20
-451.651
 30
0.00000
  70
    32
  0
VERTEX
  8
画層1
  5
119C0
 10
123.224
 20
-451.493
 30
0.00000
  70
    32
  0
VERTEX
  8
画層1
  5
119C1
 10
122.803
 20
-451.321
 30
0.00000
  70
    32
  0
VERTEX
  8
画層1
  5
119C2
 10
122.385
 20
-451.134
 30
0.00000
  70
    32
  0
VERTEX
  8
画層1
  5
119C3
 10
121.971
 20
-450.932
 30
0.00000
  70
    32
  0
VERTEX
  8
画層1
  5
119C4
 10
121.560
 20
-450.716
 30
0.00000
  70
    32
  0
VERTEX
  8
画層1
  5
119C5
 10
121.153
 20
-450.486
 30
0.00000
  70
    32
  0
VERTEX
  8
画層1
  5
119C6
 10
120.750
 20
-450.242
 30
0.00000
  70
    32
  0
VERTEX
  8
画層1
  5
119C7
 10
120.352
 20
-449.984
 30
0.00000
  70
    32
  0
VERTEX
  8
画層1
  5
119C8
 10
119.958
 20
-449.712
 30
0.00000
  70
    32
  0
VERTEX
  8
画層1
  5
119C9
 10
119.569
 20
-449.426
 30
0.00000
  70
    32
  0
VERTEX
  8
画層1
  5
119CA
 10
119.185
 20
-449.128
 30
0.00000
  70
    32
  0
VERTEX
  8
画層1
  5
119CB
 10
118.807
 20
-448.816
 30
0.00000
  70
    32
  0
VERTEX
  8
画層1
  5
119CC
 10
118.434
 20
-448.490
 30
0.00000
  70
    32
  0
VERTEX
  8
画層1
  5
119CD
 10
118.066
 20
-448.153
 30
0.00000
  70
    32
  0
VERTEX
  8
画層1
  5
119CE
 10
117.705
 20
-447.802
 30
0.00000
  70
    32
  0
VERTEX
  8
画層1
  5
119CF
 10
117.350
 20
-447.439
 30
0.00000
  70
    32
  0
VERTEX
  8
画層1
  5
119D0
 10
117.001
 20
-447.064
 30
0.00000
  70
    32
  0
VERTEX
  8
画層1
  5
119D1
 10
116.659
 20
-446.676
 30
0.00000
  70
    32
  0
VERTEX
  8
画層1
  5
119D2
 10
116.324
 20
-446.277
 30
0.00000
  70
    32
  0
VERTEX
  8
画層1
  5
119D3
 10
115.996
 20
-445.867
 30
0.00000
  70
    32
  0
VERTEX
  8
画層1
  5
119D4
 10
115.674
 20
-445.445
 30
0.00000
  70
    32
  0
VERTEX
  8
画層1
  5
119D5
 10
115.361
 20
-445.012
 30
0.00000
  70
    32
  0
VERTEX
  8
画層1
  5
119D6
 10
115.055
 20
-444.569
 30
0.00000
  70
    32
  0
VERTEX
  8
画層1
  5
119D7
 10
114.757
 20
-444.115
 30
0.00000
  70
    32
  0
VERTEX
  8
画層1
  5
119D8
 10
114.466
 20
-443.651
 30
0.00000
  70
    32
  0
VERTEX
  8
画層1
  5
119D9
 10
114.184
 20
-443.176
 30
0.00000
  70
    32
  0
VERTEX
  8
画層1
  5
119DA
 10
113.910
 20
-442.693
 30
0.00000
  70
    32
  0
VERTEX
  8
画層1
  5
119DB
 10
113.645
 20
-442.199
 30
0.00000
  70
    32
  0
VERTEX
  8
画層1
  5
119DC
 10
113.388
 20
-441.697
 30
0.00000
  70
    32
  0
VERTEX
  8
画層1
  5
119DD
 10
113.140
 20
-441.186
 30
0.00000
  70
    32
  0
VERTEX
  8
画層1
  5
119DE
 10
112.901
 20
-440.667
 30
0.00000
  70
    32
  0
VERTEX
  8
画層1
  5
119DF
 10
112.672
 20
-440.139
 30
0.00000
  70
    32
  0
VERTEX
  8
画層1
  5
119E0
 10
112.451
 20
-439.604
 30
0.00000
  70
    32
  0
VERTEX
  8
画層1
  5
119E1
 10
112.240
 20
-439.061
 30
0.00000
  70
    32
  0
VERTEX
  8
画層1
  5
119E2
 10
112.038
 20
-438.511
 30
0.00000
  70
    32
  0
VERTEX
  8
画層1
  5
119E3
 10
111.846
 20
-437.954
 30
0.00000
  70
    32
  0
VERTEX
  8
画層1
  5
119E4
 10
111.663
 20
-437.390
 30
0.00000
  70
    32
  0
VERTEX
  8
画層1
  5
119E5
 10
111.490
 20
-436.821
 30
0.00000
  70
    32
  0
VERTEX
  8
画層1
  5
119E6
 10
111.328
 20
-436.245
 30
0.00000
  70
    32
  0
VERTEX
  8
画層1
  5
119E7
 10
111.175
 20
-435.664
 30
0.00000
  70
    32
  0
VERTEX
  8
画層1
  5
119E8
 10
111.033
 20
-435.078
 30
0.00000
  70
    32
  0
VERTEX
  8
画層1
  5
119E9
 10
110.900
 20
-434.488
 30
0.00000
  70
    32
  0
VERTEX
  8
画層1
  5
119EA
 10
110.778
 20
-433.892
 30
0.00000
  70
    32
  0
VERTEX
  8
画層1
  5
119EB
 10
110.666
 20
-433.293
 30
0.00000
  70
    32
  0
VERTEX
  8
画層1
  5
119EC
 10
110.565
 20
-432.690
 30
0.00000
  70
    32
  0
VERTEX
  8
画層1
  5
119ED
 10
110.474
 20
-432.084
 30
0.00000
  70
    32
  0
VERTEX
  8
画層1
  5
119EE
 10
110.394
 20
-431.475
 30
0.00000
  70
    32
  0
VERTEX
  8
画層1
  5
119EF
 10
110.325
 20
-430.863
 30
0.00000
  70
    32
  0
VERTEX
  8
画層1
  5
119F0
 10
110.266
 20
-430.249
 30
0.00000
  70
    32
  0
VERTEX
  8
画層1
  5
119F1
 10
110.217
 20
-429.633
 30
0.00000
  70
    32
  0
VERTEX
  8
画層1
  5
119F2
 10
110.180
 20
-429.015
 30
0.00000
  70
    32
  0
VERTEX
  8
画層1
  5
119F3
 10
110.153
 20
-428.397
 30
0.00000
  70
    32
  0
VERTEX
  8
画層1
  5
119F4
 10
110.137
 20
-427.778
 30
0.00000
  70
    32
  0
VERTEX
  8
画層1
  5
119F5
 10
110.131
 20
-427.158
 30
0.00000
  70
    32
  0
VERTEX
  8
画層1
  5
119F6
 10
110.137
 20
-426.538
 30
0.00000
  70
    32
  0
VERTEX
  8
画層1
  5
119F7
 10
110.153
 20
-425.919
 30
0.00000
  70
    32
  0
VERTEX
  8
画層1
  5
119F8
 10
110.180
 20
-425.300
 30
0.00000
  70
    32
  0
VERTEX
  8
画層1
  5
119F9
 10
110.217
 20
-424.683
 30
0.00000
  70
    32
  0
VERTEX
  8
画層1
  5
119FA
 10
110.266
 20
-424.067
 30
0.00000
  70
    32
  0
VERTEX
  8
画層1
  5
119FB
 10
110.325
 20
-423.453
 30
0.00000
  70
    32
  0
VERTEX
  8
画層1
  5
119FC
 10
110.394
 20
-422.841
 30
0.00000
  70
    32
  0
VERTEX
  8
画層1
  5
119FD
 10
110.474
 20
-422.232
 30
0.00000
  70
    32
  0
VERTEX
  8
画層1
  5
119FE
 10
110.565
 20
-421.626
 30
0.00000
  70
    32
  0
VERTEX
  8
画層1
  5
119FF
 10
110.666
 20
-421.023
 30
0.00000
  70
    32
  0
VERTEX
  8
画層1
  5
11A00
 10
110.778
 20
-420.423
 30
0.00000
  70
    32
  0
VERTEX
  8
画層1
  5
11A01
 10
110.900
 20
-419.828
 30
0.00000
  70
    32
  0
VERTEX
  8
画層1
  5
11A02
 10
111.033
 20
-419.237
 30
0.00000
  70
    32
  0
VERTEX
  8
画層1
  5
11A03
 10
111.175
 20
-418.651
 30
0.00000
  70
    32
  0
VERTEX
  8
画層1
  5
11A04
 10
111.328
 20
-418.071
 30
0.00000
  70
    32
  0
VERTEX
  8
画層1
  5
11A05
 10
111.490
 20
-417.495
 30
0.00000
  70
    32
  0
VERTEX
  8
画層1
  5
11A06
 10
111.663
 20
-416.926
 30
0.00000
  70
    32
  0
VERTEX
  8
画層1
  5
11A07
 10
111.846
 20
-416.362
 30
0.00000
  70
    32
  0
VERTEX
  8
画層1
  5
11A08
 10
112.038
 20
-415.805
 30
0.00000
  70
    32
  0
VERTEX
  8
画層1
  5
11A09
 10
112.240
 20
-415.255
 30
0.00000
  70
    32
  0
VERTEX
  8
画層1
  5
11A0A
 10
112.451
 20
-414.712
 30
0.00000
  70
    32
  0
VERTEX
  8
画層1
  5
11A0B
 10
112.672
 20
-414.177
 30
0.00000
  70
    32
  0
VERTEX
  8
画層1
  5
11A0C
 10
112.901
 20
-413.649
 30
0.00000
  70
    32
  0
VERTEX
  8
画層1
  5
11A0D
 10
113.140
 20
-413.130
 30
0.00000
  70
    32
  0
VERTEX
  8
画層1
  5
11A0E
 10
113.388
 20
-412.619
 30
0.00000
  70
    32
  0
VERTEX
  8
画層1
  5
11A0F
 10
113.645
 20
-412.117
 30
0.00000
  70
    32
  0
VERTEX
  8
画層1
  5
11A10
 10
113.910
 20
-411.623
 30
0.00000
  70
    32
  0
VERTEX
  8
画層1
  5
11A11
 10
114.184
 20
-411.139
 30
0.00000
  70
    32
  0
VERTEX
  8
画層1
  5
11A12
 10
114.466
 20
-410.665
 30
0.00000
  70
    32
  0
VERTEX
  8
画層1
  5
11A13
 10
114.757
 20
-410.201
 30
0.00000
  70
    32
  0
VERTEX
  8
画層1
  5
11A14
 10
115.055
 20
-409.747
 30
0.00000
  70
    32
  0
VERTEX
  8
画層1
  5
11A15
 10
115.361
 20
-409.303
 30
0.00000
  70
    32
  0
VERTEX
  8
画層1
  5
11A16
 10
115.674
 20
-408.871
 30
0.00000
  70
    32
  0
VERTEX
  8
画層1
  5
11A17
 10
115.996
 20
-408.449
 30
0.00000
  70
    32
  0
VERTEX
  8
画層1
  5
11A18
 10
116.324
 20
-408.038
 30
0.00000
  70
    32
  0
VERTEX
  8
画層1
  5
11A19
 10
116.659
 20
-407.639
 30
0.00000
  70
    32
  0
VERTEX
  8
画層1
  5
11A1A
 10
117.001
 20
-407.252
 30
0.00000
  70
    32
  0
VERTEX
  8
画層1
  5
11A1B
 10
117.350
 20
-406.877
 30
0.00000
  70
    32
  0
VERTEX
  8
画層1
  5
11A1C
 10
117.705
 20
-406.514
 30
0.00000
  70
    32
  0
VERTEX
  8
画層1
  5
11A1D
 10
118.066
 20
-406.163
 30
0.00000
  70
    32
  0
VERTEX
  8
画層1
  5
11A1E
 10
118.434
 20
-405.825
 30
0.00000
  70
    32
  0
VERTEX
  8
画層1
  5
11A1F
 10
118.807
 20
-405.500
 30
0.00000
  70
    32
  0
VERTEX
  8
画層1
  5
11A20
 10
119.185
 20
-405.188
 30
0.00000
  70
    32
  0
VERTEX
  8
画層1
  5
11A21
 10
119.569
 20
-404.889
 30
0.00000
  70
    32
  0
VERTEX
  8
画層1
  5
11A22
 10
119.958
 20
-404.604
 30
0.00000
  70
    32
  0
VERTEX
  8
画層1
  5
11A23
 10
120.352
 20
-404.332
 30
0.00000
  70
    32
  0
VERTEX
  8
画層1
  5
11A24
 10
120.750
 20
-404.074
 30
0.00000
  70
    32
  0
VERTEX
  8
画層1
  5
11A25
 10
121.153
 20
-403.830
 30
0.00000
  70
    32
  0
VERTEX
  8
画層1
  5
11A26
 10
121.560
 20
-403.600
 30
0.00000
  70
    32
  0
VERTEX
  8
画層1
  5
11A27
 10
121.971
 20
-403.384
 30
0.00000
  70
    32
  0
VERTEX
  8
画層1
  5
11A28
 10
122.385
 20
-403.182
 30
0.00000
  70
    32
  0
VERTEX
  8
画層1
  5
11A29
 10
122.803
 20
-402.995
 30
0.00000
  70
    32
  0
VERTEX
  8
画層1
  5
11A2A
 10
123.224
 20
-402.823
 30
0.00000
  70
    32
  0
VERTEX
  8
画層1
  5
11A2B
 10
123.648
 20
-402.665
 30
0.00000
  70
    32
  0
VERTEX
  8
画層1
  5
11A2C
 10
124.074
 20
-402.521
 30
0.00000
  70
    32
  0
VERTEX
  8
画層1
  5
11A2D
 10
124.503
 20
-402.393
 30
0.00000
  70
    32
  0
VERTEX
  8
画層1
  5
11A2E
 10
124.933
 20
-402.280
 30
0.00000
  70
    32
  0
VERTEX
  8
画層1
  5
11A2F
 10
125.366
 20
-402.181
 30
0.00000
  70
    32
  0
VERTEX
  8
画層1
  5
11A30
 10
125.800
 20
-402.098
 30
0.00000
  70
    32
  0
VERTEX
  8
画層1
  5
11A31
 10
126.236
 20
-402.030
 30
0.00000
  70
    32
  0
VERTEX
  8
画層1
  5
11A32
 10
126.672
 20
-401.976
 30
0.00000
  70
    32
  0
VERTEX
  8
画層1
  5
11A33
 10
127.110
 20
-401.938
 30
0.00000
  70
    32
  0
VERTEX
  8
画層1
  5
11A34
 10
127.548
 20
-401.916
 30
0.00000
  70
    32
  0
VERTEX
  8
画層1
  5
11A35
 10
127.986
 20
-401.908
 30
0.00000
  70
    32
  0
SEQEND
  8
画層1
  5
11A36
  0
POLYLINE
  5
11635
  8
画層1
 62
     7
 10
130.0010882606179052
 20
-409.3079152143990882
 30
0.0
 66
     1
 70
     8
  0
VERTEX
  8
画層1
  5
11A37
 10
130.001
 20
-409.308
 30
0.00000
  70
    32
  0
VERTEX
  8
画層1
  5
11A38
 10
130.620
 20
-409.329
 30
0.00000
  70
    32
  0
VERTEX
  8
画層1
  5
11A39
 10
131.238
 20
-409.394
 30
0.00000
  70
    32
  0
VERTEX
  8
画層1
  5
11A3A
 10
131.853
 20
-409.501
 30
0.00000
  70
    32
  0
VERTEX
  8
画層1
  5
11A3B
 10
132.463
 20
-409.651
 30
0.00000
  70
    32
  0
VERTEX
  8
画層1
  5
11A3C
 10
133.068
 20
-409.843
 30
0.00000
  70
    32
  0
VERTEX
  8
画層1
  5
11A3D
 10
133.665
 20
-410.077
 30
0.00000
  70
    32
  0
VERTEX
  8
画層1
  5
11A3E
 10
134.253
 20
-410.351
 30
0.00000
  70
    32
  0
VERTEX
  8
画層1
  5
11A3F
 10
134.831
 20
-410.667
 30
0.00000
  70
    32
  0
VERTEX
  8
画層1
  5
11A40
 10
135.398
 20
-411.022
 30
0.00000
  70
    32
  0
VERTEX
  8
画層1
  5
11A41
 10
135.951
 20
-411.416
 30
0.00000
  70
    32
  0
VERTEX
  8
画層1
  5
11A42
 10
136.490
 20
-411.847
 30
0.00000
  70
    32
  0
VERTEX
  8
画層1
  5
11A43
 10
137.013
 20
-412.316
 30
0.00000
  70
    32
  0
VERTEX
  8
画層1
  5
11A44
 10
137.520
 20
-412.821
 30
0.00000
  70
    32
  0
VERTEX
  8
画層1
  5
11A45
 10
138.008
 20
-413.360
 30
0.00000
  70
    32
  0
VERTEX
  8
画層1
  5
11A46
 10
138.477
 20
-413.932
 30
0.00000
  70
    32
  0
VERTEX
  8
画層1
  5
11A47
 10
138.926
 20
-414.536
 30
0.00000
  70
    32
  0
VERTEX
  8
画層1
  5
11A48
 10
139.353
 20
-415.171
 30
0.00000
  70
    32
  0
VERTEX
  8
画層1
  5
11A49
 10
139.758
 20
-415.834
 30
0.00000
  70
    32
  0
VERTEX
  8
画層1
  5
11A4A
 10
140.139
 20
-416.525
 30
0.00000
  70
    32
  0
VERTEX
  8
画層1
  5
11A4B
 10
140.496
 20
-417.241
 30
0.00000
  70
    32
  0
VERTEX
  8
画層1
  5
11A4C
 10
140.827
 20
-417.981
 30
0.00000
  70
    32
  0
VERTEX
  8
画層1
  5
11A4D
 10
141.133
 20
-418.743
 30
0.00000
  70
    32
  0
VERTEX
  8
画層1
  5
11A4E
 10
141.411
 20
-419.526
 30
0.00000
  70
    32
  0
VERTEX
  8
画層1
  5
11A4F
 10
141.662
 20
-420.327
 30
0.00000
  70
    32
  0
VERTEX
  8
画層1
  5
11A50
 10
141.885
 20
-421.144
 30
0.00000
  70
    32
  0
VERTEX
  8
画層1
  5
11A51
 10
142.079
 20
-421.976
 30
0.00000
  70
    32
  0
VERTEX
  8
画層1
  5
11A52
 10
142.245
 20
-422.821
 30
0.00000
  70
    32
  0
VERTEX
  8
画層1
  5
11A53
 10
142.380
 20
-423.676
 30
0.00000
  70
    32
  0
VERTEX
  8
画層1
  5
11A54
 10
142.486
 20
-424.539
 30
0.00000
  70
    32
  0
VERTEX
  8
画層1
  5
11A55
 10
142.562
 20
-425.408
 30
0.00000
  70
    32
  0
VERTEX
  8
画層1
  5
11A56
 10
142.608
 20
-426.282
 30
0.00000
  70
    32
  0
VERTEX
  8
画層1
  5
11A57
 10
142.623
 20
-427.158
 30
0.00000
  70
    32
  0
VERTEX
  8
画層1
  5
11A58
 10
142.608
 20
-428.034
 30
0.00000
  70
    32
  0
VERTEX
  8
画層1
  5
11A59
 10
142.562
 20
-428.908
 30
0.00000
  70
    32
  0
VERTEX
  8
画層1
  5
11A5A
 10
142.486
 20
-429.777
 30
0.00000
  70
    32
  0
VERTEX
  8
画層1
  5
11A5B
 10
142.380
 20
-430.640
 30
0.00000
  70
    32
  0
VERTEX
  8
画層1
  5
11A5C
 10
142.245
 20
-431.495
 30
0.00000
  70
    32
  0
VERTEX
  8
画層1
  5
11A5D
 10
142.079
 20
-432.339
 30
0.00000
  70
    32
  0
VERTEX
  8
画層1
  5
11A5E
 10
141.885
 20
-433.171
 30
0.00000
  70
    32
  0
VERTEX
  8
画層1
  5
11A5F
 10
141.662
 20
-433.989
 30
0.00000
  70
    32
  0
VERTEX
  8
画層1
  5
11A60
 10
141.411
 20
-434.790
 30
0.00000
  70
    32
  0
VERTEX
  8
画層1
  5
11A61
 10
141.133
 20
-435.572
 30
0.00000
  70
    32
  0
VERTEX
  8
画層1
  5
11A62
 10
140.827
 20
-436.335
 30
0.00000
  70
    32
  0
VERTEX
  8
画層1
  5
11A63
 10
140.496
 20
-437.075
 30
0.00000
  70
    32
  0
VERTEX
  8
画層1
  5
11A64
 10
140.139
 20
-437.791
 30
0.00000
  70
    32
  0
VERTEX
  8
画層1
  5
11A65
 10
139.758
 20
-438.482
 30
0.00000
  70
    32
  0
VERTEX
  8
画層1
  5
11A66
 10
139.353
 20
-439.145
 30
0.00000
  70
    32
  0
VERTEX
  8
画層1
  5
11A67
 10
138.926
 20
-439.780
 30
0.00000
  70
    32
  0
VERTEX
  8
画層1
  5
11A68
 10
138.477
 20
-440.384
 30
0.00000
  70
    32
  0
VERTEX
  8
画層1
  5
11A69
 10
138.008
 20
-440.956
 30
0.00000
  70
    32
  0
VERTEX
  8
画層1
  5
11A6A
 10
137.520
 20
-441.495
 30
0.00000
  70
    32
  0
VERTEX
  8
画層1
  5
11A6B
 10
137.013
 20
-442.000
 30
0.00000
  70
    32
  0
VERTEX
  8
画層1
  5
11A6C
 10
136.490
 20
-442.468
 30
0.00000
  70
    32
  0
VERTEX
  8
画層1
  5
11A6D
 10
135.951
 20
-442.900
 30
0.00000
  70
    32
  0
VERTEX
  8
画層1
  5
11A6E
 10
135.398
 20
-443.294
 30
0.00000
  70
    32
  0
VERTEX
  8
画層1
  5
11A6F
 10
134.831
 20
-443.649
 30
0.00000
  70
    32
  0
VERTEX
  8
画層1
  5
11A70
 10
134.253
 20
-443.964
 30
0.00000
  70
    32
  0
VERTEX
  8
画層1
  5
11A71
 10
133.665
 20
-444.239
 30
0.00000
  70
    32
  0
VERTEX
  8
画層1
  5
11A72
 10
133.068
 20
-444.473
 30
0.00000
  70
    32
  0
VERTEX
  8
画層1
  5
11A73
 10
132.463
 20
-444.665
 30
0.00000
  70
    32
  0
VERTEX
  8
画層1
  5
11A74
 10
131.853
 20
-444.815
 30
0.00000
  70
    32
  0
VERTEX
  8
画層1
  5
11A75
 10
131.238
 20
-444.922
 30
0.00000
  70
    32
  0
VERTEX
  8
画層1
  5
11A76
 10
130.620
 20
-444.986
 30
0.00000
  70
    32
  0
VERTEX
  8
画層1
  5
11A77
 10
130.001
 20
-445.008
 30
0.00000
  70
    32
  0
VERTEX
  8
画層1
  5
11A78
 10
129.382
 20
-444.986
 30
0.00000
  70
    32
  0
VERTEX
  8
画層1
  5
11A79
 10
128.764
 20
-444.922
 30
0.00000
  70
    32
  0
VERTEX
  8
画層1
  5
11A7A
 10
128.149
 20
-444.815
 30
0.00000
  70
    32
  0
VERTEX
  8
画層1
  5
11A7B
 10
127.539
 20
-444.665
 30
0.00000
  70
    32
  0
VERTEX
  8
画層1
  5
11A7C
 10
126.934
 20
-444.473
 30
0.00000
  70
    32
  0
VERTEX
  8
画層1
  5
11A7D
 10
126.337
 20
-444.239
 30
0.00000
  70
    32
  0
VERTEX
  8
画層1
  5
11A7E
 10
125.749
 20
-443.964
 30
0.00000
  70
    32
  0
VERTEX
  8
画層1
  5
11A7F
 10
125.171
 20
-443.649
 30
0.00000
  70
    32
  0
VERTEX
  8
画層1
  5
11A80
 10
124.605
 20
-443.294
 30
0.00000
  70
    32
  0
VERTEX
  8
画層1
  5
11A81
 10
124.051
 20
-442.900
 30
0.00000
  70
    32
  0
VERTEX
  8
画層1
  5
11A82
 10
123.512
 20
-442.468
 30
0.00000
  70
    32
  0
VERTEX
  8
画層1
  5
11A83
 10
122.989
 20
-442.000
 30
0.00000
  70
    32
  0
VERTEX
  8
画層1
  5
11A84
 10
122.482
 20
-441.495
 30
0.00000
  70
    32
  0
VERTEX
  8
画層1
  5
11A85
 10
121.994
 20
-440.956
 30
0.00000
  70
    32
  0
VERTEX
  8
画層1
  5
11A86
 10
121.525
 20
-440.384
 30
0.00000
  70
    32
  0
VERTEX
  8
画層1
  5
11A87
 10
121.076
 20
-439.780
 30
0.00000
  70
    32
  0
VERTEX
  8
画層1
  5
11A88
 10
120.649
 20
-439.145
 30
0.00000
  70
    32
  0
VERTEX
  8
画層1
  5
11A89
 10
120.244
 20
-438.482
 30
0.00000
  70
    32
  0
VERTEX
  8
画層1
  5
11A8A
 10
119.863
 20
-437.791
 30
0.00000
  70
    32
  0
VERTEX
  8
画層1
  5
11A8B
 10
119.506
 20
-437.075
 30
0.00000
  70
    32
  0
VERTEX
  8
画層1
  5
11A8C
 10
119.175
 20
-436.335
 30
0.00000
  70
    32
  0
VERTEX
  8
画層1
  5
11A8D
 10
118.870
 20
-435.572
 30
0.00000
  70
    32
  0
VERTEX
  8
画層1
  5
11A8E
 10
118.591
 20
-434.790
 30
0.00000
  70
    32
  0
VERTEX
  8
画層1
  5
11A8F
 10
118.340
 20
-433.989
 30
0.00000
  70
    32
  0
VERTEX
  8
画層1
  5
11A90
 10
118.117
 20
-433.171
 30
0.00000
  70
    32
  0
VERTEX
  8
画層1
  5
11A91
 10
117.923
 20
-432.339
 30
0.00000
  70
    32
  0
VERTEX
  8
画層1
  5
11A92
 10
117.757
 20
-431.495
 30
0.00000
  70
    32
  0
VERTEX
  8
画層1
  5
11A93
 10
117.622
 20
-430.640
 30
0.00000
  70
    32
  0
VERTEX
  8
画層1
  5
11A94
 10
117.516
 20
-429.777
 30
0.00000
  70
    32
  0
VERTEX
  8
画層1
  5
11A95
 10
117.440
 20
-428.908
 30
0.00000
  70
    32
  0
VERTEX
  8
画層1
  5
11A96
 10
117.394
 20
-428.034
 30
0.00000
  70
    32
  0
VERTEX
  8
画層1
  5
11A97
 10
117.379
 20
-427.158
 30
0.00000
  70
    32
  0
VERTEX
  8
画層1
  5
11A98
 10
117.394
 20
-426.282
 30
0.00000
  70
    32
  0
VERTEX
  8
画層1
  5
11A99
 10
117.440
 20
-425.408
 30
0.00000
  70
    32
  0
VERTEX
  8
画層1
  5
11A9A
 10
117.516
 20
-424.539
 30
0.00000
  70
    32
  0
VERTEX
  8
画層1
  5
11A9B
 10
117.622
 20
-423.676
 30
0.00000
  70
    32
  0
VERTEX
  8
画層1
  5
11A9C
 10
117.757
 20
-422.821
 30
0.00000
  70
    32
  0
VERTEX
  8
画層1
  5
11A9D
 10
117.923
 20
-421.976
 30
0.00000
  70
    32
  0
VERTEX
  8
画層1
  5
11A9E
 10
118.117
 20
-421.144
 30
0.00000
  70
    32
  0
VERTEX
  8
画層1
  5
11A9F
 10
118.340
 20
-420.327
 30
0.00000
  70
    32
  0
VERTEX
  8
画層1
  5
11AA0
 10
118.591
 20
-419.526
 30
0.00000
  70
    32
  0
VERTEX
  8
画層1
  5
11AA1
 10
118.870
 20
-418.743
 30
0.00000
  70
    32
  0
VERTEX
  8
画層1
  5
11AA2
 10
119.175
 20
-417.981
 30
0.00000
  70
    32
  0
VERTEX
  8
画層1
  5
11AA3
 10
119.506
 20
-417.241
 30
0.00000
  70
    32
  0
VERTEX
  8
画層1
  5
11AA4
 10
119.863
 20
-416.525
 30
0.00000
  70
    32
  0
VERTEX
  8
画層1
  5
11AA5
 10
120.244
 20
-415.834
 30
0.00000
  70
    32
  0
VERTEX
  8
画層1
  5
11AA6
 10
120.649
 20
-415.171
 30
0.00000
  70
    32
  0
VERTEX
  8
画層1
  5
11AA7
 10
121.076
 20
-414.536
 30
0.00000
  70
    32
  0
VERTEX
  8
画層1
  5
11AA8
 10
121.525
 20
-413.932
 30
0.00000
  70
    32
  0
VERTEX
  8
画層1
  5
11AA9
 10
121.994
 20
-413.360
 30
0.00000
  70
    32
  0
VERTEX
  8
画層1
  5
11AAA
 10
122.482
 20
-412.821
 30
0.00000
  70
    32
  0
VERTEX
  8
画層1
  5
11AAB
 10
122.989
 20
-412.316
 30
0.00000
  70
    32
  0
VERTEX
  8
画層1
  5
11AAC
 10
123.512
 20
-411.847
 30
0.00000
  70
    32
  0
VERTEX
  8
画層1
  5
11AAD
 10
124.051
 20
-411.416
 30
0.00000
  70
    32
  0
VERTEX
  8
画層1
  5
11AAE
 10
124.605
 20
-411.022
 30
0.00000
  70
    32
  0
VERTEX
  8
画層1
  5
11AAF
 10
125.171
 20
-410.667
 30
0.00000
  70
    32
  0
VERTEX
  8
画層1
  5
11AB0
 10
125.749
 20
-410.351
 30
0.00000
  70
    32
  0
VERTEX
  8
画層1
  5
11AB1
 10
126.337
 20
-410.077
 30
0.00000
  70
    32
  0
VERTEX
  8
画層1
  5
11AB2
 10
126.934
 20
-409.843
 30
0.00000
  70
    32
  0
VERTEX
  8
画層1
  5
11AB3
 10
127.539
 20
-409.651
 30
0.00000
  70
    32
  0
VERTEX
  8
画層1
  5
11AB4
 10
128.149
 20
-409.501
 30
0.00000
  70
    32
  0
VERTEX
  8
画層1
  5
11AB5
 10
128.764
 20
-409.394
 30
0.00000
  70
    32
  0
VERTEX
  8
画層1
  5
11AB6
 10
129.382
 20
-409.329
 30
0.00000
  70
    32
  0
VERTEX
  8
画層1
  5
11AB7
 10
130.001
 20
-409.308
 30
0.00000
  70
    32
  0
SEQEND
  8
画層1
  5
11AB8
  0
LINE
  5
11636
  8
画層1
 62
     7
 10
127.9858339342362967
 20
-401.9079152143992815
 30
0.0
 11
130.0010882606179052
 21
-401.9079152143992815
 31
0.0
  0
LINE
  5
11637
  8
画層1
 62
     7
 10
127.9858339342362967
 20
-452.4079152143992246
 30
0.0
 11
130.0010882606179052
 21
-452.4079152143992246
 31
0.0
  0
CIRCLE
  5
11638
  8
画層1
 62
     7
 10
0.0
 20
-427.1579152143991109
 30
0.0
 40
25.0000152587896309
  0
CIRCLE
  5
11639
  8
画層1
 62
     7
 10
0.0
 20
-427.1579152143991109
 30
0.0
 40
8.0
  0
CIRCLE
  5
1163A
  8
画層1
 62
     7
 10
0.0
 20
-427.1579152143991109
 30
0.0
 40
7.50000000024
  0
LINE
  5
1163B
  8
画層1
 62
     7
 10
86.6387191712755111
 20
-431.9079752143990731
 30
0.0
 11
83.3705826396786591
 21
-431.8058332813765219
 31
0.0
  0
LINE
  5
1163C
  8
画層1
 62
     7
 10
86.640139171275564
 20
-422.4079152143992246
 30
0.0
 11
83.3705933832674191
 21
-422.5101191857322078
 31
0.0
  0
LINE
  5
1163D
  8
画層1
 62
     7
 10
85.5747791712755088
 20
-431.8747752143992216
 30
0.0
 11
85.5747791712755088
 21
-422.4411752143990952
 31
0.0
  0
LINE
  5
1163E
  8
画層1
 62
     7
 10
88.6387391712754749
 20
-422.4079152143992246
 30
0.0
 11
86.6387391712754606
 21
-422.4079152143992246
 31
0.0
  0
LINE
  5
1163F
  8
画層1
 62
     7
 10
88.6387391712754749
 20
-431.9079152143991109
 30
0.0
 11
86.6387391712754606
 21
-431.9079152143991109
 31
0.0
  0
LINE
  5
11640
  8
画層1
 62
     7
 10
88.6387391712754749
 20
-432.1579152143992246
 30
0.0
 11
88.6387391712754749
 21
-422.1579152143992246
 31
0.0
  0
LINE
  5
11641
  8
画層1
 62
     7
 10
101.1387191712754969
 20
-432.1579152143992246
 30
0.0
 11
88.6387391712754749
 21
-432.1579152143992246
 31
0.0
  0
LINE
  5
11642
  8
画層1
 62
     7
 10
101.1387191712754969
 20
-422.1579152143992246
 30
0.0
 11
88.6387391712754749
 21
-422.1579152143992246
 31
0.0
  0
LINE
  5
11643
  8
画層1
 62
     7
 10
101.1387191712754969
 20
-432.1579152143992246
 30
0.0
 11
101.1387191712754969
 21
-422.1579152143992246
 31
0.0
  0
LINE
  5
11644
  8
画層1
  6
CENTER
 62
     7
 10
-117.3073899942992
 20
-18.306301733681039
 30
0.0
 11
-138.9430797469231038
 21
-39.941991486305028
 31
0.0
  0
ARC
  5
11645
  8
画層1
  6
CENTER
 62
     7
 10
-75.3655226638074964
 20
-57.1999999999999318
 30
0.0
 40
57.2000000000000028
 50
90.0
 51
137.1595013796192859
  0
LINE
  5
11646
  8
画層1
  6
CENTER
 62
     7
 10
152.6443370161140933
 20
-427.1579152143991109
 30
0.0
 11
-152.644337016114207
 21
-427.1579152143991109
 31
0.0
  0
LINE
  5
11647
  8
画層1
 62
     7
 10
70.7221799999997529
 20
-119.3287329247380057
 30
0.0
 11
70.7221799999997529
 21
-125.578722924738301
 31
0.0
  0
LINE
  5
11648
  8
画層1
 62
     7
 10
-32.0002199999998993
 20
-119.8287129247380989
 30
0.0
 11
0.0
 21
-119.8287129247380989
 31
0.0
  0
LINE
  5
11649
  8
画層1
 62
     7
 10
-39.4999950000001334
 20
-118.828722924738301
 30
0.0
 11
-39.4999950000001334
 21
-115.328722924738301
 31
0.0
  0
LINE
  5
1164A
  8
画層1
 62
     7
 10
-70.5003944999998566
 20
-119.3287329247380057
 30
0.0
 11
-70.5003944999998566
 21
-126.8287329247380057
 31
0.0
  0
LINE
  5
1164B
  8
画層1
 62
     7
 10
83.5003799999999643
 20
-126.8287329247380057
 30
0.0
 11
83.5003799999999643
 21
-128.8287129247381131
 31
0.0
  0
LINE
  5
1164C
  8
画層1
 62
     7
 10
-64.4999490000000151
 20
-119.8287129247380989
 30
0.0
 11
-45.0002549999999175
 21
-119.8287129247380989
 31
0.0
  0
LINE
  5
1164D
  8
画層1
 62
     7
 10
-76.5004770000000462
 20
-156.8701929247374949
 30
0.0
 11
-79.5004589999998643
 21
-155.1381579247384082
 31
0.0
  0
LINE
  5
1164E
  8
画層1
 62
     7
 10
-38.5002450000001772
 20
-119.3287329247380057
 30
0.0
 11
-38.5002450000001772
 21
-125.578722924738301
 31
0.0
  0
LINE
  5
1164F
  8
画層1
 62
     7
 10
-43.0964699999999468
 20
-119.3287329247380057
 30
0.0
 11
-43.0964699999999468
 21
-125.578722924738301
 31
0.0
  0
LINE
  5
11650
  8
画層1
 62
     7
 10
82.6343999999999141
 20
-118.8287829247381069
 30
0.0
 11
83.5004279999998147
 21
-119.3287779247383043
 31
0.0
  0
LINE
  5
11651
  8
画層1
 62
     7
 10
-82.634382000000187
 20
-118.828722924738301
 30
0.0
 11
-71.3663925000000745
 21
-118.828722924738301
 31
0.0
  0
LINE
  5
11652
  8
画層1
 62
     7
 10
-83.5003799999999643
 20
-119.3287329247380057
 30
0.0
 11
-83.5003799999999643
 21
-126.8287329247380057
 31
0.0
  0
LINE
  5
11653
  8
画層1
 62
     7
 10
-83.5003799999999643
 20
-119.3287329247380057
 30
0.0
 11
-70.5003944999998566
 21
-119.3287329247380057
 31
0.0
  0
LINE
  5
11654
  8
画層1
 62
     7
 10
-74.0000205000001046
 20
-200.3897529247381897
 30
0.0
 11
-74.0000205000001046
 21
-161.2003029247383097
 31
0.0
  0
LINE
  5
11655
  8
画層1
 62
     7
 10
67.9859999999998763
 20
-229.4170029247383127
 30
0.0
 11
72.2963099999997212
 21
-213.3307329247375037
 31
0.0
  0
LINE
  5
11656
  8
画層1
 62
     7
 10
83.5004549999997749
 20
-128.8287129247381131
 30
0.0
 11
83.5004549999998744
 21
-148.2099579247380916
 31
0.0
  0
LINE
  5
11657
  8
画層1
 62
     7
 10
73.9999950000001263
 20
-158.3138529247383133
 30
0.0
 11
-74.0000205000001046
 21
-158.3138529247383133
 31
0.0
  0
LINE
  5
11658
  8
画層1
 62
     7
 10
-67.9859985000002638
 20
-229.4169879247376969
 30
0.0
 11
-72.2963039999999637
 21
-213.3307179247379111
 31
0.0
  0
LINE
  5
11659
  8
画層1
 62
     7
 10
-45.0002549999999175
 20
-125.578722924738301
 30
0.0
 11
-32.0002199999998993
 21
-125.578722924738301
 31
0.0
  0
LINE
  5
1165A
  8
画層1
 62
     7
 10
-45.0002549999999175
 20
-119.3287329247380057
 30
0.0
 11
-45.0002549999999175
 21
-126.8287329247380057
 31
0.0
  0
LINE
  5
1165B
  8
画層1
 62
     7
 10
-44.1342599999998129
 20
-118.828722924738301
 30
0.0
 11
-32.8662750000003214
 21
-118.828722924738301
 31
0.0
  0
LINE
  5
1165C
  8
画層1
 62
     7
 10
-45.0002549999999175
 20
-126.8287329247380057
 30
0.0
 11
-32.0002199999998993
 21
-126.8287329247380057
 31
0.0
  0
LINE
  5
1165D
  8
画層1
 62
     7
 10
-32.8662600000002385
 20
-118.828722924738301
 30
0.0
 11
-32.0002500000000509
 21
-119.328717924738001
 31
0.0
  0
LINE
  5
1165E
  8
画層1
 62
     7
 10
-78.6827370000000883
 20
-119.3287329247380057
 30
0.0
 11
-78.6827370000000883
 21
-125.578722924738301
 31
0.0
  0
LINE
  5
1165F
  8
画層1
 62
     7
 10
-71.3712450000002718
 20
-119.3287329247380057
 30
0.0
 11
-71.3712450000002718
 21
-125.578722924738301
 31
0.0
  0
LINE
  5
11660
  8
画層1
 62
     7
 10
-72.4041885000001457
 20
-119.3287329247380057
 30
0.0
 11
-72.4041885000001457
 21
-125.578722924738301
 31
0.0
  0
LINE
  5
11661
  8
画層1
 62
     7
 10
-83.5003799999999643
 20
-125.578722924738301
 30
0.0
 11
-70.5003944999998566
 21
-125.578722924738301
 31
0.0
  0
LINE
  5
11662
  8
画層1
 62
     7
 10
-83.500046999999995
 20
-128.8287129247381131
 30
0.0
 11
-83.500046999999995
 21
-148.2896229247382962
 31
0.0
  0
LINE
  5
11663
  8
画層1
 62
     7
 10
83.5004549999997749
 20
-134.8287829147382126
 30
0.0
 11
-83.500046999999995
 21
-134.8287829147382126
 31
0.0
  0
LINE
  5
11664
  8
画層1
 62
     7
 10
-24.0000150000000794
 20
-241.828782924737709
 30
0.0
 11
23.9999848254669814
 21
-241.828777959738801
 31
0.0
  0
LINE
  5
11665
  8
画層1
 62
     7
 10
58.3267182546705882
 20
-236.8287826747375959
 30
0.0
 11
-58.326742500000357
 21
-236.8287879247376111
 31
0.0
  0
LINE
  5
11666
  8
画層1
 62
     7
 10
-69.4999410000000353
 20
-128.8287129247381131
 30
0.0
 11
-69.4999410000000353
 21
-124.828722924738301
 31
0.0
  0
LINE
  5
11667
  8
画層1
 62
     7
 10
64.4999399999996967
 20
-119.8287129247380989
 30
0.0
 11
45.0002549999999175
 21
-119.8287129247380989
 31
0.0
  0
LINE
  5
11668
  8
画層1
 62
     7
 10
-83.5003799999999643
 20
-128.8287129247381131
 30
0.0
 11
83.5003799999999643
 21
-128.8287129247381131
 31
0.0
  0
LINE
  5
11669
  8
画層1
 62
     7
 10
69.499934999999823
 20
-128.3287329247380057
 30
0.0
 11
69.499934999999823
 21
-124.828722924738301
 31
0.0
  0
LINE
  5
1166A
  8
画層1
 62
     7
 10
-73.7503799999999501
 20
-119.3287329247380057
 30
0.0
 11
-73.7503799999999501
 21
-125.578722924738301
 31
0.0
  0
LINE
  5
1166B
  8
画層1
 62
     7
 10
-70.5003944999998566
 20
-126.8287329247380057
 30
0.0
 11
-70.5003944999998566
 21
-128.8287129247381131
 31
0.0
  0
LINE
  5
1166C
  8
画層1
 62
     7
 10
-81.5965860000001157
 20
-119.3287329247380057
 30
0.0
 11
-81.5965860000001157
 21
-125.578722924738301
 31
0.0
  0
LINE
  5
1166D
  8
画層1
 62
     7
 10
-80.2503944999998566
 20
-119.3287329247380057
 30
0.0
 11
-80.2503944999998566
 21
-125.578722924738301
 31
0.0
  0
LINE
  5
1166E
  8
画層1
 62
     7
 10
-70.7218604999998206
 20
-119.3287329247380057
 30
0.0
 11
-70.7218604999998206
 21
-125.578722924738301
 31
0.0
  0
LINE
  5
1166F
  8
画層1
 62
     7
 10
-75.3180824999999459
 20
-119.3287329247380057
 30
0.0
 11
-75.3180824999999459
 21
-125.578722924738301
 31
0.0
  0
LINE
  5
11670
  8
画層1
 62
     7
 10
76.5004650000000765
 20
-156.8702229247386128
 30
0.0
 11
79.5004200000003038
 21
-155.1382029247382093
 31
0.0
  0
LINE
  5
11671
  8
画層1
 62
     7
 10
-77.0003639999999905
 20
-119.3287329247380057
 30
0.0
 11
-77.0003639999999905
 21
-125.578722924738301
 31
0.0
  0
LINE
  5
11672
  8
画層1
 62
     7
 10
-71.3664330000001428
 20
-118.8287079247381968
 30
0.0
 11
-70.5003824999998869
 21
-119.3287329247380057
 31
0.0
  0
LINE
  5
11673
  8
画層1
 62
     7
 10
71.371560000000045
 20
-119.3287329247380057
 30
0.0
 11
71.371560000000045
 21
-125.578722924738301
 31
0.0
  0
LINE
  5
11674
  8
画層1
 62
     7
 10
71.3667000000000371
 20
-118.8287679247381021
 30
0.0
 11
70.5006750000002285
 21
-119.3287629247382
 31
0.0
  0
LINE
  5
11675
  8
画層1
 62
     7
 10
-32.0002199999998993
 20
-126.8287329247380057
 30
0.0
 11
-32.0002199999998993
 21
-128.8287129247381131
 31
0.0
  0
LINE
  5
11676
  8
画層1
 62
     7
 10
-40.1825699999999273
 20
-119.3287329247380057
 30
0.0
 11
-40.1825699999999273
 21
-125.578722924738301
 31
0.0
  0
LINE
  5
11677
  8
画層1
 62
     7
 10
-82.6295760000002559
 20
-119.3287329247380057
 30
0.0
 11
-82.6295760000002559
 21
-125.578722924738301
 31
0.0
  0
LINE
  5
11678
  8
画層1
 62
     7
 10
-70.5003944999998566
 20
-126.8287329247380057
 30
0.0
 11
-83.5003799999999643
 21
-126.8287329247380057
 31
0.0
  0
LINE
  5
11679
  8
画層1
 62
     7
 10
-83.2789139999999861
 20
-119.3287329247380057
 30
0.0
 11
-83.2789139999999861
 21
-125.578722924738301
 31
0.0
  0
LINE
  5
1167A
  8
画層1
 62
     7
 10
-41.7502199999998993
 20
-119.3287329247380057
 30
0.0
 11
-41.7502199999998993
 21
-125.578722924738301
 31
0.0
  0
LINE
  5
1167B
  8
画層1
 62
     7
 10
-44.1294149999998808
 20
-119.3287329247380057
 30
0.0
 11
-44.1294149999998808
 21
-125.578722924738301
 31
0.0
  0
LINE
  5
1167C
  8
画層1
 62
     7
 10
-44.7787950000001729
 20
-119.3287329247380057
 30
0.0
 11
-44.7787950000001729
 21
-125.578722924738301
 31
0.0
  0
LINE
  5
1167D
  8
画層1
 62
     7
 10
-45.0002549999999175
 20
-126.8287329247380057
 30
0.0
 11
-45.0002549999999175
 21
-128.8287129247381131
 31
0.0
  0
LINE
  5
1167E
  8
画層1
 62
     7
 10
-33.9040650000001733
 20
-119.3287329247380057
 30
0.0
 11
-33.9040650000001733
 21
-125.578722924738301
 31
0.0
  0
LINE
  5
1167F
  8
画層1
 62
     7
 10
-32.8710750000000189
 20
-119.3287329247380057
 30
0.0
 11
-32.8710750000000189
 21
-125.578722924738301
 31
0.0
  0
LINE
  5
11680
  8
画層1
 62
     7
 10
-25.0000199999999495
 20
-236.8287879247376111
 30
0.0
 11
-25.0000199999999495
 21
-240.8287779247378069
 31
0.0
  0
LINE
  5
11681
  8
画層1
 62
     7
 10
24.9999900000002597
 20
-236.8287879247376111
 30
0.0
 11
24.9999900000002597
 21
-240.8287779247378069
 31
0.0
  0
LINE
  5
11682
  8
画層1
 62
     7
 10
73.9999950000001263
 20
-200.3897529247381897
 30
0.0
 11
73.9999950000001263
 21
-161.2003029247383097
 31
0.0
  0
LINE
  5
11683
  8
画層1
 62
     7
 10
-36.8179199999999582
 20
-119.3287329247380057
 30
0.0
 11
-36.8179199999999582
 21
-125.578722924738301
 31
0.0
  0
LINE
  5
11684
  8
画層1
 62
     7
 10
-44.1342599999998129
 20
-118.8287979247381969
 30
0.0
 11
-45.0002850000000691
 21
-119.3287929247382948
 31
0.0
  0
LINE
  5
11685
  8
画層1
 62
     7
 10
-45.0002549999999175
 20
-119.3287329247380057
 30
0.0
 11
-32.0002199999998993
 21
-119.3287329247380057
 31
0.0
  0
LINE
  5
11686
  8
画層1
 62
     7
 10
-32.0002199999998993
 20
-119.3287329247380057
 30
0.0
 11
-32.0002199999998993
 21
-126.8287329247380057
 31
0.0
  0
LINE
  5
11687
  8
画層1
 62
     7
 10
-32.2217399999999472
 20
-119.3287329247380057
 30
0.0
 11
-32.2217399999999472
 21
-125.578722924738301
 31
0.0
  0
LINE
  5
11688
  8
画層1
 62
     7
 10
-35.2502549999999317
 20
-119.3287329247380057
 30
0.0
 11
-35.2502549999999317
 21
-125.578722924738301
 31
0.0
  0
LINE
  5
11689
  8
画層1
 62
     7
 10
70.5007200000000012
 20
-125.578722924738301
 30
0.0
 11
83.5007399999999507
 21
-125.578722924738301
 31
0.0
  0
LINE
  5
1168A
  8
画層1
 62
     7
 10
72.4045049999999719
 20
-119.3287329247380057
 30
0.0
 11
72.4045049999999719
 21
-125.578722924738301
 31
0.0
  0
LINE
  5
1168B
  8
画層1
 62
     7
 10
-83.5007399999999507
 20
-126.8287329247380057
 30
0.0
 11
-83.5007399999999507
 21
-128.8287129247381131
 31
0.0
  0
LINE
  5
1168C
  8
画層1
 62
     7
 10
81.5969100000002072
 20
-119.3287329247380057
 30
0.0
 11
81.5969100000002072
 21
-125.578722924738301
 31
0.0
  0
LINE
  5
1168D
  8
画層1
 62
     7
 10
70.5007200000000012
 20
-119.3287329247380057
 30
0.0
 11
70.5007200000000012
 21
-126.8287329247380057
 31
0.0
  0
LINE
  5
1168E
  8
画層1
 62
     7
 10
78.6830549999999675
 20
-119.3287329247380057
 30
0.0
 11
78.6830549999999675
 21
-125.578722924738301
 31
0.0
  0
LINE
  5
1168F
  8
画層1
 62
     7
 10
80.250719999999987
 20
-119.3287329247380057
 30
0.0
 11
80.250719999999987
 21
-125.578722924738301
 31
0.0
  0
LINE
  5
11690
  8
画層1
 62
     7
 10
75.3184049999999843
 20
-119.3287329247380057
 30
0.0
 11
75.3184049999999843
 21
-125.578722924738301
 31
0.0
  0
LINE
  5
11691
  8
画層1
 62
     7
 10
82.6347000000000662
 20
-118.8287079247381968
 30
0.0
 11
83.5007550000000265
 21
-119.3287329247380057
 31
0.0
  0
LINE
  5
11692
  8
画層1
 62
     7
 10
73.7507399999999507
 20
-119.3287329247380057
 30
0.0
 11
73.7507399999999507
 21
-125.578722924738301
 31
0.0
  0
LINE
  5
11693
  8
画層1
 62
     7
 10
70.5007200000000012
 20
-119.3287329247380057
 30
0.0
 11
83.5007399999999507
 21
-119.3287329247380057
 31
0.0
  0
LINE
  5
11694
  8
画層1
 62
     7
 10
77.0007299999997343
 20
-119.3287329247380057
 30
0.0
 11
77.0007299999997343
 21
-125.578722924738301
 31
0.0
  0
LINE
  5
11695
  8
画層1
 62
     7
 10
82.6298999999999069
 20
-119.3287329247380057
 30
0.0
 11
82.6298999999999069
 21
-125.578722924738301
 31
0.0
  0
LINE
  5
11696
  8
画層1
 62
     7
 10
70.5007200000000012
 20
-126.8287329247380057
 30
0.0
 11
83.5007399999999507
 21
-126.8287329247380057
 31
0.0
  0
LINE
  5
11697
  8
画層1
 62
     7
 10
83.5007399999999507
 20
-119.3287329247380057
 30
0.0
 11
83.5007399999999507
 21
-126.8287329247380057
 31
0.0
  0
LINE
  5
11698
  8
画層1
 62
     7
 10
83.2792349999999715
 20
-119.3287329247380057
 30
0.0
 11
83.2792349999999715
 21
-125.578722924738301
 31
0.0
  0
LINE
  5
11699
  8
画層1
 62
     7
 10
71.3667150000001129
 20
-118.828722924738301
 30
0.0
 11
82.6347000000000662
 21
-118.828722924738301
 31
0.0
  0
LINE
  5
1169A
  8
画層1
 62
     7
 10
70.5007200000000012
 20
-126.8287329247380057
 30
0.0
 11
70.5007200000000012
 21
-128.8287129247381131
 31
0.0
  0
LINE
  5
1169B
  8
画層1
 62
     7
 10
79.5004200000003038
 20
-152.8289979247377062
 30
0.0
 11
-79.5004589999998643
 21
-152.8289979247377062
 31
0.0
  0
LINE
  5
1169C
  8
画層1
 62
     7
 10
72.2963099999997212
 20
-206.9723829247390086
 30
0.0
 11
-72.2993369999999231
 21
-206.9723829247390086
 31
0.0
  0
ARC
  5
1169D
  8
画層1
 62
     7
 10
-24.0000150000000794
 20
-200.3897529247381897
 30
0.0
 40
50.0000039999999899
 50
180.0
 51
194.9999999999944009
  0
ARC
  5
1169E
  8
画層1
 62
     7
 10
-58.326742500000357
 20
-226.828782924737709
 30
0.0
 40
9.9999997499999989
 50
194.9999999999944009
 51
270.0000100000009979
  0
ARC
  5
1169F
  8
画層1
 62
     7
 10
23.9999849999999313
 20
-200.3897529247381897
 30
0.0
 40
50.0000039999999899
 50
345.0000000000056275
 51
359.9999970000152985
  0
ARC
  5
116A0
  8
画層1
 62
     7
 10
58.326720000000023
 20
-226.828782924737709
 30
0.0
 40
9.9999997499999989
 50
269.9999899999990021
 51
345.0000000000056275
  0
ARC
  5
116A1
  8
画層1
 62
     7
 10
-79.0004715000000033
 20
-161.2003029247383097
 30
0.0
 40
4.9999999500000003
 50
359.9999970000152985
 51
59.9999989999767323
  0
ARC
  5
116A2
  8
画層1
 62
     7
 10
-75.500445000000127
 20
-148.2099579247380916
 30
0.0
 40
8.0000002499999994
 50
180.0
 51
239.9999999999928093
  0
ARC
  5
116A3
  8
画層1
 62
     7
 10
79.0004549999998744
 20
-161.2003029247383097
 30
0.0
 40
4.9999999500000003
 50
120.0000000000072049
 51
180.0
  0
ARC
  5
116A4
  8
画層1
 62
     7
 10
75.5004300000000512
 20
-148.2099579247380916
 30
0.0
 40
8.0000002499999994
 50
300.0000000000072191
 51
359.9999970000152985
  0
ARC
  5
116A5
  8
画層1
 62
     7
 10
-24.0000150000000794
 20
-240.8287779247378069
 30
0.0
 40
1.000000035
 50
180.0
 51
270.0000100000009979
  0
ARC
  5
116A6
  8
画層1
 62
     7
 10
23.9999849999999313
 20
-240.8287779247378069
 30
0.0
 40
1.000000035
 50
269.9999899999990021
 51
0.0000039999795585
  0
ARC
  5
116A7
  8
画層1
 62
     7
 10
69.9999149999998735
 20
-128.3287329247380057
 30
0.0
 40
0.5000000100000001
 50
180.0
 51
270.0000100000009979
  0
ARC
  5
116A8
  8
画層1
 62
     7
 10
-64.4999490000000151
 20
-124.828722924738301
 30
0.0
 40
4.9999948500000002
 50
90.0
 51
180.0
  0
ARC
  5
116A9
  8
画層1
 62
     7
 10
64.4999399999996967
 20
-124.828722924738301
 30
0.0
 40
4.9999948500000002
 50
359.9999970000152985
 51
90.0
  0
LINE
  5
116AA
  8
画層1
 62
     7
 10
-82.6336080000000948
 20
-118.8287079247381968
 30
0.0
 11
-83.4996585000003506
 21
-119.3287329247380057
 31
0.0
  0
LINE
  5
116AB
  8
画層1
 62
     7
 10
38.5002450000001772
 20
-119.3287329247380057
 30
0.0
 11
38.5002450000001772
 21
-125.578722924738301
 31
0.0
  0
LINE
  5
116AC
  8
画層1
 62
     7
 10
43.0964699999999468
 20
-119.3287329247380057
 30
0.0
 11
43.0964699999999468
 21
-125.578722924738301
 31
0.0
  0
LINE
  5
116AD
  8
画層1
 62
     7
 10
45.0002549999999175
 20
-125.578722924738301
 30
0.0
 11
32.0002199999998993
 21
-125.578722924738301
 31
0.0
  0
LINE
  5
116AE
  8
画層1
 62
     7
 10
45.0002549999999175
 20
-119.3287329247380057
 30
0.0
 11
45.0002549999999175
 21
-126.8287329247380057
 31
0.0
  0
LINE
  5
116AF
  8
画層1
 62
     7
 10
44.1342599999998129
 20
-118.828722924738301
 30
0.0
 11
32.8662750000003214
 21
-118.828722924738301
 31
0.0
  0
LINE
  5
116B0
  8
画層1
 62
     7
 10
45.0002549999999175
 20
-126.8287329247380057
 30
0.0
 11
32.0002199999998993
 21
-126.8287329247380057
 31
0.0
  0
LINE
  5
116B1
  8
画層1
 62
     7
 10
32.8662600000002385
 20
-118.828722924738301
 30
0.0
 11
32.0002500000000509
 21
-119.328717924738001
 31
0.0
  0
LINE
  5
116B2
  8
画層1
 62
     7
 10
32.0002199999998993
 20
-126.8287329247380057
 30
0.0
 11
32.0002199999998993
 21
-128.8287129247381131
 31
0.0
  0
LINE
  5
116B3
  8
画層1
 62
     7
 10
40.1825699999999273
 20
-119.3287329247380057
 30
0.0
 11
40.1825699999999273
 21
-125.578722924738301
 31
0.0
  0
LINE
  5
116B4
  8
画層1
 62
     7
 10
41.7502199999998993
 20
-119.3287329247380057
 30
0.0
 11
41.7502199999998993
 21
-125.578722924738301
 31
0.0
  0
LINE
  5
116B5
  8
画層1
 62
     7
 10
44.1294149999998808
 20
-119.3287329247380057
 30
0.0
 11
44.1294149999998808
 21
-125.578722924738301
 31
0.0
  0
LINE
  5
116B6
  8
画層1
 62
     7
 10
44.7787950000001729
 20
-119.3287329247380057
 30
0.0
 11
44.7787950000001729
 21
-125.578722924738301
 31
0.0
  0
LINE
  5
116B7
  8
画層1
 62
     7
 10
45.0002549999999175
 20
-126.8287329247380057
 30
0.0
 11
45.0002549999999175
 21
-128.8287129247381131
 31
0.0
  0
LINE
  5
116B8
  8
画層1
 62
     7
 10
33.9040650000001733
 20
-119.3287329247380057
 30
0.0
 11
33.9040650000001733
 21
-125.578722924738301
 31
0.0
  0
LINE
  5
116B9
  8
画層1
 62
     7
 10
32.8710750000000189
 20
-119.3287329247380057
 30
0.0
 11
32.8710750000000189
 21
-125.578722924738301
 31
0.0
  0
LINE
  5
116BA
  8
画層1
 62
     7
 10
36.8179199999999582
 20
-119.3287329247380057
 30
0.0
 11
36.8179199999999582
 21
-125.578722924738301
 31
0.0
  0
LINE
  5
116BB
  8
画層1
 62
     7
 10
44.1342599999998129
 20
-118.8287979247381969
 30
0.0
 11
45.0002850000000691
 21
-119.3287929247382948
 31
0.0
  0
LINE
  5
116BC
  8
画層1
 62
     7
 10
45.0002549999999175
 20
-119.3287329247380057
 30
0.0
 11
32.0002199999998993
 21
-119.3287329247380057
 31
0.0
  0
LINE
  5
116BD
  8
画層1
 62
     7
 10
32.0002199999998993
 20
-119.3287329247380057
 30
0.0
 11
32.0002199999998993
 21
-126.8287329247380057
 31
0.0
  0
LINE
  5
116BE
  8
画層1
 62
     7
 10
32.2217399999999472
 20
-119.3287329247380057
 30
0.0
 11
32.2217399999999472
 21
-125.578722924738301
 31
0.0
  0
LINE
  5
116BF
  8
画層1
 62
     7
 10
35.2502549999999317
 20
-119.3287329247380057
 30
0.0
 11
35.2502549999999317
 21
-125.578722924738301
 31
0.0
  0
LINE
  5
116C0
  8
画層1
 62
     7
 10
-93.49999999970521
 20
43.9712941362082574
 30
0.0
 11
93.4999999997035047
 21
43.9712941361955174
 31
0.0
  0
LINE
  5
116C1
  8
画層1
 62
     7
 10
93.499999999704869
 20
63.9951335710678677
 30
0.0
 11
-93.499999999704869
 21
63.9951335747023222
 31
0.0
  0
LINE
  5
116C2
  8
画層1
 62
     7
 10
-52.5
 20
-98.3287229247383152
 30
0.0
 11
52.5
 21
-98.3287229247383152
 31
0.0
  0
LINE
  5
116C3
  8
画層1
 62
     7
 10
-52.5
 20
-115.328722924738301
 30
0.0
 11
52.5
 21
-115.328722924738301
 31
0.0
  0
LINE
  5
116C4
  8
画層1
 62
     7
 10
-52.5
 20
-115.328722924738301
 30
0.0
 11
-52.5
 21
-98.3287229247383152
 31
0.0
  0
LINE
  5
116C5
  8
画層1
 62
     7
 10
85.5004551000001811
 20
-149.0455731605777885
 30
0.0
 11
85.5004551000001811
 21
-139.6119826888983084
 31
0.0
  0
LINE
  5
116C6
  8
画層1
 62
     7
 10
86.565765153265616
 20
-139.5787426872363994
 30
0.0
 11
83.5004349999990154
 21
-139.6745326920257071
 31
0.0
  0
LINE
  5
116C7
  8
画層1
 62
     7
 10
101.0643658781955025
 20
-149.3287231747351882
 30
0.0
 11
101.0643658781955025
 21
-139.3287226747349905
 31
0.0
  0
LINE
  5
116C8
  8
画層1
 62
     7
 10
101.0643658781955025
 20
-139.3287226747349905
 30
0.0
 11
88.5644252531983511
 21
-139.3287226747349905
 31
0.0
  0
LINE
  5
116C9
  8
画層1
 62
     7
 10
101.0643658781955025
 20
-149.3287231747351882
 30
0.0
 11
88.5644252531983511
 21
-149.3287231747351882
 31
0.0
  0
LINE
  5
116CA
  8
画層1
 62
     7
 10
88.5644252531983511
 20
-149.3287231747351882
 30
0.0
 11
88.5644252531983511
 21
-139.3287226747349905
 31
0.0
  0
LINE
  5
116CB
  8
画層1
 62
     7
 10
88.5644252531983511
 20
-149.078723162235093
 30
0.0
 11
86.5644251531984992
 21
-149.078723162235093
 31
0.0
  0
LINE
  5
116CC
  8
画層1
 62
     7
 10
88.5644252531983511
 20
-139.5787226872351141
 30
0.0
 11
86.5644251531984992
 21
-139.5787226872351141
 31
0.0
  0
LINE
  5
116CD
  8
画層1
 62
     7
 10
86.5643851531963264
 20
-149.0787531622366089
 30
0.0
 11
83.3714575220410552
 21
-148.978969292446692
 31
0.0
  0
LINE
  5
116CE
  8
画層1
 62
     7
 10
-67.4999936233684821
 20
40.3713133233463779
 30
0.0
 11
-67.4999757055006739
 21
22.3712513147028211
 31
0.0
  0
LINE
  5
116CF
  8
画層1
 62
     7
 10
-67.4999780570423127
 20
22.3712513580243311
 30
0.0
 11
67.4999757055006739
 21
22.3712513147028211
 31
0.0
  0
LINE
  5
116D0
  8
画層1
 62
     7
 10
-67.4999936233045901
 20
40.3712491178798629
 30
0.0
 11
67.499993623170667
 21
40.3711147343469818
 31
0.0
  0
LINE
  5
116D1
  8
画層1
 62
     7
 10
-93.49999999970521
 20
43.9712941363611591
 30
0.0
 11
-93.499999999704869
 21
63.9951335710678677
 31
0.0
  0
LINE
  5
116D2
  8
画層1
 62
     7
 10
-52.4999999999997726
 20
43.9712941362054082
 30
0.0
 11
-52.5
 21
40.3713133233463779
 31
0.0
  0
LINE
  5
116D3
  8
画層1
 62
     7
 10
-48.0
 20
-39.3287687962884505
 30
0.0
 11
-48.0
 21
-45.8287229247384786
 31
0.0
  0
LINE
  5
116D4
  8
画層1
 62
     7
 10
-48.0
 20
-45.8287229247384786
 30
0.0
 11
-40.0
 21
-53.828722924737967
 31
0.0
  0
LINE
  5
116D5
  8
画層1
 62
     7
 10
-17.0
 20
-60.8287229247383081
 30
0.0
 11
-40.0
 21
-60.8287229247383081
 31
0.0
  0
LINE
  5
116D6
  8
画層1
 62
     7
 10
-40.0
 20
-60.8287229247383081
 30
0.0
 11
-40.0
 21
-53.828722924737967
 31
0.0
  0
LINE
  5
116D7
  8
画層1
 62
     7
 10
-15.0
 20
-62.8287229247383223
 30
0.0
 11
-15.0
 21
-98.3287229247383721
 31
0.0
  0
ARC
  5
116D8
  8
画層1
 62
     7
 10
-17.0
 20
-62.8287229247383223
 30
0.0
 40
2.0
 50
0.0
 51
90.0
1001
GENIUS_GENODEF_13
1002
{
1000
HIER
1070
     0
1002
}
1002
{
1000
MANEDIT
1070
     0
1002
}
1002
{
1000
NOSEL
1070
     0
1002
}
1002
{
1000
BEHIND
1070
     0
1002
}
1002
{
1000
OTHER
1070
     0
1002
}
1002
{
1000
REACTOR
1002
}
1001
GENIUS_GENOBJ-N-FIL_13
1002
{
1000
OWNER
1000
GEN
1002
}
  0
LINE
  5
116D9
  8
画層1
 62
     7
 10
-40.0
 20
-53.828722924737967
 30
0.0
 11
40.0000000000001066
 21
-53.828722924737967
 31
0.0
  0
LINE
  5
116DA
  8
画層1
 62
     7
 10
-60.0500604797315418
 20
-22.3287243485508498
 30
0.0
 11
60.0500604796461701
 21
-22.328829568065661
 31
0.0
  0
LINE
  5
116DB
  8
画層1
 62
     7
 10
-60.050060055457152
 20
-39.3287729062004701
 30
0.0
 11
60.0500455860243392
 21
-39.3287729061877371
 31
0.0
  0
LINE
  5
116DC
  8
画層1
 62
     7
 10
-60.0500455860243392
 20
-39.3287729061877371
 30
0.0
 11
-60.0500604797314281
 21
-22.3287323241169098
 31
0.0
  0
LINE
  5
116DD
  8
画層1
 62
     7
 10
-54.4999972606246885
 20
-19.0787217676066803
 30
0.0
 11
-75.2298131858099168
 21
-19.07872228496581
 31
0.0
  0
LINE
  5
116DE
  8
画層1
 62
     7
 10
-110.3681518083382969
 20
-46.3315139784102712
 30
0.0
 11
-112.3278926732612035
 21
-42.1287386618031405
 31
0.0
  0
LINE
  5
116DF
  8
画層1
 62
     7
 10
-112.1466420356572939
 20
-48.8544462249602134
 30
0.0
 11
-110.527485593550395
 21
-47.2352897828531511
 31
0.0
  0
ARC
  5
116E0
  8
画層1
 62
     7
 10
-111.0931003078212029
 20
-46.6696750685823574
 30
0.0
 40
0.8000000099999994
 50
314.9999899998427964
 51
24.9999999999560387
  0
ARC
  5
116E1
  8
画層1
 62
     7
 10
-145.6706926185212865
 20
-12.0920827578831904
 30
0.0
 40
0.8000000099999994
 50
65.0000000000436415
 51
135.0000000000003126
  0
LINE
  5
116E2
  8
画層1
 62
     7
 10
-147.8555344855788007
 20
-13.1455537750397298
 30
0.0
 11
-146.2362886117082041
 21
-11.5263079011681402
 31
0.0
  0
LINE
  5
116E3
  8
画層1
 62
     7
 10
-112.1466420356572939
 20
-48.8544462249602134
 30
0.0
 11
-147.8555344855788007
 21
-13.1455537750397298
 31
0.0
  0
LINE
  5
116E4
  8
画層1
 62
     7
 10
-145.3325980049029909
 20
-11.3670365191904903
 30
0.0
 11
-141.1298001146857928
 21
-13.3268742019212105
 31
0.0
  0
LINE
  5
116E5
  8
画層1
 62
     7
 10
-111.9294831534291035
 20
-39.8693046773764195
 30
0.0
 11
-102.3884977446042939
 21
-30.3283192685513612
 31
0.0
  0
ARC
  5
116E6
  8
画層1
 62
     7
 10
-110.515269591055997
 20
-41.2835182397494123
 30
0.0
 40
1.999999999999998
 50
135.0000000000003126
 51
204.9994910438024931
  0
LINE
  5
116E7
  8
画層1
 62
     7
 10
-138.8703355608020047
 20
-12.9284789369780793
 30
0.0
 11
-129.3293368184911003
 21
-3.3874801946653861
 31
0.0
  0
ARC
  5
116E8
  8
画層1
 62
     7
 10
-140.2845491231753101
 20
-11.51426537460509
 30
0.0
 40
1.999999999999998
 50
244.9989107993573043
 51
315.0000000000002842
  0
ARC
  5
116E9
  8
画層1
 62
     7
 10
-75.3367954769612425
 20
-57.2286229247382607
 30
0.0
 40
38.1498999999993487
 50
90.0
 51
135.0000000000003126
  0
ARC
  5
116EA
  8
画層1
 62
     7
 10
-75.3367954769053085
 20
-57.2287229840288703
 30
0.0
 40
76.2500000000003837
 50
90.0
 51
135.0000000000003126
  0
LINE
  5
116EB
  8
画層1
 62
     7
 10
-129.3293368184909014
 20
-3.387480194665613
 30
0.0
 11
-129.2536875423803906
 21
-3.3118309185551871
 31
0.0
  0
LINE
  5
116EC
  8
画層1
 62
     7
 10
-75.3367954769064454
 20
19.0212770159716911
 30
0.0
 11
-75.2298112446590039
 21
19.0212770159718012
 31
0.0
  0
LINE
  5
116ED
  8
画層1
 62
     7
 10
-54.4999982114958286
 20
19.0212779005182711
 30
0.0
 11
-75.2298093036176851
 21
19.0212778506038411
 31
0.0
  0
LINE
  5
116EE
  8
画層1
 62
     7
 10
-75.2298112446519553
 20
-19.07872228496581
 30
0.0
 11
-75.3367954769612425
 21
-19.0787229247389405
 31
0.0
  0
LINE
  5
116EF
  8
画層1
 62
     7
 10
-110.5615535612944029
 20
-46.4090206734483601
 30
0.0
 11
-145.4101089340657893
 21
-11.5604653006776008
 31
0.0
  0
LINE
  5
116F0
  8
画層1
 62
     7
 10
-139.8605869690240979
 20
-13.9187303452003999
 30
0.0
 11
-112.9197478951375047
 21
-40.8595694190861423
 31
0.0
  0
LINE
  5
116F1
  8
画層1
 62
     7
 10
-54.4999971795135707
 20
-22.3287242100365084
 30
0.0
 11
-54.4999982951032891
 21
22.37130564174754
 31
0.0
  0
LINE
  5
116F2
  8
画層1
 62
     7
 10
-8.0000112809395887
 20
-241.8287812697373909
 30
0.0
 11
-8.0000099362744095
 21
-251.2124964923141022
 31
0.0
  0
LINE
  5
116F3
  8
画層1
 62
     7
 10
7.9999950637254642
 20
-251.2124964923141022
 30
0.0
 11
7.9999950637254642
 21
-241.8287804422373029
 31
0.0
  0
LINE
  5
116F4
  8
画層1
 62
     7
 10
93.4999999997035047
 20
43.9712941362067724
 30
0.0
 11
93.499999999704869
 21
63.9951335710678677
 31
0.0
  0
LINE
  5
116F5
  8
画層1
 62
     7
 10
67.4999936233684821
 20
40.3713133233463779
 30
0.0
 11
67.4999757055006739
 21
22.3712513147028211
 31
0.0
  0
LINE
  5
116F6
  8
画層1
  6
CENTER
 62
     7
 10
75.3655226638074964
 20
0.0
 30
0.0
 11
-75.3655226638074964
 21
0.0
 31
0.0
1001
GENIUS_GENODEF_13
1002
{
1000
HIER
1070
     0
1002
}
1002
{
1000
MANEDIT
1070
     0
1002
}
1002
{
1000
NOSEL
1070
     0
1002
}
1002
{
1000
BEHIND
1070
     0
1002
}
1002
{
1000
OTHER
1070
     0
1002
}
1002
{
1000
REACTOR
1002
}
1001
GENIUS_GENOBJ-N-CEN_13
1002
{
1000
OWNER
1000
GEN
1002
}
1001
GENIUS_GENCEN_19
1002
{
1040
3.0
1002
}
  0
LINE
  5
116F7
  8
画層1
  6
CENTER
 62
     7
 10
117.3073899942992
 20
-18.306301733681039
 30
0.0
 11
138.9430797469231038
 21
-39.941991486305028
 31
0.0
  0
ARC
  5
116F8
  8
画層1
  6
CENTER
 62
     7
 10
75.3655226638074964
 20
-57.1999999999999318
 30
0.0
 40
57.2000000000000028
 50
42.8404986203711289
 51
90.0
  0
LINE
  5
116F9
  8
画層1
  6
CENTER
 62
     7
 10
117.3073899942992
 20
-18.306301733681039
 30
0.0
 11
138.9430797469231038
 21
-39.941991486305028
 31
0.0
  0
ARC
  5
116FA
  8
画層1
  6
CENTER
 62
     7
 10
75.3655226638074964
 20
-57.1999999999999318
 30
0.0
 40
57.2000000000000028
 50
42.8404986203711289
 51
90.0
  0
LINE
  5
116FB
  8
画層1
 62
     7
 10
52.5
 20
-115.328722924738301
 30
0.0
 11
52.5
 21
-98.3287229247383152
 31
0.0
  0
LINE
  5
116FC
  8
画層1
 62
     7
 10
15.0
 20
-62.8287229247383223
 30
0.0
 11
15.0
 21
-98.3287229247383721
 31
0.0
  0
ARC
  5
116FD
  8
画層1
 62
     7
 10
17.0
 20
-62.8287229247383223
 30
0.0
 40
2.0
 50
90.0
 51
180.0
1001
GENIUS_GENODEF_13
1002
{
1000
HIER
1070
     0
1002
}
1002
{
1000
MANEDIT
1070
     0
1002
}
1002
{
1000
NOSEL
1070
     0
1002
}
1002
{
1000
BEHIND
1070
     0
1002
}
1002
{
1000
OTHER
1070
     0
1002
}
1002
{
1000
REACTOR
1002
}
1001
GENIUS_GENOBJ-N-FIL_13
1002
{
1000
OWNER
1000
GEN
1002
}
  0
LINE
  5
116FE
  8
画層1
 62
     7
 10
60.0500455860243392
 20
-39.3287729061877371
 30
0.0
 11
60.0500604797314281
 21
-22.3287323241169098
 31
0.0
  0
LINE
  5
116FF
  8
画層1
 62
     7
 10
54.4999972606246885
 20
-19.0787217676066803
 30
0.0
 11
75.2298131858099168
 21
-19.07872228496581
 31
0.0
  0
LINE
  5
11700
  8
画層1
 62
     7
 10
110.3681518083382969
 20
-46.3315139784102712
 30
0.0
 11
112.3278926732612035
 21
-42.1287386618031405
 31
0.0
  0
LINE
  5
11701
  8
画層1
 62
     7
 10
112.1466420356572939
 20
-48.8544462249602134
 30
0.0
 11
110.527485593550395
 21
-47.2352897828531511
 31
0.0
  0
ARC
  5
11702
  8
画層1
 62
     7
 10
111.0931003078212029
 20
-46.6696750685823574
 30
0.0
 40
0.8000000099999994
 50
155.0000000000439115
 51
225.00001000015709
  0
ARC
  5
11703
  8
画層1
 62
     7
 10
145.6706926185212865
 20
-12.0920827578831904
 30
0.0
 40
0.8000000099999994
 50
45.0000000000089173
 51
114.9999999999493951
  0
LINE
  5
11704
  8
画層1
 62
     7
 10
147.8555344855788007
 20
-13.1455537750397298
 30
0.0
 11
146.2362886117082041
 21
-11.5263079011681402
 31
0.0
  0
LINE
  5
11705
  8
画層1
 62
     7
 10
112.1466420356572939
 20
-48.8544462249602134
 30
0.0
 11
147.8555344855788007
 21
-13.1455537750397298
 31
0.0
  0
LINE
  5
11706
  8
画層1
 62
     7
 10
145.3325980049029909
 20
-11.3670365191904903
 30
0.0
 11
141.1298001146857928
 21
-13.3268742019212105
 31
0.0
  0
LINE
  5
11707
  8
画層1
 62
     7
 10
111.9294831534291035
 20
-39.8693046773764195
 30
0.0
 11
102.3884977446042939
 21
-30.3283192685513612
 31
0.0
  0
ARC
  5
11708
  8
画層1
 62
     7
 10
110.515269591055997
 20
-41.2835182397494123
 30
0.0
 40
1.999999999999998
 50
335.0005089562054081
 51
45.0000000000089173
  0
LINE
  5
11709
  8
画層1
 62
     7
 10
138.8703355608020047
 20
-12.9284789369780793
 30
0.0
 11
129.3293368184911003
 21
-3.3874801946653861
 31
0.0
  0
ARC
  5
1170A
  8
画層1
 62
     7
 10
140.2845491231753101
 20
-11.51426537460509
 30
0.0
 40
1.999999999999998
 50
224.9999999999905071
 51
295.0010892006351924
  0
ARC
  5
1170B
  8
画層1
 62
     7
 10
75.3367954769612425
 20
-57.2286229247382607
 30
0.0
 40
38.1498999999993487
 50
45.0000000000089173
 51
90.0
  0
ARC
  5
1170C
  8
画層1
 62
     7
 10
75.3367954769053085
 20
-57.2287229840288703
 30
0.0
 40
76.2500000000003837
 50
45.0000000000089173
 51
90.0
  0
LINE
  5
1170D
  8
画層1
 62
     7
 10
129.3293368184909014
 20
-3.387480194665613
 30
0.0
 11
129.2536875423803906
 21
-3.3118309185551871
 31
0.0
  0
LINE
  5
1170E
  8
画層1
 62
     7
 10
54.4999982114958286
 20
19.0212779005182711
 30
0.0
 11
75.2298093036176851
 21
19.0212778506038411
 31
0.0
  0
LINE
  5
1170F
  8
画層1
 62
     7
 10
110.5615535612944029
 20
-46.4090206734483601
 30
0.0
 11
145.4101089340657893
 21
-11.5604653006776008
 31
0.0
  0
LINE
  5
11710
  8
画層1
 62
     7
 10
139.8605869690240979
 20
-13.9187303452003999
 30
0.0
 11
112.9197478951375047
 21
-40.8595694190861423
 31
0.0
  0
LINE
  5
11711
  8
画層1
 62
     7
 10
54.4999971795135707
 20
-22.3287242100365084
 30
0.0
 11
54.4999982951032891
 21
22.37130564174754
 31
0.0
  0
LINE
  5
11712
  8
画層1
 62
     7
 10
39.4999949999998989
 20
-118.8287229247385994
 30
0.0
 11
39.4999949999998989
 21
-115.3287229247385994
 31
0.0
  0
LINE
  5
11713
  8
画層1
 62
     7
 10
48.0000000000002203
 20
-39.3287687962884505
 30
0.0
 11
48.0000000000002203
 21
-45.8287229247384786
 31
0.0
  0
LINE
  5
11714
  8
画層1
 62
     7
 10
48.0000000000002203
 20
-45.8287229247384786
 30
0.0
 11
40.0000000000002274
 21
-53.828722924737967
 31
0.0
  0
LINE
  5
11715
  8
画層1
 62
     7
 10
40.0000000000002274
 20
-60.8287229247383081
 30
0.0
 11
40.0000000000002274
 21
-53.828722924737967
 31
0.0
  0
LINE
  5
11716
  8
画層1
 62
     7
 10
17.0
 20
-60.8287229247383081
 30
0.0
 11
40.0
 21
-60.8287229247383081
 31
0.0
  0
LINE
  5
11717
  8
画層1
 62
     7
 10
52.4999999999997726
 20
43.9712941362049605
 30
0.0
 11
52.5
 21
40.3713133233459303
 31
0.0
  0
LINE
  5
11718
  8
画層1
 62
     7
 10
11.0000104868845501
 20
-251.2124971269855109
 30
0.0
 11
-11.0000104868845501
 21
-251.2124971269855109
 31
0.0
  0
LINE
  5
11719
  8
画層1
 62
     7
 10
10.0000054868846693
 20
-254.9445571269856998
 30
0.0
 11
-9.9999904868845988
 21
-254.9446321269857094
 31
0.0
  0
LINE
  5
1171A
  8
画層1
 62
     7
 10
11.0000104868845501
 20
-251.2124971269855109
 30
0.0
 11
9.9999904868845988
 21
-254.9446321269857094
 31
0.0
  0
LINE
  5
1171B
  8
画層1
 62
     7
 10
10.0000054868846693
 20
-254.9445571269856998
 30
0.0
 11
10.0000054868846693
 21
-281.212317126985397
 31
0.0
  0
LINE
  5
1171C
  8
画層1
 62
     7
 10
-7.0000054868846737
 20
-284.2123171269855106
 30
0.0
 11
7.0000054868846737
 21
-284.2123171269855106
 31
0.0
  0
ARC
  5
1171D
  8
画層1
 62
     7
 10
7.0000054868846737
 20
-281.212317126985397
 30
0.0
 40
3.0
 50
270.0
 51
0.0
  0
LINE
  5
1171E
  8
画層1
 62
     7
 10
-9.9999669798435207
 20
-254.9446321268974032
 30
0.0
 11
-10.0000054868846693
 21
-281.212317126985397
 31
0.0
  0
LINE
  5
1171F
  8
画層1
 62
     7
 10
-11.0000104868845501
 20
-251.2124971269855109
 30
0.0
 11
-9.9999904868845988
 21
-254.9446321269857094
 31
0.0
  0
ARC
  5
11720
  8
画層1
 62
     7
 10
-7.0000054868846737
 20
-281.212317126985397
 30
0.0
 40
3.0
 50
180.0
 51
270.0
  0
LINE
  5
11721
  8
画層1
  6
CENTER
 62
     7
 10
0.0
 20
75.9451369653851316
 30
0.0
 11
0.0
 21
-297.2392996581601778
 31
0.0
1001
GENIUS_GENOBJ-N-CEN_13
1002
{
1000
OWNER
1000
GEN
1002
}
1001
GENIUS_GENODEF_13
1002
{
1000
HIER
1070
     0
1002
}
1002
{
1000
MANEDIT
1070
     0
1002
}
1002
{
1000
NOSEL
1070
     0
1002
}
1002
{
1000
BEHIND
1070
     0
1002
}
1002
{
1000
OTHER
1070
     0
1002
}
1002
{
1000
REACTOR
1002
}
1001
GENIUS_GENCEN_19
1002
{
1040
3.0
1002
}
  0
CIRCLE
  5
11722
  8
画層1
 62
     7
 10
-0.0000000000001137
 20
-427.1579152143991109
 30
0.0
 40
74.0000205000001046
  0
CIRCLE
  5
11723
  8
画層1
 62
     7
 10
-0.0000000000001137
 20
-427.1579152143991109
 30
0.0
 40
83.5000470000001087
  0
ARC
  5
11724
  8
画層1
 62
     7
 10
0.0
 20
-427.1579152143991109
 30
0.0
 40
93.499999999704869
 50
191.7559438224463975
 51
348.2440561775536025
  0
ARC
  5
11725
  8
画層1
 62
     7
 10
0.0
 20
-427.1579152143991109
 30
0.0
 40
93.499999999704869
 50
11.7559438224464206
 51
168.2440561775536025
  0
ENDSEC
  0
EOF
